  0
SECTION
  2
HEADER
  9
$ACADVER
  1
AC1009
  9
$INSBASE
 10
3884.4110495111149248
 20
157.8490022913152018
 30
0.0
  9
$EXTMIN
 10
3875.177180533290084
 20
157.3521465419867127
 30
-0.0000000000000058
  9
$EXTMAX
 10
3893.4805435902881072
 20
163.864675346960496
 30
0.0000000000000104
  9
$LIMMIN
 10
0.0
 20
0.0
  9
$LIMMAX
 10
11.6929133858000007
 20
8.2677165353999982
  9
$ORTHOMODE
 70
     0
  9
$REGENMODE
 70
     1
  9
$FILLMODE
 70
     1
  9
$QTEXTMODE
 70
     0
  9
$MIRRTEXT
 70
     0
  9
$DRAGMODE
 70
     2
  9
$LTSCALE
 40
0.6431102362
  9
$OSMODE
 70
  4095
  9
$ATTMODE
 70
     1
  9
$TEXTSIZE
 40
0.2
  9
$TRACEWID
 40
0.05
  9
$TEXTSTYLE
  7
STANDARD
  9
$CLAYER
  8
0
  9
$CELTYPE
  6
BYLAYER
  9
$CECOLOR
 62
   256
  9
$DIMSCALE
 40
1.0
  9
$DIMASZ
 40
0.1875
  9
$DIMEXO
 40
0.0625
  9
$DIMDLI
 40
0.4443307087
  9
$DIMRND
 40
0.0
  9
$DIMDLE
 40
0.0
  9
$DIMEXE
 40
0.125
  9
$DIMTP
 40
0.01
  9
$DIMTM
 40
0.01
  9
$DIMTXT
 40
2.0
  9
$DIMCEN
 40
0.1052362205
  9
$DIMTSZ
 40
0.0
  9
$DIMTOL
 70
     1
  9
$DIMLIM
 70
     0
  9
$DIMTIH
 70
     1
  9
$DIMTOH
 70
     1
  9
$DIMSE1
 70
     0
  9
$DIMSE2
 70
     0
  9
$DIMTAD
 70
     0
  9
$DIMZIN
 70
     0
  9
$DIMBLK
  1

  9
$DIMASO
 70
     1
  9
$DIMSHO
 70
     1
  9
$DIMPOST
  1
\X
  9
$DIMAPOST
  1

  9
$DIMALT
 70
     1
  9
$DIMALTD
 70
     2
  9
$DIMALTF
 40
25.3999999999999986
  9
$DIMLFAC
 40
1.0
  9
$DIMTOFL
 70
     0
  9
$DIMTVP
 40
0.0
  9
$DIMTIX
 70
     0
  9
$DIMSOXD
 70
     0
  9
$DIMSAH
 70
     0
  9
$DIMBLK1
  1

  9
$DIMBLK2
  1

  9
$DIMSTYLE
  2
STANDARD
  9
$DIMCLRD
 70
     0
  9
$DIMCLRE
 70
     0
  9
$DIMCLRT
 70
     0
  9
$DIMTFAC
 40
1.0
  9
$DIMGAP
 40
0.09
  9
$LUNITS
 70
     2
  9
$LUPREC
 70
     4
  9
$SKETCHINC
 40
0.1
  9
$FILLETRAD
 40
0.0
  9
$AUNITS
 70
     0
  9
$AUPREC
 70
     0
  9
$MENU
  1
.
  9
$ELEVATION
 40
0.0
  9
$PELEVATION
 40
0.0
  9
$THICKNESS
 40
0.0
  9
$LIMCHECK
 70
     0
  9
$BLIPMODE
 70
     0
  9
$CHAMFERA
 40
0.0
  9
$CHAMFERB
 40
0.0
  9
$SKPOLY
 70
     0
  9
$TDCREATE
 40
2458060.468368056230247
  9
$TDUPDATE
 40
2460901.9389467588625848
  9
$TDINDWG
 40
0.5156667824
  9
$TDUSRTIMER
 40
0.5156667824
  9
$USRTIMER
 70
     1
  9
$ANGBASE
 50
0.0
  9
$ANGDIR
 70
     0
  9
$PDMODE
 70
     0
  9
$PDSIZE
 40
0.3125
  9
$PLINEWID
 40
0.0
  9
$COORDS
 70
     1
  9
$SPLFRAME
 70
     0
  9
$SPLINETYPE
 70
     6
  9
$SPLINESEGS
 70
     8
  9
$ATTDIA
 70
     1
  9
$ATTREQ
 70
     1
  9
$HANDLING
 70
     1
  9
$HANDSEED
  5
D537
  9
$SURFTAB1
 70
     6
  9
$SURFTAB2
 70
     6
  9
$SURFTYPE
 70
     6
  9
$SURFU
 70
     6
  9
$SURFV
 70
     6
  9
$UCSNAME
  2

  9
$UCSORG
 10
0.0
 20
0.0
 30
0.0
  9
$UCSXDIR
 10
1.0
 20
0.0
 30
0.0
  9
$UCSYDIR
 10
0.0
 20
1.0
 30
0.0
  9
$PUCSNAME
  2

  9
$PUCSORG
 10
0.0
 20
0.0
 30
0.0
  9
$PUCSXDIR
 10
1.0
 20
0.0
 30
0.0
  9
$PUCSYDIR
 10
0.0
 20
1.0
 30
0.0
  9
$USERI1
 70
     0
  9
$USERI2
 70
     0
  9
$USERI3
 70
     0
  9
$USERI4
 70
     0
  9
$USERI5
 70
     0
  9
$USERR1
 40
0.0
  9
$USERR2
 40
0.0
  9
$USERR3
 40
0.0
  9
$USERR4
 40
0.0
  9
$USERR5
 40
0.0
  9
$WORLDVIEW
 70
     1
  9
$SHADEDGE
 70
     3
  9
$SHADEDIF
 70
    70
  9
$TILEMODE
 70
     1
  9
$MAXACTVP
 70
    64
  9
$PLIMCHECK
 70
     0
  9
$PEXTMIN
 10
1.0000000000000000E+20
 20
1.0000000000000000E+20
 30
1.0000000000000000E+20
  9
$PEXTMAX
 10
-1.0000000000000000E+20
 20
-1.0000000000000000E+20
 30
-1.0000000000000000E+20
  9
$PLIMMIN
 10
0.0
 20
0.0
  9
$PLIMMAX
 10
12.0
 20
9.0
  9
$UNITMODE
 70
     0
  9
$VISRETAIN
 70
     1
  9
$PLINEGEN
 70
     0
  9
$PSLTSCALE
 70
     1
  0
ENDSEC
  0
SECTION
  2
TABLES
  0
TABLE
  2
VPORT
 70
     1
  0
VPORT
  2
*ACTIVE
 70
     0
 10
0.0
 20
0.0
 11
1.0
 21
1.0
 12
751.4115036633511409
 22
-29.0398285866698203
 13
0.0
 23
0.0
 14
1.0
 24
1.0
 15
0.0
 25
0.0
 16
0.0
 26
0.0
 36
71.4061910302851857
 17
3132.9173583984370453
 27
189.6482395311433891
 37
0.0
 40
8.0791465103514746
 41
2.2726190476190471
 42
50.0
 43
0.0
 44
0.0
 50
0.0
 51
0.0
 71
     0
 72
   100
 73
     1
 74
     1
 75
     0
 76
     0
 77
     0
 78
     0
  0
ENDTAB
  0
TABLE
  2
LTYPE
 70
     2
  0
LTYPE
  2
CONTINUOUS
 70
     0
  3
Solid line
 72
    65
 73
     0
 40
0.0
  0
LTYPE
  2
PHANTOM2
 70
     0
  3
___ _ _ ___ _ _ ___ _ _ ___ _ _
 72
    65
 73
     6
 40
1.25
 49
0.625
 49
-0.125
 49
0.125
 49
-0.125
 49
0.125
 49
-0.125
  0
ENDTAB
  0
TABLE
  2
LAYER
 70
     2
  0
LAYER
  2
0
 70
     0
 62
   255
  6
CONTINUOUS
  0
LAYER
  2
DEFPOINTS
 70
     0
 62
     7
  6
CONTINUOUS
  0
ENDTAB
  0
TABLE
  2
STYLE
 70
     1
  0
STYLE
  2
STANDARD
 70
     0
 40
0.0
 41
0.8
 50
0.0
 71
     0
 42
0.2
  3
txt
  4

  0
ENDTAB
  0
TABLE
  2
VIEW
 70
     0
  0
ENDTAB
  0
TABLE
  2
UCS
 70
     0
  0
ENDTAB
  0
TABLE
  2
APPID
 70
     9
  0
APPID
  2
ACAD
 70
     0
  0
APPID
  2
ACAD_MLEADERVER
 70
     0
  0
APPID
  2
ACAD_EXEMPT_FROM_CAD_STANDARDS
 70
     0
  0
APPID
  2
ACAD_NAV_VCDISPLAY
 70
     0
  0
APPID
  2
ACAECLAYERSTANDARD
 70
     0
  0
APPID
  2
ACCMTRANSPARENCY
 70
     0
  0
APPID
  2
ACAD_DSTYLE_DIMJAG
 70
     0
  0
APPID
  2
ACAD_DSTYLE_DIMTALN
 70
     0
  0
APPID
  2
ACDBATTR
 70
     0
  0
ENDTAB
  0
TABLE
  2
DIMSTYLE
 70
     1
  0
DIMSTYLE
  2
STANDARD
 70
     0
  3

  4

  5

  6

  7

 40
1.0
 41
0.1875
 42
0.0625
 43
0.38
 44
0.125
 45
0.0
 46
0.0
 47
0.01
 48
0.01
140
0.15625
141
0.09
142
0.0
143
25.3999999999999986
144
1.0
145
0.0
146
1.0
147
0.09
 71
     1
 72
     0
 73
     1
 74
     1
 75
     0
 76
     0
 77
     0
 78
     4
170
     0
171
     2
172
     0
173
     0
174
     0
175
     0
176
     0
177
     0
178
     0
  0
ENDTAB
  0
ENDSEC
  0
SECTION
  2
BLOCKS
  0
BLOCK
  8
0
  2
$MODEL_SPACE
 70
     0
 10
0.0
 20
0.0
 30
0.0
  3
$MODEL_SPACE
  1

  0
ENDBLK
  5
21
  8
0
  0
BLOCK
 67
     1
  8
0
  2
$PAPER_SPACE
 70
     0
 10
0.0
 20
0.0
 30
0.0
  3
$PAPER_SPACE
  1

  0
ENDBLK
  5
1D
 67
     1
  8
0
  0
BLOCK
  8
0
  2
_FILLED
 70
     0
 10
0.0
 20
0.0
 30
0.0
  3
_FILLED
  1

  0
SOLID
  5
C62A
  8
0
  6
BYBLOCK
 62
     0
 10
0.0
 20
0.0
 30
0.0
 11
-1.0
 21
0.1666666667
 31
0.0
 12
-1.0
 22
-0.1666666667
 32
0.0
 13
-1.0
 23
-0.1666666667
 33
0.0
  0
ENDBLK
  5
C62B
  8
0
  6
BYBLOCK
 62
     0
  0
ENDSEC
  0
SECTION
  2
ENTITIES
  0
ATTDEF
  5
3930
  8
DEFPOINTS
 10
3884.3998290760860073
 20
157.8467884239146883
 30
0.0
 40
0.001
  1
P72066-00
  3

  2
MODELNUMBER
 70
     0
1001
ACDBATTR
1070
     0
1070
     1
  0
ATTDEF
  5
3931
  8
DEFPOINTS
 10
3884.3998290760860073
 20
157.8451217572481085
 30
0.0
 40
0.001
  1
KALLISTA
  3

  2
BRANDNAME
 70
     0
1001
ACDBATTR
1070
     0
1070
     1
  0
ATTDEF
  5
3932
  8
DEFPOINTS
 10
3884.3998290760860073
 20
157.8434550905813865
 30
0.0
 40
0.001
  1
BATHROOM SINK
  3

  2
PRODUCT
 70
     0
1001
ACDBATTR
1070
     0
1070
     1
  0
ARC
  5
D160
  8
0
 10
3876.6062097472840833
 20
162.6498092625500931
 30
0.0
 40
0.112227000889394
 50
301.3059425622524827
 51
356.655710150276775
  0
ARC
  5
D161
  8
0
 10
3876.5535380057140173
 20
162.6528871487045933
 30
0.0
 40
0.1649885943385129
 50
356.655710150276775
 51
13.9185877092093602
  0
ARC
  5
D162
  8
0
 10
3876.6277813061110464
 20
162.671286070959809
 30
0.0
 40
0.0884994578936595
 50
13.9185877092093602
 51
59.1253686988800169
  0
ARC
  5
D163
  8
0
 10
3876.5516238339469055
 20
162.5439082520944112
 30
0.0
 40
0.236907912185692
 50
59.1253686988800169
 51
68.8187087579867836
  0
ARC
  5
D164
  8
0
 10
3876.6602947965670865
 20
162.8243502923263861
 30
0.0
 40
0.0638529829555412
 50
182.3073578243046029
 51
248.8187087579867978
  0
ARC
  5
D165
  8
0
 10
3875.4993414256018696
 20
162.7144199067600994
 30
0.0
 40
1.102392377351332
 50
5.5887727712857123
 51
11.9820088881832891
  0
ARC
  5
D166
  8
0
 10
3876.4148047201770169
 20
162.8610443397575125
 30
0.0
 40
0.1824910460952478
 50
26.784564022540529
 51
79.0629405212860519
  0
ARC
  5
D167
  8
0
 10
3876.5681745452911855
 20
163.3698486616999048
 30
0.0
 40
0.3503643306287922
 50
208.6304630332568024
 51
250.1888733376592882
  0
ARC
  5
D168
  8
0
 10
3876.7068422833408476
 20
163.3845633822824084
 30
0.0
 40
0.4821084478440702
 50
151.0003532252372054
 51
202.2557917447851992
  0
ARC
  5
D169
  8
0
 10
3876.6568648890029181
 20
163.4122659015569923
 30
0.0
 40
0.4249667859937654
 50
109.5112835805434059
 51
151.0003532252358127
  0
ARC
  5
D16A
  8
0
 10
3876.7988105982390152
 20
163.021245722382389
 30
0.0
 40
0.8409477958775978
 50
93.9502974434464733
 51
109.7290881400626006
  0
LINE
  5
D16B
  8
0
 10
3876.7408767900760722
 20
163.8601955833771058
 30
0.0
 11
3892.0812216947310844
 21
163.8601955833771058
 31
0.0
  0
ARC
  5
D16C
  8
0
 10
3876.601564979073828
 20
162.4871737007686079
 30
0.0
 40
0.0674140775411749
 50
68.8629658416708708
 51
96.5074795959593672
  0
ARC
  5
D16D
  8
0
 10
3876.6047264232688576
 20
162.4594582293408962
 30
0.0
 40
0.095309275799235
 50
96.5074795959593672
 51
118.6268312715568953
  0
ARC
  5
D16E
  8
0
 10
3876.7086425893630803
 20
162.2690746841516045
 30
0.0
 40
0.3122066336774782
 50
118.6268312715568953
 51
129.3794901062225051
  0
ARC
  5
D16F
  8
0
 10
3878.3371849369318625
 20
160.0479530783200062
 30
0.0
 40
3.0659725243900509
 50
126.5677432604311008
 51
130.4801056630182927
  0
ARC
  5
D170
  8
0
 10
3877.6068061441937971
 20
160.9774858292751958
 30
0.0
 40
1.8853987740952021
 50
131.9355622814487958
 51
145.4841504868255981
  0
ARC
  5
D171
  8
0
 10
3878.6742954961277974
 20
160.1720859583909089
 30
0.0
 40
3.2218801872101661
 50
144.4393403466714005
 51
154.3020683424705055
  0
ARC
  5
D172
  8
0
 10
3878.4641563680038416
 20
160.2395037432343941
 30
0.0
 40
3.0034447891795462
 50
153.7226568261847035
 51
167.2050699029919087
  0
ARC
  5
D173
  8
0
 10
3879.1898024805109344
 20
160.0307657256936977
 30
0.0
 40
3.7575442840687932
 50
166.5516453961998025
 51
184.9110676517225897
  0
ARC
  5
D174
  8
0
 10
3877.7093276105701989
 20
159.9135515050487015
 30
0.0
 40
2.2724917499228798
 50
185.162153170100197
 51
203.3243314430251019
  0
ARC
  5
D175
  8
0
 10
3877.2411768034708075
 20
159.6736600364322953
 30
0.0
 40
1.747966497098502
 50
202.1793137155742954
 51
225.9135743243004981
  0
ARC
  5
D176
  8
0
 10
3876.8376143426439739
 20
159.1762200281534945
 30
0.0
 40
1.111306839722441
 50
223.0140595681257025
 51
252.1066150799958052
  0
ARC
  5
D177
  8
0
 10
3876.801015791602822
 20
159.1021799760771955
 30
0.0
 40
1.029674187260232
 50
252.7788007666482031
 51
264.3074339058142073
  0
ARC
  5
D178
  8
0
 10
3876.7440604005419118
 20
158.3659898884361894
 30
0.0
 40
0.2919233658693044
 50
261.0970045079067745
 51
274.4994558728475909
  0
ARC
  5
D179
  8
0
 10
3876.7008236221367952
 20
162.3076330510533865
 30
0.0
 40
0.2537408503078899
 50
107.1801290615110958
 51
118.5749476624941963
  0
ARC
  5
D17A
  8
0
 10
3877.118131751423789
 20
161.5414388706680029
 30
0.0
 40
1.1262083837013031
 50
118.5749476624941963
 51
123.8952487037360015
  0
ARC
  5
D17B
  8
0
 10
3877.3089355267911742
 20
161.2574420281526955
 30
0.0
 40
1.4683491255789201
 50
123.8952487037360015
 51
130.6958764813460903
  0
ARC
  5
D17C
  8
0
 10
3877.2299716579309461
 20
161.3492593605404011
 30
0.0
 40
1.347247040081025
 50
130.6958764813460903
 51
138.5156220749412057
  0
ARC
  5
D17D
  8
0
 10
3877.7843049567331946
 20
160.8590960690083875
 30
0.0
 40
2.0872101868155291
 50
138.5156220749412057
 51
144.1982504429718119
  0
ARC
  5
D17E
  8
0
 10
3879.4243071176560989
 20
159.6762130776336051
 30
0.0
 40
4.1092930879638301
 50
144.1982504429718119
 51
147.9343191100053048
  0
ARC
  5
D17F
  8
0
 10
3878.0744217286019193
 20
160.5218682826194936
 30
0.0
 40
2.5163953231017531
 50
147.9343191100053048
 51
155.3092007938224981
  0
ARC
  5
D180
  8
0
 10
3880.0331353560700336
 20
159.6213417231307972
 30
0.0
 40
4.672203097179449
 50
155.3092007938224981
 51
157.1222762277153038
  0
ARC
  5
D181
  8
0
 10
3877.9974275342337933
 20
160.4803258307665033
 30
0.0
 40
2.4626873056413068
 50
157.1222762277153038
 51
162.4831634771373956
  0
ARC
  5
D182
  8
0
 10
3880.5442013095039329
 20
159.676508292516786
 30
0.0
 40
5.1333013356357586
 50
162.4831634771373956
 51
164.6348127502039063
  0
ARC
  5
D183
  8
0
 10
3878.4976841163629615
 20
160.2388754679832061
 30
0.0
 40
3.0109230795600559
 50
164.6348127502039063
 51
169.9659262093211964
  0
ARC
  5
D184
  8
0
 10
3880.8010876613288929
 20
159.831310703765098
 30
0.0
 40
5.350106041192805
 50
169.9659262093211964
 51
174.1379149086249072
  0
ARC
  5
D185
  8
0
 10
3878.7620543305888532
 20
160.0406606745630995
 30
0.0
 40
3.3003537795429359
 50
174.1379149086249072
 51
183.2626536869028939
  0
ARC
  5
D186
  8
0
 10
3879.2432173579600203
 20
160.0680896994172997
 30
0.0
 40
3.7822979778826298
 50
183.2626536869028939
 51
187.4233566548747092
  0
ARC
  5
D187
  8
0
 10
3877.6104088730871808
 20
159.8553480244638934
 30
0.0
 40
2.1356885619807251
 50
187.4233566548747092
 51
196.2440703938929971
  0
ARC
  5
D188
  8
0
 10
3877.8138759617440883
 20
159.9146304272757959
 30
0.0
 40
2.3476160482808002
 50
196.2440703938929971
 51
204.4080796502366866
  0
ARC
  5
D189
  8
0
 10
3877.2822476351561818
 20
159.6733827224705067
 30
0.0
 40
1.7638103162921559
 50
204.4080796502366866
 51
212.8646777629973883
  0
ARC
  5
D18A
  8
0
 10
3877.4842859189839146
 20
159.8039105377364137
 30
0.0
 40
2.0043450927585189
 50
212.8646777629973883
 51
219.7011492666680113
  0
ARC
  5
D18B
  8
0
 10
3877.0713827656900321
 20
159.46109774425571
 30
0.0
 40
1.4676798103208211
 50
219.7011492666680113
 51
225.1885027230985088
  0
ARC
  5
D18C
  8
0
 10
3877.0998146479528259
 20
159.4897173261227863
 30
0.0
 40
1.5080215058137469
 50
225.1885027230985088
 51
238.7792903042877128
  0
ARC
  5
D18D
  8
0
 10
3876.6552865437738546
 20
158.756312576143614
 30
0.0
 40
0.6504156740373406
 50
238.7792903042877128
 51
252.6564523925000003
  0
ARC
  5
D18E
  8
0
 10
3876.8075365573008639
 20
159.1029874510159061
 30
0.0
 40
1.0275726378809691
 50
250.3148435950170949
 51
262.0094141164781263
  0
ARC
  5
D18F
  8
0
 10
3876.850318159015842
 20
159.3994723232096078
 30
0.0
 40
1.3271265024340351
 50
261.9596896592951794
 51
266.3988962068457909
  0
ARC
  5
D190
  8
0
 10
3876.806546958573108
 20
158.7433746288446059
 30
0.0
 40
0.669579578664186
 50
266.6107200051615109
 51
268.3850848827526079
  0
ARC
  5
D191
  8
0
 10
3876.7997383400288527
 20
158.2608301918388065
 30
0.0
 40
0.1871582439605618
 50
266.3050243407765834
 51
276.1792327357503041
  0
ARC
  5
D192
  8
0
 10
3876.8088159282051492
 20
158.1769865401732034
 30
0.0
 40
0.1028246176201154
 50
276.1792327357503041
 51
289.2645827071177109
  0
ARC
  5
D193
  8
0
 10
3876.6540793561539431
 20
162.4630939184237945
 30
0.0
 40
0.0914180413694402
 50
83.5180341628239518
 51
107.9704450930999968
  0
ARC
  5
D194
  8
0
 10
3876.6579349332591846
 20
162.4970288456825926
 30
0.0
 40
0.057264787309555
 50
45.9800639804557392
 51
83.5180341628239518
  0
ARC
  5
D195
  8
0
 10
3876.6841286279232008
 20
162.5241343300320125
 30
0.0
 40
0.0195710620766669
 50
36.8082593210683982
 51
45.9800639804557392
  0
ARC
  5
D196
  8
0
 10
3876.6963860655000644
 20
162.5333068209897078
 30
0.0
 40
0.004261608581442
 50
338.6525859245770107
 51
36.8082593210697127
  0
ARC
  5
D197
  8
0
 10
3876.652603460283899
 20
162.5463636609929097
 30
0.0
 40
0.0499363117478836
 50
323.8859929395699169
 51
342.9901671689607952
  0
ARC
  5
D198
  8
0
 10
3877.0941987072069423
 20
161.7221954132510007
 30
0.0
 40
0.8902867819492257
 50
116.7887593603527989
 51
122.6071694578775038
  0
ARC
  5
D199
  8
0
 10
3877.4033118967099654
 20
161.2389818156603098
 30
0.0
 40
1.463912395761146
 50
122.6071694578775038
 51
129.3620265525391062
  0
ARC
  5
D19A
  8
0
 10
3877.4157465463390508
 20
161.2816097464879022
 30
0.0
 40
1.4393073979699631
 50
130.8211157191653911
 51
144.4668818876176886
  0
ARC
  5
D19B
  8
0
 10
3878.7154919225340564
 20
160.2631381475839873
 30
0.0
 40
3.0897952320195481
 50
143.1050254429324013
 51
150.7446080535958117
  0
ARC
  5
D19C
  8
0
 10
3878.7377274663581375
 20
160.2614705167393936
 30
0.0
 40
3.1100238504350441
 50
150.9179987582934075
 51
166.9143076924233071
  0
ARC
  5
D19D
  8
0
 10
3879.7187770260561592
 20
160.0091384007941997
 30
0.0
 40
4.1227959741623108
 50
166.585465746944493
 51
178.2804409961304088
  0
ARC
  5
D19E
  8
0
 10
3878.8264229792930564
 20
160.0222631623470875
 30
0.0
 40
3.2304788101628881
 50
178.0381943604969024
 51
190.102493937945809
  0
ARC
  5
D19F
  8
0
 10
3877.8085250606218324
 20
159.8562840621542875
 30
0.0
 40
2.1993006547990128
 50
190.4970091173817082
 51
207.0051497885471008
  0
ARC
  5
D1A0
  8
0
 10
3877.4509692753222225
 20
159.6745941289713073
 30
0.0
 40
1.7982307179565249
 50
207.0203182315904087
 51
225.2536148591323979
  0
ARC
  5
D1A1
  8
0
 10
3877.0778317884100943
 20
159.2850199961301882
 30
0.0
 40
1.258899871514928
 50
224.8332974027852913
 51
238.5819606399128077
  0
ARC
  5
D1A2
  8
0
 10
3876.9041205056350918
 20
159.0357792947160078
 30
0.0
 40
0.9558248040747812
 50
239.6801457946660889
 51
257.8065019200407733
  0
ARC
  5
D1A3
  8
0
 10
3876.949519266444895
 20
159.2423501086556996
 30
0.0
 40
1.167324438798002
 50
257.7699873045008871
 51
264.7516639298801806
  0
ARC
  5
D1A4
  8
0
 10
3876.6451043586239393
 20
162.468799820508309
 30
0.0
 40
0.0624545993159998
 50
46.8227645653790816
 51
100.6909436029460068
  0
ARC
  5
D1A5
  8
0
 10
3876.6589533986889364
 20
162.3954422922161882
 30
0.0
 40
0.1371079506665135
 50
100.6909436029460068
 51
129.5993518918135123
  0
ARC
  5
D1A6
  8
0
 10
3875.5015829413141546
 20
163.5924807652993991
 30
0.0
 40
1.5283942439034419
 50
312.3254012827525798
 51
314.4322422433014026
  0
ARC
  5
D1A7
  8
0
 10
3879.2478926097369367
 20
159.3672179460866971
 30
0.0
 40
4.118709851266364
 50
131.2782421328178941
 51
133.77081902287199
  0
ARC
  5
D1A8
  8
0
 10
3878.2771516964721741
 20
160.5189352240622895
 30
0.0
 40
2.6172573559199761
 50
135.8673025766894114
 51
150.3044211954170066
  0
ARC
  5
D1A9
  8
0
 10
3878.5424436653861449
 20
160.3288130838498944
 30
0.0
 40
2.9420867381651208
 50
149.6475320580125867
 51
157.781628930688214
  0
ARC
  5
D1AA
  8
0
 10
3879.0659899964198303
 20
160.1358576465362091
 30
0.0
 40
3.4997766069876648
 50
158.0983195068425005
 51
171.4231979738609937
  0
ARC
  5
D1AB
  8
0
 10
3878.604847309609795
 20
160.0575138177642032
 30
0.0
 40
3.0589724085000878
 50
168.6830156927134112
 51
197.0169445127797019
  0
ARC
  5
D1AC
  8
0
 10
3877.3728966661228696
 20
159.6804702831624923
 30
0.0
 40
1.7706152317153849
 50
197.0169445127797019
 51
214.6673802827280895
  0
ARC
  5
D1AD
  8
0
 10
3877.677777507664814
 20
159.891323089532591
 30
0.0
 40
2.1413054440130601
 50
214.6673802827280895
 51
222.8555681308666863
  0
ARC
  5
D1AE
  8
0
 10
3877.0518303313160686
 20
159.3105610001204866
 30
0.0
 40
1.2874351540519631
 50
222.8555681308666863
 51
239.0189433074006047
  0
ARC
  5
D1AF
  8
0
 10
3876.8550985234278414
 20
158.9828989488549951
 30
0.0
 40
0.9052495655297939
 50
239.0189433074006047
 51
253.7065125771160012
  0
ARC
  5
D1B0
  8
0
 10
3877.0883603094639511
 20
159.7809287610184015
 30
0.0
 40
1.736671625572854
 50
253.7065125771160012
 51
256.2642298721984844
  0
ARC
  5
D1B1
  8
0
 10
3876.8616373599611507
 20
158.8575040921720074
 30
0.0
 40
0.7858223700341702
 50
256.3354410157443795
 51
265.8518869089812142
  0
ARC
  5
D1B2
  8
0
 10
3876.8124147677340261
 20
162.4671379880581128
 30
0.0
 40
0.0874801459769641
 50
68.1822737572041433
 51
93.1236100914015168
  0
ARC
  5
D1B3
  8
0
 10
3876.818618747212895
 20
162.3788116758115905
 30
0.0
 40
0.1760187126373329
 50
93.5734158518117169
 51
108.9606167517063966
  0
ARC
  5
D1B4
  8
0
 10
3876.9513996109039908
 20
161.9923252504744084
 30
0.0
 40
0.5846781242901919
 50
108.9606167517063966
 51
115.0324746167048033
  0
ARC
  5
D1B5
  8
0
 10
3876.7556318441038457
 20
162.3968103102891121
 30
0.0
 40
0.1354947581718439
 50
112.3977808885161949
 51
117.5586658757726042
  0
ARC
  5
D1B6
  8
0
 10
3876.8231023553630621
 20
162.4965126830400095
 30
0.0
 40
0.0562462433366923
 50
44.1560002795764817
 51
67.1684413645923968
  0
ARC
  5
D1B7
  8
0
 10
3876.8417299195580199
 20
162.5145993858857878
 30
0.0
 40
0.0302825192652952
 50
27.9172239535392599
 51
44.1560002795764817
  0
ARC
  5
D1B8
  8
0
 10
3876.8429107977999593
 20
162.522085068026712
 30
0.0
 40
0.0264385705603832
 50
338.2548607610194153
 51
14.6629430823168097
  0
ARC
  5
D1B9
  8
0
 10
3876.6814935000998048
 20
162.5833395013092115
 30
0.0
 40
0.1990842424622929
 50
325.155314171351904
 51
339.0912369354143721
  0
ARC
  5
D1BA
  8
0
 10
3877.3771802764908898
 20
161.5648941243946126
 30
0.0
 40
1.0496756053753029
 50
120.4713024315288976
 51
141.5080247234764101
  0
ARC
  5
D1BB
  8
0
 10
3878.9174042561157876
 20
160.3273985766051908
 30
0.0
 40
3.025441498929121
 50
141.319802394463693
 51
154.6384137811718062
  0
ARC
  5
D1BC
  8
0
 10
3879.1511178900727828
 20
160.2312325334291927
 30
0.0
 40
3.2778477930356629
 50
154.8692967707137882
 51
167.9628246577337052
  0
ARC
  5
D1BD
  8
0
 10
3879.6763488450887962
 20
160.0590768104322876
 30
0.0
 40
3.8278848531363372
 50
167.0821405960269033
 51
189.2487410989998864
  0
ARC
  5
D1BE
  8
0
 10
3877.9034631774670743
 20
159.7880781066423026
 30
0.0
 40
2.034566684001577
 50
189.7405552409524887
 51
220.2295346401820098
  0
ARC
  5
D1BF
  8
0
 10
3877.1659270553332135
 20
159.1066944097225075
 30
0.0
 40
1.032345103441378
 50
217.7938393487802102
 51
256.6353040164599975
  0
ARC
  5
D1C0
  8
0
 10
3877.2058969313948182
 20
159.4615254615818003
 30
0.0
 40
1.387476322667091
 50
258.4166930462980076
 51
270.2346147823371894
  0
ARC
  5
D1C1
  8
0
 10
3877.2271125525339812
 20
158.1856817433198898
 30
0.0
 40
0.1126967291616656
 50
262.0770827298561017
 51
306.3682084600959001
  0
ARC
  5
D1C2
  8
0
 10
3876.7270666190588599
 20
162.2325168925916046
 30
0.0
 40
0.2105403551696259
 50
97.5273954433128694
 51
121.3852974469386936
  0
ARC
  5
D1C3
  8
0
 10
3876.9067014124048001
 20
161.9380579752420886
 30
0.0
 40
0.5554674677414785
 50
121.3852974469386936
 51
132.4831577608613031
  0
ARC
  5
D1C4
  8
0
 10
3877.8590765181361348
 20
160.8981093649454124
 30
0.0
 40
1.9656133658924371
 50
132.4831577608613031
 51
144.6817005308346893
  0
ARC
  5
D1C5
  8
0
 10
3879.3091705851770712
 20
159.8706900562521867
 30
0.0
 40
3.7427918147665169
 50
144.6817005308346893
 51
151.7728060998927901
  0
ARC
  5
D1C6
  8
0
 10
3878.3220779014468462
 20
160.4005678554339056
 30
0.0
 40
2.6224693396117358
 50
151.7728060998927901
 51
163.7312258421727904
  0
ARC
  5
D1C7
  8
0
 10
3880.021042962860065
 20
159.9047606446160898
 30
0.0
 40
4.3923018373921066
 50
163.7312258421727904
 51
170.5259385928607117
  0
ARC
  5
D1C8
  8
0
 10
3879.2338124159209656
 20
160.036131515657587
 30
0.0
 40
3.5941851543243071
 50
170.5259385928607117
 51
180.2164658791984948
  0
ARC
  5
D1C9
  8
0
 10
3878.7076651533898257
 20
160.0341436995805111
 30
0.0
 40
3.0680341367614972
 50
180.2164658791984948
 51
193.9180718269664112
  0
ARC
  5
D1CA
  8
0
 10
3877.5329570177668757
 20
159.7430395857226983
 30
0.0
 40
1.8577941568384959
 50
193.9180718269664112
 51
215.4770251638240097
  0
ARC
  5
D1CB
  8
0
 10
3877.4884126552769885
 20
159.7112933425256074
 30
0.0
 40
1.803094758425448
 50
215.4770251638240097
 51
227.5132262323643886
  0
ARC
  5
D1CC
  8
0
 10
3877.1191622608330363
 20
159.3081404478957097
 30
0.0
 40
1.25639730073468
 50
227.5132262323643886
 51
244.3521467683708863
  0
ARC
  5
D1CD
  8
0
 10
3876.851995182617884
 20
158.7517128360223069
 30
0.0
 40
0.6391534794316195
 50
244.3521467683708863
 51
264.5557084422100047
  0
ARC
  5
D1CE
  8
0
 10
3877.0886658391559649
 20
158.985825005247591
 30
0.0
 40
0.9197608473859769
 50
251.1404478265725118
 51
259.2479964541457207
  0
ARC
  5
D1CF
  8
0
 10
3876.9513167648410672
 20
158.2040602532339904
 30
0.0
 40
0.1265680655427485
 50
254.3043946348828115
 51
294.4651656376648816
  0
ARC
  5
D1D0
  8
0
 10
3876.952840587855917
 20
159.1170187059306045
 30
0.0
 40
1.042926905211502
 50
263.9401113439390087
 51
270.1098020058954035
  0
ARC
  5
D1D1
  8
0
 10
3876.9642920764958944
 20
158.1960348034581045
 30
0.0
 40
0.1223069279041095
 50
265.5673219824606122
 51
296.6109924554208988
  0
ARC
  5
D1D2
  8
0
 10
3879.9948605019421848
 20
159.0967556597753116
 30
0.0
 40
4.6952198359768662
 50
134.57621288291719
 51
137.3671104742624038
  0
ARC
  5
D1D3
  8
0
 10
3878.2054293645692269
 20
160.7441186863817109
 30
0.0
 40
2.2629639413737461
 50
137.3671104742624038
 51
155.0464612955532004
  0
ARC
  5
D1D4
  8
0
 10
3880.7763122930050486
 20
159.5478333762578131
 30
0.0
 40
5.0985481095732874
 50
155.0464612955532004
 51
161.696870698686098
  0
ARC
  5
D1D5
  8
0
 10
3878.7542703374729172
 20
160.216682334543691
 30
0.0
 40
2.9687564298701061
 50
161.696870698686098
 51
178.7684898230579051
  0
ARC
  5
D1D6
  8
0
 10
3879.184182080996834
 20
160.0327041255750942
 30
0.0
 40
3.407004736702659
 50
175.8293300189855017
 51
189.6333132603533045
  0
ARC
  5
D1D7
  8
0
 10
3877.9487166487219838
 20
159.832186309472803
 30
0.0
 40
2.1554246849783869
 50
189.8740141877566998
 51
211.3329575200932879
  0
ARC
  5
D1D8
  8
0
 10
3877.5520638393168156
 20
159.5972996360723073
 30
0.0
 40
1.6944855999126689
 50
211.5234225460951052
 51
231.2221883985436079
  0
ARC
  5
D1D9
  8
0
 10
3877.1253836066907752
 20
159.1006974582938085
 30
0.0
 40
1.0403379681578899
 50
232.4123558697862109
 51
251.2718509873226935
  0
ARC
  5
D1DA
  8
0
 10
3877.1777396294050959
 20
161.9528125652209951
 30
0.0
 40
0.6146988481843373
 50
103.8850166632524008
 51
122.7855314875755965
  0
ARC
  5
D1DB
  8
0
 10
3877.0654241122151689
 20
162.4071680052988995
 30
0.0
 40
0.1466671811680475
 50
65.650968069497722
 51
103.8850166632524008
  0
ARC
  5
D1DC
  8
0
 10
3877.1105706088587795
 20
162.5069286986118016
 30
0.0
 40
0.0371664866976118
 50
342.5375204507890885
 51
65.6509680695222357
  0
ARC
  5
D1DD
  8
0
 10
3876.8326116701750834
 20
162.5943689961131895
 30
0.0
 40
0.328554505019326
 50
330.0619972087812926
 51
342.5374775473209183
  0
ARC
  5
D1DE
  8
0
 10
3876.9664208623239574
 20
162.3010028532295053
 30
0.0
 40
0.1398679959326551
 50
79.7569649960423135
 51
113.859688944685999
  0
ARC
  5
D1DF
  8
0
 10
3877.0617474479281555
 20
162.0499954853956979
 30
0.0
 40
0.4082357679348603
 50
111.844948699736193
 51
133.108181543359791
  0
ARC
  5
D1E0
  8
0
 10
3878.1189978514871655
 20
160.9289039195741964
 30
0.0
 40
1.9492152726408101
 50
133.2766655103825997
 51
141.1326459514966984
  0
ARC
  5
D1E1
  8
0
 10
3879.0765845224332224
 20
160.2045129953941114
 30
0.0
 40
3.1495785762837998
 50
141.8038022996396137
 51
173.0811623156378118
  0
ARC
  5
D1E2
  8
0
 10
3879.2268952157692183
 20
160.056975545361496
 30
0.0
 40
3.3190503716705821
 50
170.8648357720441879
 51
193.0722935005723002
  0
ARC
  5
D1E3
  8
0
 10
3877.8586638384272192
 20
159.7650656732043899
 30
0.0
 40
1.9204161484448341
 50
193.8218264281875065
 51
225.2463972212815975
  0
ARC
  5
D1E4
  8
0
 10
3877.4173131538750567
 20
159.3677542580470003
 30
0.0
 40
1.3279593249209549
 50
226.7001517181103907
 51
245.0625176316036118
  0
ARC
  5
D1E5
  8
0
 10
3877.0746605488998284
 20
158.6308351361485904
 30
0.0
 40
0.5152720542471149
 50
245.0625176316036118
 51
271.6689298436950253
  0
ARC
  5
D1E6
  8
0
 10
3877.4209828385351102
 20
159.0383756447542964
 30
0.0
 40
0.9802803458050805
 50
237.2840149935150862
 51
259.5891343002409144
  0
ARC
  5
D1E7
  8
0
 10
3877.4593607761771636
 20
159.1074404485289904
 30
0.0
 40
1.0591430124486729
 50
225.0164883763756905
 51
237.5565611671538022
  0
ARC
  5
D1E8
  8
0
 10
3878.0353089243330942
 20
159.6837201807497877
 30
0.0
 40
1.873891193871972
 50
215.3908476502006977
 51
225.0164883763756905
  0
ARC
  5
D1E9
  8
0
 10
3877.9901744819740088
 20
159.6516556518072036
 30
0.0
 40
1.8185264767379119
 50
200.7394917353882136
 51
215.3908476502006977
  0
ARC
  5
D1EA
  8
0
 10
3878.8744447113790557
 20
159.9864902279757075
 30
0.0
 40
2.7640676085826059
 50
174.5495800475765122
 51
200.7394917353882136
  0
ARC
  5
D1EB
  8
0
 10
3880.2909326693229559
 20
160.0303552207626012
 30
0.0
 40
4.1737911265216292
 50
162.3445691508433129
 51
176.9967164661051982
  0
ARC
  5
D1EC
  8
0
 10
3879.2715085957020165
 20
160.3179902284209106
 30
0.0
 40
3.1153446033500889
 50
144.2586891049487861
 51
161.699082010053786
  0
ARC
  5
D1ED
  8
0
 10
3889.0743344676498054
 20
152.2109873361542896
 30
0.0
 40
15.8305025434664302
 50
139.7538550372458133
 51
141.1660655456186078
  0
ARC
  5
D1EE
  8
0
 10
3877.6494768283660051
 20
161.6367870487827929
 30
0.0
 40
0.9555133626596248
 50
123.8435322636494931
 51
135.6666331530406922
  0
ARC
  5
D1EF
  8
0
 10
3877.9207568280999112
 20
161.3717595497435866
 30
0.0
 40
1.3347658029266629
 50
135.6670068257170954
 51
150.3761615360398025
  0
ARC
  5
D1F0
  8
0
 10
3879.3537516967189731
 20
160.338909231226296
 30
0.0
 40
3.096798681752079
 50
146.8677045772676024
 51
156.484109482546188
  0
ARC
  5
D1F1
  8
0
 10
3879.8317890766938945
 20
160.1656527900771891
 30
0.0
 40
3.6044056113062131
 50
156.9907410046371012
 51
171.4460347106738141
  0
ARC
  5
D1F2
  8
0
 10
3880.117486062566968
 20
160.0540122234135936
 30
0.0
 40
3.904120644818748
 50
170.4494461428444936
 51
188.7389982028865916
  0
ARC
  5
D1F3
  8
0
 10
3878.3185619955820584
 20
159.7850833332142031
 30
0.0
 40
2.0852350121423449
 50
188.9453555006386125
 51
218.3574023022956965
  0
ARC
  5
D1F4
  8
0
 10
3877.4899900936761696
 20
159.0567469741326079
 30
0.0
 40
0.9851733534708611
 50
215.0436890924605962
 51
249.7462623249701892
  0
ARC
  5
D1F5
  8
0
 10
3877.4662564889222267
 20
159.0589711664746915
 30
0.0
 40
0.9793149358576767
 50
251.0941358548288065
 51
263.0620763380077278
  0
ARC
  5
D1F6
  8
0
 10
3877.5557888773842024
 20
159.7506899500598081
 30
0.0
 40
1.6767920937464
 50
262.8802451443934842
 51
270.5134374448945778
  0
ARC
  5
D1F7
  8
0
 10
3877.5892774167850803
 20
158.1837288693245114
 30
0.0
 40
0.1113056110732124
 50
260.4519851651363069
 51
315.408535874121128
  0
ARC
  5
D1F8
  8
0
 10
3877.6883679187158123
 20
161.5748607902405922
 30
0.0
 40
1.0286087491509841
 50
115.5605026882003017
 51
123.7217142589390022
  0
ARC
  5
D1F9
  8
0
 10
3877.5098418672878324
 20
161.9481335372925912
 30
0.0
 40
0.6148405837126
 50
102.9596736180090062
 51
115.5605026882003017
  0
ARC
  5
D1FA
  8
0
 10
3877.4245900606879331
 20
162.3185890597567891
 30
0.0
 40
0.234702234354344
 50
75.0267101092179161
 51
102.9596736180090062
  0
ARC
  5
D1FB
  8
0
 10
3877.4693544378860679
 20
162.4859640579429083
 30
0.0
 40
0.0614445087437874
 50
11.7096512951163998
 51
75.0267101092179161
  0
ARC
  5
D1FC
  8
0
 10
3877.3103133716581397
 20
162.5028653301829138
 30
0.0
 40
0.2192516095427631
 50
331.0997731671645283
 51
358.8420004932189045
  0
ARC
  5
D1FD
  8
0
 10
3877.9551418427349745
 20
161.7926502663667918
 30
0.0
 40
0.755132261501737
 50
126.8511708249055943
 51
144.1533994451449985
  0
ARC
  5
D1FE
  8
0
 10
3879.8643228503688078
 20
160.3866585942552945
 30
0.0
 40
3.126138731778545
 50
143.7569523415033927
 51
161.4065900464206891
  0
ARC
  5
D1FF
  8
0
 10
3880.9212469625758786
 20
160.0247037371250087
 30
0.0
 40
4.2433105286940087
 50
161.324735976811013
 51
174.8632795722213018
  0
ARC
  5
D200
  8
0
 10
3879.8089244405291538
 20
160.0419294582046064
 30
0.0
 40
3.1349968954435021
 50
173.3565521225478108
 51
198.2712649517436034
  0
ARC
  5
D201
  8
0
 10
3878.5604618854899854
 20
159.6124507396991987
 30
0.0
 40
1.8149039356504271
 50
197.7531280139598948
 51
227.1647856038289888
  0
ARC
  5
D202
  8
0
 10
3877.832497935371066
 20
158.8446094477831991
 30
0.0
 40
0.7569912298093027
 50
228.0560989042332096
 51
257.4912011694747207
  0
ARC
  5
D203
  8
0
 10
3877.9868996255768252
 20
159.6471618515699049
 30
0.0
 40
1.5741043704494
 50
258.3316047780598979
 51
272.014435141260094
  0
ARC
  5
D204
  8
0
 10
3878.027867572942796
 20
158.4830353286887998
 30
0.0
 40
0.4092571993106692
 50
272.0113427504336983
 51
277.190704848876976
  0
ARC
  5
D205
  8
0
 10
3878.0685782644391111
 20
158.1603560364526118
 30
0.0
 40
0.0840199227875588
 50
277.190704848876976
 51
313.8729748544516269
  0
ARC
  5
D206
  8
0
 10
3878.0941301962047874
 20
158.1337176211891062
 30
0.0
 40
0.0471078217627462
 50
313.9243529624700955
 51
340.741904637540415
  0
ARC
  5
D207
  8
0
 10
3877.3443335288679918
 20
162.403712914912802
 30
0.0
 40
0.0389730110625449
 50
35.6126761254583712
 51
99.7978263244580575
  0
ARC
  5
D208
  8
0
 10
3877.3394864653428158
 20
162.2451979111783942
 30
0.0
 40
0.1969276588103971
 50
90.5193662845614568
 51
109.182729308031
  0
ARC
  5
D209
  8
0
 10
3877.39723857528179
 20
162.0631851332767894
 30
0.0
 40
0.3878462414132318
 50
108.4055573595620956
 51
128.7001300612213015
  0
ARC
  5
D20A
  8
0
 10
3878.0418831301021783
 20
161.3460139596757017
 30
0.0
 40
1.3517147364493349
 50
131.0190197873239129
 51
141.8401269139577892
  0
ARC
  5
D20B
  8
0
 10
3879.0895934007371579
 20
160.473472310188896
 30
0.0
 40
2.7149016972614488
 50
141.0226379311438905
 51
154.5421734056471053
  0
ARC
  5
D20C
  8
0
 10
3879.8176034944940511
 20
160.1370798196186058
 30
0.0
 40
3.5168326283238431
 50
154.6921117360610936
 51
173.191640706766492
  0
ARC
  5
D20D
  8
0
 10
3879.9918486708670571
 20
160.045722280993914
 30
0.0
 40
3.701342451503046
 50
172.1071165312021094
 51
188.3140841868354869
  0
ARC
  5
D20E
  8
0
 10
3878.3638622401331304
 20
159.805472262028502
 30
0.0
 40
2.0557270023595371
 50
188.2494468639659999
 51
221.022193555066309
  0
ARC
  5
D20F
  8
0
 10
3877.7567355312780819
 20
159.3101949827133126
 30
0.0
 40
1.272843172363828
 50
222.1396831619528029
 51
241.4428324201599878
  0
ARC
  5
D210
  8
0
 10
3877.4776857599758841
 20
158.8290171336198
 30
0.0
 40
0.7169680990167893
 50
242.6480806827522088
 51
263.240153670121515
  0
ARC
  5
D211
  8
0
 10
3877.430041715615971
 20
158.3084580398237051
 30
0.0
 40
0.1949203444164537
 50
259.1328281264010798
 51
283.5999343030413797
  0
ARC
  5
D212
  8
0
 10
3877.9064404436771838
 20
159.1203569349742111
 30
0.0
 40
1.090045264936041
 50
236.8170135880363034
 51
246.7298198672465901
  0
ARC
  5
D213
  8
0
 10
3877.8938687591648886
 20
159.101132930844301
 30
0.0
 40
1.0670755112097441
 50
218.2803997543450976
 51
236.8170135880363034
  0
ARC
  5
D214
  8
0
 10
3878.8130326429659362
 20
159.8265344112919877
 30
0.0
 40
2.238002303592125
 50
182.1850759311963088
 51
218.2803997543450976
  0
ARC
  5
D215
  8
0
 10
3880.9240111580129451
 20
160.0306306578463023
 30
0.0
 40
4.3569771557698456
 50
161.7207009622202918
 51
183.8088547959899017
  0
ARC
  5
D216
  8
0
 10
3879.8384064298688827
 20
160.3133579593497871
 30
0.0
 40
3.238277413662213
 50
140.6985403402044028
 51
160.4459938765103004
  0
ARC
  5
D217
  8
0
 10
3877.0570731250782046
 20
162.604081171287504
 30
0.0
 40
0.3650939849309549
 50
318.9847784741695023
 51
330.879156633961486
  0
ARC
  5
D218
  8
0
 10
3878.0496737010162178
 20
161.6772802721019104
 30
0.0
 40
0.9042334567290231
 50
112.8412942092034967
 51
126.7472853205372019
  0
ARC
  5
D219
  8
0
 10
3877.9328612948252157
 20
161.9546063338594877
 30
0.0
 40
0.6033100731740598
 50
97.3397822431936532
 51
112.8412942092034967
  0
ARC
  5
D21A
  8
0
 10
3877.8817369317321209
 20
162.3515076778355137
 30
0.0
 40
0.2031296421786212
 50
62.0925708049481031
 51
97.3397822431936532
  0
ARC
  5
D21B
  8
0
 10
3877.9424388232159799
 20
162.4661176626919996
 30
0.0
 40
0.0734370507995929
 50
339.0091024450517239
 51
62.0925708049481031
  0
ARC
  5
D21C
  8
0
 10
3877.7875114046919407
 20
162.4803061214828972
 30
0.0
 40
0.2271300787492782
 50
326.4254464095553772
 51
349.7298193056815876
  0
ARC
  5
D21D
  8
0
 10
3879.8785615081610558
 20
160.7607959793882912
 30
0.0
 40
2.481414237461621
 50
140.0337510372247039
 51
158.0213937830436066
  0
ARC
  5
D21E
  8
0
 10
3881.7717691805478353
 20
160.0436288245034007
 30
0.0
 40
4.5056478098104487
 50
158.5746502172439136
 51
184.9945828265678927
  0
ARC
  5
D21F
  8
0
 10
3879.54616428854888
 20
159.7827542179200009
 30
0.0
 40
2.2667460720204691
 50
183.3230671850811859
 51
217.8793780524804049
  0
ARC
  5
D220
  8
0
 10
3878.3752566423681856
 20
158.8525155807911915
 30
0.0
 40
0.7715268571089759
 50
216.7428233910441122
 51
252.1373947290832973
  0
ARC
  5
D221
  8
0
 10
3877.8055883925949274
 20
162.1424840897917932
 30
0.0
 40
0.2992339832397492
 50
89.745121194573926
 51
123.2937903380445022
  0
ARC
  5
D222
  8
0
 10
3877.9759703001550406
 20
161.8830411532611038
 30
0.0
 40
0.6096218562941922
 50
123.2937903380445022
 51
137.7373486532005131
  0
ARC
  5
D223
  8
0
 10
3878.9950337486479839
 20
160.9569783341995048
 30
0.0
 40
1.986605028632114
 50
137.7373486532005131
 51
148.0549806056174873
  0
ARC
  5
D224
  8
0
 10
3880.2781773527881342
 20
160.1568922651069045
 30
0.0
 40
3.498754236482529
 50
148.0549806056174873
 51
155.8187887821146091
  0
ARC
  5
D225
  8
0
 10
3880.1567071072959152
 20
160.2114352863941917
 30
0.0
 40
3.3656003341327909
 50
155.8187887821146091
 51
177.1271357340314978
  0
ARC
  5
D226
  8
0
 10
3879.9408394292540834
 20
160.0341075756371083
 30
0.0
 40
3.1644765254071499
 50
173.7225923182172096
 51
197.4929521702480031
  0
ARC
  5
D227
  8
0
 10
3878.6345057020489548
 20
159.6369410804836093
 30
0.0
 40
1.7992253815829209
 50
197.9346349852843048
 51
223.950279616629814
  0
ARC
  5
D228
  8
0
 10
3878.0463358930542199
 20
159.0534782758504946
 30
0.0
 40
0.9709063941714768
 50
223.2509735683379972
 51
246.7560736148342073
  0
ARC
  5
D229
  8
0
 10
3877.8915270126949508
 20
158.7136537311986046
 30
0.0
 40
0.5976249376749805
 50
247.5358249181643941
 51
272.0731079151752851
  0
ARC
  5
D22A
  8
0
 10
3877.8719030904271676
 20
158.4340417626889916
 30
0.0
 40
0.3202882844116872
 50
277.3983914976702181
 51
284.8900876171335881
  0
ARC
  5
D22B
  8
0
 10
3878.0688731001819178
 20
158.1872353281036112
 30
0.0
 40
0.1096767414761661
 50
239.0947090935979134
 51
284.4942759323200789
  0
ARC
  5
D22C
  8
0
 10
3877.5589990716262037
 20
157.3381660691217974
 30
0.0
 40
0.8807223544458462
 50
59.0048373841070273
 51
64.7933099913557555
  0
ARC
  5
D22D
  8
0
 10
3878.557951020839937
 20
159.2359920444143029
 30
0.0
 40
1.265440459849813
 50
207.2878068610314131
 51
240.4618678686589135
  0
ARC
  5
D22E
  8
0
 10
3879.8413081895309915
 20
159.9246207113287994
 30
0.0
 40
2.7217905345979849
 50
178.0692217979114957
 51
207.7851587872299035
  0
ARC
  5
D22F
  8
0
 10
3881.6770691106030426
 20
160.0391535804500904
 30
0.0
 40
4.5560633906945416
 50
161.678770215950891
 51
180.2871066758044094
  0
ARC
  5
D230
  8
0
 10
3880.3577533075481369
 20
160.4245199498190004
 30
0.0
 40
3.1828627100321811
 50
144.2011128512033054
 51
160.7986950696777058
  0
ARC
  5
D231
  8
0
 10
3876.4219897562720689
 20
163.2894552453763026
 30
0.0
 40
1.6852951336908051
 50
323.4706635352309831
 51
327.8321377727742174
  0
ARC
  5
D232
  8
0
 10
3877.8113319525859879
 20
162.4179241315407012
 30
0.0
 40
0.045265417760561
 50
325.3708544320932106
 51
353.6288070332034863
  0
ARC
  5
D233
  8
0
 10
3877.8103485659707985
 20
162.3908430219416914
 30
0.0
 40
0.0509875270183678
 50
25.6337167604570908
 51
93.856199971697265
  0
ARC
  5
D234
  8
0
 10
3878.5252017729471845
 20
161.7558772974282135
 30
0.0
 40
0.8120416513251804
 50
115.4141980565816965
 51
132.9463208562918055
  0
ARC
  5
D235
  8
0
 10
3878.4884055931538569
 20
161.8333203385683987
 30
0.0
 40
0.726301442155955
 50
98.7851650541916655
 51
115.4141980565807017
  0
ARC
  5
D236
  8
0
 10
3878.4153136247668954
 20
162.3062756791082109
 30
0.0
 40
0.2477314995269893
 50
53.1329673551709476
 51
98.7851650541916655
  0
ARC
  5
D237
  8
0
 10
3878.4907079450322271
 20
162.440035635237308
 30
0.0
 40
0.0975442796188275
 50
359.8680939982813243
 51
41.3416773813347334
  0
ARC
  5
D238
  8
0
 10
3878.3057226557011745
 20
162.4551066231836103
 30
0.0
 40
0.2829430423694318
 50
330.3927204848168913
 51
356.9011499074363201
  0
ARC
  5
D239
  8
0
 10
3881.3010289476551407
 20
160.3989672348741919
 30
0.0
 40
3.3512813010235281
 50
145.1223237851087049
 51
166.7857733347443911
  0
ARC
  5
D23A
  8
0
 10
3882.0507278677418981
 20
160.122964176848086
 30
0.0
 40
4.1453646079238657
 50
165.4405341023777964
 51
196.8214667229582915
  0
ARC
  5
D23B
  8
0
 10
3879.6625296479228382
 20
159.4920994910229126
 30
0.0
 40
1.679056954317895
 50
199.8001445612862028
 51
232.5751618144861084
  0
ARC
  5
D23C
  8
0
 10
3878.9704956967339058
 20
158.8261240354231916
 30
0.0
 40
0.7438489513076443
 50
243.8043645648606059
 51
265.0861547975737835
  0
ARC
  5
D23D
  8
0
 10
3879.1188768104129849
 20
160.1256593302213957
 30
0.0
 40
2.0516430215935508
 50
264.0661988815788845
 51
274.0666627924745171
  0
ARC
  5
D23E
  8
0
 10
3878.378570208605197
 20
162.0501952673498067
 30
0.0
 40
0.3954801392848086
 50
113.3780402709042932
 51
137.8725333416842886
  0
ARC
  5
D23F
  8
0
 10
3878.3648650442419239
 20
162.081899366124901
 30
0.0
 40
0.3609405763265457
 50
93.651864595465014
 51
113.3780402709042932
  0
ARC
  5
D240
  8
0
 10
3878.3482336017900707
 20
162.3424842569349948
 30
0.0
 40
0.0998254863822961
 50
40.649384764318043
 51
93.651864595465014
  0
ARC
  5
D241
  8
0
 10
3876.9970553198008929
 20
162.9952287159435116
 30
0.0
 40
1.5432112876346731
 50
325.7685727356129064
 51
337.6143277336224173
  0
ARC
  5
D242
  8
0
 10
3881.3218145261839709
 20
160.3910410043476986
 30
0.0
 40
3.5085030276702689
 50
150.3421772719225942
 51
166.3648386061298936
  0
ARC
  5
D243
  8
0
 10
3882.610170157191078
 20
160.0855607280761035
 30
0.0
 40
4.832566629408845
 50
166.4459859200499068
 51
175.4800781005789929
  0
ARC
  5
D244
  8
0
 10
3882.2969879399788624
 20
160.1103182749218945
 30
0.0
 40
4.5184073747253608
 50
175.4800781005789929
 51
194.4659031722216866
  0
ARC
  5
D245
  8
0
 10
3879.3879111527421628
 20
159.3598265644087064
 30
0.0
 40
1.5140828979765779
 50
194.4659031722216866
 51
223.1940909321239985
  0
ARC
  5
D246
  8
0
 10
3879.1325470403098734
 20
159.120073257119202
 30
0.0
 40
1.163808036939755
 50
223.1940909321239985
 51
239.6022983212330928
  0
ARC
  5
D247
  8
0
 10
3878.5311744882269522
 20
158.0949643468624117
 30
0.0
 40
0.0246772277087061
 50
18.0364651358658499
 51
59.6022983212331425
  0
ARC
  5
D248
  8
0
 10
3878.6195633870938764
 20
158.1751908051851103
 30
0.0
 40
0.0973851701722452
 50
228.1889968830176088
 51
250.8588087365662886
  0
ARC
  5
D249
  8
0
 10
3878.6192142695867915
 20
158.1698890313778918
 30
0.0
 40
0.0922727911558096
 50
249.9841072322134039
 51
294.1210708145193848
  0
ARC
  5
D24A
  8
0
 10
3878.6320363727631957
 20
158.1466932829212055
 30
0.0
 40
0.0658999564906306
 50
292.1877648284861948
 51
348.7496006352280915
  0
ARC
  5
D24B
  8
0
 10
3879.8641083637480733
 20
160.7931938392273992
 30
0.0
 40
2.3414675002037959
 50
139.513616777565403
 51
153.2102371828154901
  0
ARC
  5
D24C
  8
0
 10
3880.9453775959691484
 20
160.2472479148931086
 30
0.0
 40
3.5527478578609939
 50
153.2102371828154901
 51
173.1712440863620941
  0
ARC
  5
D24D
  8
0
 10
3881.9694328537211732
 20
160.1246154209003976
 30
0.0
 40
4.584119711030807
 50
173.1712440863620941
 51
193.2584127997502037
  0
ARC
  5
D24E
  8
0
 10
3878.9141333864317858
 20
159.4047143915776985
 30
0.0
 40
1.44515295000332
 50
193.2584127997502037
 51
229.2686209902068128
  0
ARC
  5
D24F
  8
0
 10
3878.6743820164979297
 20
159.1262862943110861
 30
0.0
 40
1.0777255085504629
 50
229.2686209902068128
 51
242.0259377880097986
  0
ARC
  5
D250
  8
0
 10
3878.3183501154649093
 20
158.4559557774919938
 30
0.0
 40
0.3187118615503305
 50
242.0259377880088891
 51
281.1857992942146893
  0
ARC
  5
D251
  8
0
 10
3878.2314365517468104
 20
158.8954730475900874
 30
0.0
 40
0.7667402069400743
 50
281.1857992942146893
 51
287.856396813490278
  0
ARC
  5
D252
  8
0
 10
3879.0940962380918791
 20
161.8279411370299101
 30
0.0
 40
0.7301551895380904
 50
107.0816916437295987
 51
134.6434799654803101
  0
ARC
  5
D253
  8
0
 10
3879.063521466696784
 20
161.927439101590295
 30
0.0
 40
0.6260655089852691
 50
88.048399493541325
 51
107.0816916437295987
  0
ARC
  5
D254
  8
0
 10
3879.078209276528014
 20
162.3584822518731983
 30
0.0
 40
0.1947721874935204
 50
49.9430757666561291
 51
88.048399493541325
  0
ARC
  5
D255
  8
0
 10
3879.1225541739190703
 20
162.4112239377857918
 30
0.0
 40
0.1258653274759251
 50
347.9937545225575946
 51
49.9430757666554328
  0
ARC
  5
D256
  8
0
 10
3878.7969609921601659
 20
162.4804680003636008
 30
0.0
 40
0.4587401691361344
 50
326.5858986050899944
 51
347.9937545225575946
  0
ARC
  5
D257
  8
0
 10
3881.8850367260588428
 20
160.6204611510179063
 30
0.0
 40
3.1466768442386441
 50
149.2815454715031933
 51
155.67232605826851
  0
ARC
  5
D258
  8
0
 10
3883.3489800066481621
 20
160.1123554513469003
 30
0.0
 40
4.6920366492025023
 50
157.3832574699025884
 51
180.5279887100741121
  0
ARC
  5
D259
  8
0
 10
3881.8932181016148206
 20
159.9378397790572137
 30
0.0
 40
3.2387372300436779
 50
177.6769447967002122
 51
201.7341013327528003
  0
ARC
  5
D25A
  8
0
 10
3880.0402786951372036
 20
159.1561095586818055
 30
0.0
 40
1.2286962765265499
 50
199.8677728741531894
 51
233.1550991060435933
  0
ARC
  5
D25B
  8
0
 10
3879.5357345646939393
 20
158.4827722502097913
 30
0.0
 40
0.3872998714090767
 50
233.1550991060435933
 51
264.8705811042487994
  0
ARC
  5
D25C
  8
0
 10
3880.0045858069502174
 20
163.7058573830013017
 30
0.0
 40
5.6313860445905339
 50
264.8705811042487994
 51
269.1515206641391273
  0
ARC
  5
D25D
  8
0
 10
3879.9300145380098002
 20
158.2072422466802948
 30
0.0
 40
0.1324474068270098
 50
266.181916522383915
 51
344.6825362759237805
  0
ARC
  5
D25E
  8
0
 10
3879.2565199475120608
 20
158.1615849141331864
 30
0.0
 40
0.0827763946726333
 50
275.4441108802666918
 51
330.4455223482129895
  0
ARC
  5
D25F
  8
0
 10
3879.2880585473631072
 20
158.1437418367733869
 30
0.0
 40
0.0465402729982626
 50
330.4024590997041742
 51
10.5667299719160503
  0
ARC
  5
D260
  8
0
 10
3878.9975474706661771
 20
162.0480709466845894
 30
0.0
 40
0.3955207877703923
 50
105.278455403294501
 51
145.9671012227487097
  0
ARC
  5
D261
  8
0
 10
3878.9705633777571165
 20
162.1468541031165955
 30
0.0
 40
0.2931183792793573
 50
69.9864498044715759
 51
105.278455403294501
  0
ARC
  5
D262
  8
0
 10
3879.0612171355510327
 20
162.3957400987457902
 30
0.0
 40
0.0282366271284575
 50
318.5884089086325162
 51
69.9864498044719454
  0
ARC
  5
D263
  8
0
 10
3878.0693820446649625
 20
162.741331760762904
 30
0.0
 40
1.0765152911122211
 50
328.2939930890445908
 51
340.2219120908881109
  0
ARC
  5
D264
  8
0
 10
3881.9728672465857926
 20
160.5703796173075943
 30
0.0
 40
3.3915407916903879
 50
151.7520156683866901
 51
162.9890312541093067
  0
ARC
  5
D265
  8
0
 10
3883.5506059764229576
 20
160.0876861851004094
 30
0.0
 40
5.0414657745678353
 50
162.9890312541093067
 51
188.0056129052007918
  0
ARC
  5
D266
  8
0
 10
3881.1909971734680767
 20
159.755829069433787
 30
0.0
 40
2.6586349269840208
 50
188.0056129052007918
 51
206.231075337869413
  0
ARC
  5
D267
  8
0
 10
3879.9644247504729719
 20
159.1514540668526081
 30
0.0
 40
1.2912472524026819
 50
206.231075337869413
 51
227.7661683090001929
  0
ARC
  5
D268
  8
0
 10
3877.6408891290870997
 20
156.5919900192157002
 30
0.0
 40
2.165582797657176
 50
43.8133396137642919
 51
47.7661683090002001
  0
ARC
  5
D269
  8
0
 10
3879.2403113673699409
 20
158.1264957823497923
 30
0.0
 40
0.0509143111625563
 50
223.813339613764299
 51
256.6788175719814262
  0
ARC
  5
D26A
  8
0
 10
3880.5632380583379017
 20
160.8807289357116019
 30
0.0
 40
2.3481280445394872
 50
143.7429830086487073
 51
154.8857910661072879
  0
ARC
  5
D26B
  8
0
 10
3881.7693762476769734
 20
160.3153677316801975
 30
0.0
 40
3.6801950934545689
 50
154.8857910661072879
 51
168.7087191175579903
  0
ARC
  5
D26C
  8
0
 10
3883.2926406517599389
 20
160.0112305229677929
 30
0.0
 40
5.2335250282942392
 50
168.7087191175579903
 51
181.1485892171104126
  0
ARC
  5
D26D
  8
0
 10
3881.4475428744990495
 20
159.9742375129563072
 30
0.0
 40
3.388056445402281
 50
181.1485892171104126
 51
195.4511075323003979
  0
ARC
  5
D26E
  8
0
 10
3880.0643724870051301
 20
159.5919211986532105
 30
0.0
 40
1.953021224572554
 50
195.4511075323003979
 51
213.5692500069986011
  0
ARC
  5
D26F
  8
0
 10
3879.4371947604950037
 20
159.1757103230418977
 30
0.0
 40
1.2003038847912151
 50
213.5692500069986011
 51
233.666079752218792
  0
ARC
  5
D270
  8
0
 10
3879.0550723003061648
 20
158.7422595825549934
 30
0.0
 40
0.6268012484162778
 50
238.3344230639405055
 51
271.2058162817842231
  0
ARC
  5
D271
  8
0
 10
3879.0685017786358912
 20
158.3269221890087124
 30
0.0
 40
0.211325186526788
 50
269.9351659253346725
 51
295.4399944537312876
  0
ARC
  5
D272
  8
0
 10
3879.758854330487793
 20
161.865873101982686
 30
0.0
 40
0.6871127761260559
 50
113.5123596909739945
 51
143.5899927543503907
  0
ARC
  5
D273
  8
0
 10
3879.7797293138778514
 20
161.8090770045454008
 30
0.0
 40
0.7475296050150764
 50
96.004683648760917
 51
113.2428064574612989
  0
ARC
  5
D274
  8
0
 10
3879.7355387661509667
 20
162.2291916234568987
 30
0.0
 40
0.3250972464870276
 50
48.1609093184138501
 51
96.004683648760917
  0
ARC
  5
D275
  8
0
 10
3879.8015849145572247
 20
162.3733806644027879
 30
0.0
 40
0.1798603576329929
 50
335.76927952931959
 51
33.0213828425144129
  0
ARC
  5
D276
  8
0
 10
3888.8352396797818074
 20
158.0475982211501105
 30
0.0
 40
9.8361438755179051
 50
154.3876754248842929
 51
156.2784064788990008
  0
ARC
  5
D277
  8
0
 10
3882.6526281099368134
 20
160.7643545001496079
 30
0.0
 40
3.082963106202488
 50
156.2784064788990008
 51
167.1291145830548999
  0
ARC
  5
D278
  8
0
 10
3885.8688794811691878
 20
160.0294544533790884
 30
0.0
 40
6.3821070802793001
 50
167.1291145830548999
 51
183.6059173971962935
  0
ARC
  5
D279
  8
0
 10
3882.4769305087352222
 20
159.7794708230902927
 30
0.0
 40
2.9813702459826721
 50
182.9110401299392095
 51
203.4068389054804982
  0
ARC
  5
D27A
  8
0
 10
3880.8251758648480063
 20
159.0741729473367059
 30
0.0
 40
1.1853917917575949
 50
203.8377416937977955
 51
222.0723258011173016
  0
ARC
  5
D27B
  8
0
 10
3880.7857533809160486
 20
159.0385865718862135
 30
0.0
 40
1.1322832015200279
 50
222.0723258011173016
 51
228.6234923442580964
  0
ARC
  5
D27C
  8
0
 10
3880.2689174635620475
 20
158.4518665162802051
 30
0.0
 40
0.3503882027401514
 50
228.6234923442580964
 51
255.964816081535588
  0
ARC
  5
D27D
  8
0
 10
3880.5311253586319253
 20
159.5007805341726055
 30
0.0
 40
1.4315790264008079
 50
255.964816081535588
 51
274.8662277422383227
  0
ARC
  5
D27E
  8
0
 10
3880.5709181477132006
 20
158.9380212117237932
 30
0.0
 40
0.8675102950162505
 50
275.4005037174715085
 51
284.1854337228396048
  0
ARC
  5
D27F
  8
0
 10
3880.4961488315339011
 20
161.4653106351055953
 30
0.0
 40
1.380843943809662
 50
142.3526140102846114
 51
154.513642121215014
  0
ARC
  5
D280
  8
0
 10
3879.6600062428688034
 20
162.1103294556085928
 30
0.0
 40
0.3248213553289472
 50
107.0084554254125067
 51
142.3526140102846114
  0
ARC
  5
D281
  8
0
 10
3879.6887779718599631
 20
162.0162710181317891
 30
0.0
 40
0.4231819269504159
 50
84.2692776889584536
 51
107.0084554254125067
  0
ARC
  5
D282
  8
0
 10
3879.7216599197149662
 20
162.3439278195012889
 30
0.0
 40
0.093879327540037
 50
26.2755161283202092
 51
84.2692776889584536
  0
ARC
  5
D283
  8
0
 10
3879.0443195544949049
 20
162.4944283965677982
 30
0.0
 40
0.7692726611386482
 50
330.2028145656543074
 51
351.8586318095836987
  0
ARC
  5
D284
  8
0
 10
3883.37998309754812
 20
160.5212011201990094
 30
0.0
 40
3.9982570031648579
 50
156.5523323168100092
 51
166.1377697767943005
  0
ARC
  5
D285
  8
0
 10
3885.1948087144610327
 20
160.1116646559254946
 30
0.0
 40
5.8584633319893857
 50
166.5016081738704941
 51
190.7705495438783032
  0
ARC
  5
D286
  8
0
 10
3881.298652270895218
 20
159.4005831647357923
 30
0.0
 40
1.8982893692119771
 50
191.6623365932082947
 51
217.8872033877449894
  0
ARC
  5
D287
  8
0
 10
3878.5439952746251038
 20
156.9842471769703138
 30
0.0
 40
1.772768407249665
 50
38.0299125637606892
 51
44.8649995496340566
  0
ARC
  5
D288
  8
0
 10
3883.1288474356588267
 20
160.2364110441997127
 30
0.0
 40
4.2861457061509594
 50
154.7976945663259869
 51
176.1500746141223033
  0
ARC
  5
D289
  8
0
 10
3883.1213593412571754
 20
160.056804385856708
 30
0.0
 40
4.2944954244665681
 50
173.7518196404305968
 51
194.1155138270540021
  0
ARC
  5
D28A
  8
0
 10
3880.4151740099468952
 20
159.3120016161479953
 30
0.0
 40
1.489684693808119
 50
191.7172588533626936
 51
224.6919727180084863
  0
ARC
  5
D28B
  8
0
 10
3879.719624059520811
 20
158.6238904245738865
 30
0.0
 40
0.5112743782937498
 50
224.6919727180084863
 51
277.3880356188515748
  0
ARC
  5
D28C
  8
0
 10
3879.744296825650963
 20
158.4336095610183008
 30
0.0
 40
0.3194005853360571
 50
277.3880356188515748
 51
295.7562241203623898
  0
ARC
  5
D28D
  8
0
 10
3880.7037411201599753
 20
161.5697809346710017
 30
0.0
 40
1.037996114858035
 50
117.0239537840504056
 51
135.3262493199742948
  0
ARC
  5
D28E
  8
0
 10
3880.5517481871020209
 20
161.6986969012054942
 30
0.0
 40
0.8575437074668064
 50
93.6401592055380547
 51
111.884211430104699
  0
ARC
  5
D28F
  8
0
 10
3880.5192348975301684
 20
162.2097644254658064
 30
0.0
 40
0.3454430060882952
 50
59.9323352756871515
 51
93.6401592055380547
  0
ARC
  5
D290
  8
0
 10
3880.605782561111937
 20
162.3592613689075961
 30
0.0
 40
0.1727009030277269
 50
5.1679530711750639
 51
59.9323352756871515
  0
ARC
  5
D291
  8
0
 10
3880.4973018067407793
 20
162.3494500222356862
 30
0.0
 40
0.2816244385575483
 50
327.9723027665124278
 51
5.1679530711750639
  0
ARC
  5
D292
  8
0
 10
3884.665885025364787
 20
160.622976666874905
 30
0.0
 40
4.2344805765332829
 50
158.1333888048752954
 51
168.2273596239216999
  0
ARC
  5
D293
  8
0
 10
3887.9011353255491485
 20
160.0483034885969005
 30
0.0
 40
7.5195590290232692
 50
168.9702783900337977
 51
184.5089831596106933
  0
ARC
  5
D294
  8
0
 10
3883.5360431885351318
 20
159.687084365041386
 30
0.0
 40
3.139625067325956
 50
184.1998813600800986
 51
202.3434997750246964
  0
ARC
  5
D295
  8
0
 10
3881.8156816488080949
 20
159.0321695427020074
 30
0.0
 40
1.300350546323461
 50
204.4706451277936026
 51
219.5939029527098967
  0
ARC
  5
D296
  8
0
 10
3880.7513749647841905
 20
158.1635527085923911
 30
0.0
 40
0.0739383054165557
 50
295.7619634231867849
 51
32.6119828327612495
  0
ARC
  5
D297
  8
0
 10
3880.4877371134512032
 20
162.0311106676820998
 30
0.0
 40
0.4218458504223191
 50
114.4807483576160934
 51
156.4161083852947911
  0
ARC
  5
D298
  8
0
 10
3880.4404093794150867
 20
162.135054441283188
 30
0.0
 40
0.3076345441543669
 50
68.7885090243719048
 51
114.4807483576160934
  0
ARC
  5
D299
  8
0
 10
3880.5208300411600248
 20
162.3422680140469936
 30
0.0
 40
0.0853623066324896
 50
349.9860060271789166
 51
68.7885090243719048
  0
ARC
  5
D29A
  8
0
 10
3888.7383004302550944
 20
159.4219332759678878
 30
0.0
 40
8.6367941823705454
 50
160.3417875587703918
 51
164.4679691226369016
  0
ARC
  5
D29B
  8
0
 10
3886.4711080989031871
 20
160.1877266004584044
 30
0.0
 40
6.2487033487321231
 50
165.6667054149463922
 51
195.0976871780065096
  0
ARC
  5
D29C
  8
0
 10
3881.5656548019719594
 20
158.945431535936109
 30
0.0
 40
1.191570327343723
 50
198.8647527562910113
 51
216.5431829421229963
  0
ARC
  5
D29D
  8
0
 10
3878.5636479073318696
 20
156.6178951191369038
 30
0.0
 40
2.6074533540754392
 50
36.5381822847096487
 51
38.3559266961538299
  0
ARC
  5
D29E
  8
0
 10
3880.614637694503017
 20
158.1744393565676035
 30
0.0
 40
0.0440289896752531
 50
273.4384536557266188
 51
354.9209027290334006
  0
ARC
  5
D29F
  8
0
 10
3880.4936353963139481
 20
158.6236410498082137
 30
0.0
 40
0.5084151012461027
 50
257.4518173984534997
 51
284.0750709120484885
  0
ARC
  5
D2A0
  8
0
 10
3880.4527458630727779
 20
158.5699316527029055
 30
0.0
 40
0.4479961474139732
 50
232.2335087807043976
 51
261.0664246007680163
  0
ARC
  5
D2A1
  8
0
 10
3882.5558786712072106
 20
159.8652162425051131
 30
0.0
 40
2.8936409322781742
 50
173.8393167561785049
 51
214.7515797326784082
  0
ARC
  5
D2A2
  8
0
 10
3884.6269712721627911
 20
160.1998307137471897
 30
0.0
 40
4.9480808731245318
 50
156.1584565162098102
 51
180.2788006144712085
  0
ARC
  5
D2A3
  8
0
 10
3881.2154614717469485
 20
162.068668519779095
 30
0.0
 40
0.4613837856897684
 50
111.004030836766205
 51
153.1667385945085869
  0
ARC
  5
D2A4
  8
0
 10
3881.3363100706192199
 20
161.7539133439194927
 30
0.0
 40
0.7985413224286834
 50
86.9929982459024984
 51
111.004030836766205
  0
ARC
  5
D2A5
  8
0
 10
3881.3624455614872204
 20
162.2514448872173887
 30
0.0
 40
0.3003237991928334
 50
43.2078661589249009
 51
86.9929982459024984
  0
ARC
  5
D2A6
  8
0
 10
3881.4441481186368037
 20
162.3281898065220901
 30
0.0
 40
0.1882296847888097
 50
340.3472896542440935
 51
43.2078661589260591
  0
ARC
  5
D2A7
  8
0
 10
3886.8898733922651445
 20
160.6048744780183881
 30
0.0
 40
5.5237946776138553
 50
162.5111672007253105
 51
172.4346788124790066
  0
ARC
  5
D2A8
  8
0
 10
3889.8372117423509735
 20
160.1414173031417931
 30
0.0
 40
8.5067943004895596
 50
171.9538609593012097
 51
188.8235394538012031
  0
ARC
  5
D2A9
  8
0
 10
3883.3242969413208812
 20
159.1663074651843033
 30
0.0
 40
1.921710217566758
 50
189.8807813200043881
 51
207.797438603149601
  0
ARC
  5
D2AA
  8
0
 10
3881.4429121169901009
 20
158.144210915240194
 30
0.0
 40
0.2208485405742136
 50
8.7962121672917473
 51
34.7602932540448109
  0
ARC
  5
D2AB
  8
0
 10
3881.5642877245968521
 20
158.1854115154227998
 30
0.0
 40
0.0971598031620371
 50
291.9998305507176042
 51
355.6151856884433187
  0
ARC
  5
D2AC
  8
0
 10
3881.4238821560670658
 20
158.768411758137006
 30
0.0
 40
0.6959187013678353
 50
266.1828771141196057
 51
284.7176289751437821
  0
ARC
  5
D2AD
  8
0
 10
3881.3212172082530742
 20
159.6239249705116094
 30
0.0
 40
1.55091163137167
 50
258.289617441599205
 51
272.081702017407622
  0
ARC
  5
D2AE
  8
0
 10
3881.1124481806609765
 20
158.4859076695333897
 30
0.0
 40
0.395101526100047
 50
200.8584149346802974
 51
254.4360244360476031
  0
ARC
  5
D2AF
  8
0
 10
3884.1014863791438074
 20
159.8055673944319039
 30
0.0
 40
3.6620223655204551
 50
178.4769941276879024
 51
203.5019025107266089
  0
ARC
  5
D2B0
  8
0
 10
3887.5438531555910231
 20
160.0882500316363917
 30
0.0
 40
7.1055134029960936
 50
165.0245283145783901
 51
181.4947691224085133
  0
ARC
  5
D2B1
  8
0
 10
3883.9484824748737992
 20
160.9720299881898882
 30
0.0
 40
3.404713129155847
 50
157.4639689764890136
 51
163.7572509244103003
  0
ARC
  5
D2B2
  8
0
 10
3882.0628798646621362
 20
161.6385313434315947
 30
0.0
 40
1.260395194708704
 50
147.1167531489518012
 51
167.0256759110091878
  0
ARC
  5
D2B3
  8
0
 10
3881.2210070533160433
 20
162.1828141716217999
 30
0.0
 40
0.2579014902159326
 50
86.3483492169073941
 51
147.1167531489518012
  0
ARC
  5
D2B4
  8
0
 10
3881.2802259760142078
 20
162.233120513869693
 30
0.0
 40
0.2114470915709166
 50
40.3594509616823132
 51
101.6762982522120069
  0
ARC
  5
D2B5
  8
0
 10
3875.0363707292358413
 20
163.3054049032641046
 30
0.0
 40
6.4729145823586709
 50
345.9719869440646107
 51
351.6915022447803949
  0
ARC
  5
D2B6
  8
0
 10
3889.0004405773479448
 20
160.1971931346726024
 30
0.0
 40
7.8368355738623459
 50
168.6731306039889944
 51
192.4045387598046943
  0
ARC
  5
D2B7
  8
0
 10
3882.4153429463917746
 20
158.8096754400905866
 30
0.0
 40
1.1090027490993311
 50
195.476731718220293
 51
211.061790136989913
  0
ARC
  5
D2B8
  8
0
 10
3881.1393325851108784
 20
158.0284925619575063
 30
0.0
 40
0.3872535934450272
 50
25.1283460158089902
 51
32.6594646190265294
  0
ARC
  5
D2B9
  8
0
 10
3881.4587284156191345
 20
158.1823200914120093
 30
0.0
 40
0.0329647190432928
 50
2.173885625304258
 51
18.7913668726163401
  0
ARC
  5
D2BA
  8
0
 10
3881.4486045853400356
 20
158.1819357940696023
 30
0.0
 40
0.0430958405991166
 50
286.3268535997112281
 51
2.1738856253026162
  0
ARC
  5
D2BB
  8
0
 10
3881.3288227204479881
 20
158.4669779349534906
 30
0.0
 40
0.3520423054961856
 50
267.4953539321455764
 51
292.0034140010379815
  0
ARC
  5
D2BC
  8
0
 10
3881.2893064210002194
 20
158.5507325699942101
 30
0.0
 40
0.4361287740490646
 50
207.4557159551432051
 51
273.1719143334825048
  0
ARC
  5
D2BD
  8
0
 10
3883.5939476221001314
 20
159.6517367323963015
 30
0.0
 40
2.9900497811728282
 50
182.8218762406532107
 51
205.815416972630004
  0
ARC
  5
D2BE
  8
0
 10
3887.7361177267621315
 20
160.0537755248410008
 30
0.0
 40
7.1497218294832532
 50
164.8568514896842032
 51
184.4058077670655109
  0
ARC
  5
D2BF
  8
0
 10
3882.0888552267028899
 20
162.0669350854809068
 30
0.0
 40
0.4719407181633016
 50
107.8520765119946958
 51
142.0031954956357083
  0
ARC
  5
D2C0
  8
0
 10
3882.1990271501058487
 20
161.7248582479390109
 30
0.0
 40
0.8313213179302326
 50
94.8869006874027434
 51
107.8520765119946958
  0
ARC
  5
D2C1
  8
0
 10
3882.1852567407117931
 20
162.1395258157905914
 30
0.0
 40
0.4175473759460315
 50
49.3315326804848127
 51
97.8528345914499482
  0
ARC
  5
D2C2
  8
0
 10
3882.2924082392942182
 20
162.2968209028140905
 30
0.0
 40
0.2293962740385967
 50
346.7527763893583028
 51
44.020724181568383
  0
ARC
  5
D2C3
  8
0
 10
3886.8558293759979279
 20
161.2225112501106992
 30
0.0
 40
4.4587754059247464
 50
166.7527763893581891
 51
172.8019987948514995
  0
ARC
  5
D2C4
  8
0
 10
3895.8986733817259847
 20
160.0804548852023004
 30
0.0
 40
13.5734515083735001
 50
172.8019987948514995
 51
184.3820314214297866
  0
ARC
  5
D2C5
  8
0
 10
3885.7437202363121287
 20
159.3022773075329894
 30
0.0
 40
3.3887259976916262
 50
184.3820314214297866
 51
195.9431099661892972
  0
ARC
  5
D2C6
  8
0
 10
3883.6813701224168653
 20
158.7131234154761046
 30
0.0
 40
1.243873951323843
 50
195.9431099661892972
 51
202.6302101246363918
  0
ARC
  5
D2C7
  8
0
 10
3882.440928929248912
 20
158.1960100438903112
 30
0.0
 40
0.1000384687326338
 50
292.4012738265737994
 51
22.6302101246364487
  0
ARC
  5
D2C8
  8
0
 10
3882.1682110961191938
 20
159.7186006551002038
 30
0.0
 40
1.6447205483520619
 50
259.1059448444343047
 51
280.8940551555656953
  0
ARC
  5
D2C9
  8
0
 10
3881.9263172648538784
 20
158.3816307490459963
 30
0.0
 40
0.2865291958687505
 50
210.3715155664212091
 51
256.0762252102384195
  0
ARC
  5
D2CA
  8
0
 10
3882.586709894625983
 20
158.7179770807481987
 30
0.0
 40
1.02728161606087
 50
193.7041050402640963
 51
207.9328979514083073
  0
ARC
  5
D2CB
  8
0
 10
3888.2322743183790408
 20
160.1301416350312081
 30
0.0
 40
6.84676853146577
 50
173.4190898581292117
 51
193.9926892516369037
  0
ARC
  5
D2CC
  8
0
 10
3887.9777050160778344
 20
160.4700227034086879
 30
0.0
 40
6.562178120687423
 50
165.7622190678351046
 51
176.113368596601191
  0
ARC
  5
D2CD
  8
0
 10
3882.329239386028803
 20
161.9789565511574096
 30
0.0
 40
0.7198453362142029
 50
148.2761231632619001
 51
171.611724648199413
  0
ARC
  5
D2CE
  8
0
 10
3884.9382854636151023
 20
161.1568003582671906
 30
0.0
 40
3.2920157867973669
 50
160.5862333928155863
 51
169.8616065347252118
  0
ARC
  5
D2CF
  8
0
 10
3882.0935304712470497
 20
162.1593650789457968
 30
0.0
 40
0.2757653022134729
 50
98.9928518213107651
 51
160.5862333928155863
  0
ARC
  5
D2D0
  8
0
 10
3882.1212931770110117
 20
161.9839366048971101
 30
0.0
 40
0.4533770060463664
 50
69.1106239321837563
 51
98.9928518213107651
  0
ARC
  5
D2D1
  8
0
 10
3882.209894536201773
 20
162.2936023778401022
 30
0.0
 40
0.1353256675745621
 50
347.680083532723188
 51
57.3258940411145517
  0
ARC
  5
D2D2
  8
0
 10
3901.8036964068278394
 20
158.7858388314598983
 30
0.0
 40
19.7700848305152803
 50
169.8650441605894912
 51
171.2820536575800077
  0
ARC
  5
D2D3
  8
0
 10
3895.0096806245378502
 20
160.1279669814543922
 30
0.0
 40
12.8545650666369404
 50
172.6053002408017107
 51
185.7171312296719918
  0
ARC
  5
D2D4
  8
0
 10
3884.8670502117738579
 20
159.13532215721429
 30
0.0
 40
2.6635977758603588
 50
186.2048667741865131
 51
200.1341429489571055
  0
ARC
  5
D2D5
  8
0
 10
3882.3085285551369452
 20
158.1991609967998897
 30
0.0
 40
0.0608404173458011
 50
282.2261890934321968
 51
18.4946315779427906
  0
ARC
  5
D2D6
  8
0
 10
3882.1592244879739155
 20
158.6608955212753074
 30
0.0
 40
0.5458473395482492
 50
255.5476620150984104
 51
287.2853842412918084
  0
ARC
  5
D2D7
  8
0
 10
3882.2450598300160891
 20
158.6272151080644903
 30
0.0
 40
0.5424323193059301
 50
183.771119836685898
 51
245.8336428797250903
  0
ARC
  5
D2D8
  8
0
 10
3889.910639387325773
 20
160.1799112042766069
 30
0.0
 40
8.3591331190764038
 50
169.2695929176591108
 51
190.9537412904049063
  0
ARC
  5
D2D9
  8
0
 10
3886.0241922871941824
 20
161.424814200961606
 30
0.0
 40
3.5461984459407478
 50
165.5148984380020067
 51
171.9341732706508026
  0
ARC
  5
D2DA
  8
0
 10
3883.0080343200988864
 20
162.0655550106937142
 30
0.0
 40
0.4845604034007222
 50
108.6291951229036954
 51
149.4546189356084085
  0
ARC
  5
D2DB
  8
0
 10
3883.0519766906450059
 20
161.7716150069896059
 30
0.0
 40
0.7788916555565688
 50
77.07782263412345
 51
104.7822611206573953
  0
ARC
  5
D2DC
  8
0
 10
3883.1561095947658941
 20
162.2466039833628884
 30
0.0
 40
0.292683082711182
 50
21.3782793404784215
 51
76.1528453295941574
  0
ARC
  5
D2DD
  8
0
 10
3881.1405686512857756
 20
162.2350323154558112
 30
0.0
 40
2.291139881997641
 50
351.9185923117420884
 51
2.9587473145990209
  0
ARC
  5
D2DE
  8
0
 10
3909.0645937883568877
 20
160.0425925350427008
 30
0.0
 40
25.7237237991591314
 50
175.8303902428149001
 51
181.3040755904021069
  0
ARC
  5
D2DF
  8
0
 10
3894.2244470209279825
 20
159.6633248124323075
 30
0.0
 40
10.8788680814174192
 50
181.0858713716586124
 51
186.172902074933404
  0
ARC
  5
D2E0
  8
0
 10
3885.8358464066891429
 20
158.7691938755095862
 30
0.0
 40
2.4427949818111712
 50
186.4795189112213905
 51
191.788701509239786
  0
ARC
  5
D2E1
  8
0
 10
3883.3094205559091279
 20
158.2305958726828976
 30
0.0
 40
0.140816612029631
 50
296.7733961142782277
 51
16.302152488634519
  0
ARC
  5
D2E2
  8
0
 10
3883.0525380363778822
 20
159.7457106524063875
 30
0.0
 40
1.6718079557805181
 50
258.8955473568825028
 51
281.0460611830932862
  0
ARC
  5
D2E3
  8
0
 10
3882.9577769591469405
 20
158.4890982713781113
 30
0.0
 40
0.4461025376285364
 50
179.8099743736601113
 51
239.378883512116289
  0
ARC
  5
D2E4
  8
0
 10
3894.5877826951050338
 20
160.2015618133943065
 30
0.0
 40
12.1967125928091207
 50
171.8890229336161894
 51
188.0641873606689956
  0
ARC
  5
D2E5
  8
0
 10
3883.3618371527300042
 20
161.9985288893321922
 30
0.0
 40
0.6641986227794709
 50
146.9822108223825126
 51
174.7618211251578089
  0
ARC
  5
D2E6
  8
0
 10
3883.0264810685530392
 20
162.1017775261576048
 30
0.0
 40
0.340598409048642
 50
87.8407868325198251
 51
130.5828862440012017
  0
ARC
  5
D2E7
  8
0
 10
3883.0696182397618941
 20
162.2411352670567908
 30
0.0
 40
0.2032705197234241
 50
23.1882477995342811
 51
98.5739171249031472
  0
ARC
  5
D2E8
  8
0
 10
3877.3384526837089652
 20
162.3729943117699861
 30
0.0
 40
5.9182419720819759
 50
354.2727876271055152
 51
359.4983072401777235
  0
ARC
  5
D2E9
  8
0
 10
3907.1421751077368754
 20
160.1404057774780085
 30
0.0
 40
23.9713200298884495
 50
176.0722714581499133
 51
183.1653033139592992
  0
ARC
  5
D2EA
  8
0
 10
3887.5381217960871254
 20
159.0562773986000877
 30
0.0
 40
4.3373127825668751
 50
183.1653033139592992
 51
190.4442373753300046
  0
ARC
  5
D2EB
  8
0
 10
3882.9212714898831109
 20
158.2052415931044891
 30
0.0
 40
0.3573191190984308
 50
0.2991130394834692
 51
10.4442373753300703
  0
ARC
  5
D2EC
  8
0
 10
3883.188334291395222
 20
158.228279692879795
 30
0.0
 40
0.0927017155766933
 50
281.9332983210733232
 51
346.797331287080226
  0
ARC
  5
D2ED
  8
0
 10
3883.0477035075559797
 20
158.6974728166131001
 30
0.0
 40
0.5822492264708358
 50
255.0438162410692087
 51
285.9293099637781097
  0
ARC
  5
D2EE
  8
0
 10
3882.9499468871190402
 20
158.3720243990129859
 30
0.0
 40
0.2428219151688861
 50
219.8871887325958028
 51
257.5110818374852215
  0
ARC
  5
D2EF
  8
0
 10
3884.348700338260187
 20
158.8822386469715866
 30
0.0
 40
1.7192787219786421
 50
189.7344741876412968
 51
202.7885523437709878
  0
ARC
  5
D2F0
  8
0
 10
3894.9320443256028739
 20
160.1619517272073949
 30
0.0
 40
12.3778935503404597
 50
171.1832610354624933
 51
187.2888967006244911
  0
ARC
  5
D2F1
  8
0
 10
3892.2158887375230734
 20
162.6498092625500931
 30
0.0
 40
0.112227000889394
 50
183.3442898497231113
 51
238.6940574377474888
  0
ARC
  5
D2F2
  8
0
 10
3892.2685604790940488
 20
162.6528871487045933
 30
0.0
 40
0.1649885943385129
 50
166.0814122907906096
 51
183.3442898497231113
  0
ARC
  5
D2F3
  8
0
 10
3892.1943171786970197
 20
162.671286070959809
 30
0.0
 40
0.0884994578936595
 50
120.8746313011200044
 51
166.0814122907906096
  0
ARC
  5
D2F4
  8
0
 10
3892.2704746508611606
 20
162.5439082520944112
 30
0.0
 40
0.236907912185692
 50
111.1812912420132022
 51
120.8746313011200044
  0
ARC
  5
D2F5
  8
0
 10
3892.1618036882409797
 20
162.8243502923263861
 30
0.0
 40
0.0638529829555412
 50
291.1812912420131738
 51
357.6926421756951981
  0
ARC
  5
D2F6
  8
0
 10
3893.3227570592048323
 20
162.7144199067600994
 30
0.0
 40
1.102392377351332
 50
168.0179911118167126
 51
174.4112272287142957
  0
ARC
  5
D2F7
  8
0
 10
3892.4072937646319588
 20
162.8610443397575125
 30
0.0
 40
0.1824910460952478
 50
100.9370594787139055
 51
153.2154359774594923
  0
ARC
  5
D2F8
  8
0
 10
3892.2539239395168806
 20
163.3698486616999048
 30
0.0
 40
0.3503643306287922
 50
289.8111266623405982
 51
331.369536966743226
  0
ARC
  5
D2F9
  8
0
 10
3892.1152562014658542
 20
163.3845633822824084
 30
0.0
 40
0.4821084478440702
 50
337.7442082552148008
 51
28.9996467747642015
  0
ARC
  5
D2FA
  8
0
 10
3892.1652335958037838
 20
163.4122659015569923
 30
0.0
 40
0.4249667859937654
 50
28.9996467747642015
 51
70.488716419456992
  0
ARC
  5
D2FB
  8
0
 10
3892.0232878865681414
 20
163.021245722382389
 30
0.0
 40
0.8409477958775978
 50
70.2709118599373568
 51
86.0497025565535409
  0
ARC
  5
D2FC
  8
0
 10
3892.2205335057337834
 20
162.4871737007686079
 30
0.0
 40
0.0674140775411749
 50
83.4925204040406328
 51
111.1370341583291008
  0
ARC
  5
D2FD
  8
0
 10
3892.2173720615392085
 20
162.4594582293408962
 30
0.0
 40
0.095309275799235
 50
61.3731687284430407
 51
83.4925204040406328
  0
ARC
  5
D2FE
  8
0
 10
3892.1134558954449858
 20
162.2690746841516045
 30
0.0
 40
0.3122066336774782
 50
50.6205098937774878
 51
61.3731687284430407
  0
ARC
  5
D2FF
  8
0
 10
3890.4849135478762037
 20
160.0479530783200062
 30
0.0
 40
3.0659725243900509
 50
49.519894336981622
 51
53.4322567395685795
  0
ARC
  5
D300
  8
0
 10
3891.2152923406129048
 20
160.9774858292751958
 30
0.0
 40
1.8853987740952021
 50
34.5158495131743734
 51
48.0644377185511473
  0
ARC
  5
D301
  8
0
 10
3890.147802988679814
 20
160.1720859583909089
 30
0.0
 40
3.2218801872101661
 50
25.6979316575295087
 51
35.560659653328571
  0
ARC
  5
D302
  8
0
 10
3890.3579421168042245
 20
160.2395037432343941
 30
0.0
 40
3.0034447891795462
 50
12.7949300970080309
 51
26.2773431738152894
  0
ARC
  5
D303
  8
0
 10
3889.6322960042971317
 20
160.0307657256936977
 30
0.0
 40
3.7575442840687932
 50
355.0889323482772966
 51
13.4483546038001691
  0
ARC
  5
D304
  8
0
 10
3891.1127708742378672
 20
159.9135515050487015
 30
0.0
 40
2.2724917499228798
 50
336.6756685569749266
 51
354.8378468298997177
  0
ARC
  5
D305
  8
0
 10
3891.5809216813368039
 20
159.6736600364322953
 30
0.0
 40
1.747966497098502
 50
314.0864256756993882
 51
337.8206862844256761
  0
ARC
  5
D306
  8
0
 10
3891.9844841421631827
 20
159.1762200281534945
 30
0.0
 40
1.111306839722441
 50
287.8933849200042232
 51
316.9859404318743259
  0
ARC
  5
D307
  8
0
 10
3892.0210826932038799
 20
159.1021799760771955
 30
0.0
 40
1.029674187260232
 50
275.692566094185679
 51
287.221199233351399
  0
ARC
  5
D308
  8
0
 10
3892.0780380842661543
 20
158.3659898884361894
 30
0.0
 40
0.2919233658693044
 50
265.5005441271522955
 51
278.9029954920932255
  0
ARC
  5
D309
  8
0
 10
3892.1212748626699067
 20
162.3076330510533865
 30
0.0
 40
0.2537408503078899
 50
61.4250523375057895
 51
72.8198709384888474
  0
ARC
  5
D30A
  8
0
 10
3891.7039667333829129
 20
161.5414388706680029
 30
0.0
 40
1.1262083837013031
 50
56.1047512962639416
 51
61.4250523375057895
  0
ARC
  5
D30B
  8
0
 10
3891.5131629580159824
 20
161.2574420281526955
 30
0.0
 40
1.4683491255789201
 50
49.3041235186539026
 51
56.1047512962639416
  0
ARC
  5
D30C
  8
0
 10
3891.5921268268762105
 20
161.3492593605404011
 30
0.0
 40
1.347247040081025
 50
41.4843779250587872
 51
49.3041235186539026
  0
ARC
  5
D30D
  8
0
 10
3891.0377935280739621
 20
160.8590960690083875
 30
0.0
 40
2.0872101868155291
 50
35.8017495570282165
 51
41.4843779250587872
  0
ARC
  5
D30E
  8
0
 10
3889.3977913671519673
 20
159.6762130776336051
 30
0.0
 40
4.1092930879638301
 50
32.0656808899946597
 51
35.8017495570282165
  0
ARC
  5
D30F
  8
0
 10
3890.7476767562061468
 20
160.5218682826194936
 30
0.0
 40
2.5163953231017531
 50
24.6907992061774983
 51
32.0656808899946597
  0
ARC
  5
D310
  8
0
 10
3888.7889631287380325
 20
159.6213417231307972
 30
0.0
 40
4.672203097179449
 50
22.87772377228465
 51
24.6907992061774983
  0
ARC
  5
D311
  8
0
 10
3890.8246709505751824
 20
160.4803258307665033
 30
0.0
 40
2.4626873056413068
 50
17.5168365228625404
 51
22.87772377228465
  0
ARC
  5
D312
  8
0
 10
3888.2778971753041333
 20
159.676508292516786
 30
0.0
 40
5.1333013356357586
 50
15.3651872497960795
 51
17.5168365228625404
  0
ARC
  5
D313
  8
0
 10
3890.3244143684451046
 20
160.2388754679832061
 30
0.0
 40
3.0109230795600559
 50
10.0340737906787698
 51
15.3651872497960795
  0
ARC
  5
D314
  8
0
 10
3888.0210108234791733
 20
159.831310703765098
 30
0.0
 40
5.350106041192805
 50
5.8620850913750582
 51
10.0340737906787698
  0
ARC
  5
D315
  8
0
 10
3890.0600441542178487
 20
160.0406606745630995
 30
0.0
 40
3.3003537795429359
 50
356.7373463130970777
 51
5.8620850913750582
  0
ARC
  5
D316
  8
0
 10
3889.5788811268480458
 20
160.0680896994172997
 30
0.0
 40
3.7822979778826298
 50
352.5766433451250919
 51
356.7373463130970777
  0
ARC
  5
D317
  8
0
 10
3891.2116896117208853
 20
159.8553480244638934
 30
0.0
 40
2.1356885619807251
 50
343.7559296061070881
 51
352.5766433451250919
  0
ARC
  5
D318
  8
0
 10
3891.0082225230639779
 20
159.9146304272757959
 30
0.0
 40
2.3476160482808002
 50
335.5919203497633134
 51
343.7559296061070881
  0
ARC
  5
D319
  8
0
 10
3891.5398508496509749
 20
159.6733827224705067
 30
0.0
 40
1.7638103162921559
 50
327.1353222370025833
 51
335.5919203497633134
  0
ARC
  5
D31A
  8
0
 10
3891.3378125658241515
 20
159.8039105377364137
 30
0.0
 40
2.0043450927585189
 50
320.2988507333320172
 51
327.1353222370025833
  0
ARC
  5
D31B
  8
0
 10
3891.750715719118034
 20
159.46109774425571
 30
0.0
 40
1.4676798103208211
 50
314.8114972769014912
 51
320.2988507333320172
  0
ARC
  5
D31C
  8
0
 10
3891.7222838368547855
 20
159.4897173261227863
 30
0.0
 40
1.5080215058137469
 50
301.2207096957122872
 51
314.8114972769014912
  0
ARC
  5
D31D
  8
0
 10
3892.1668119410342115
 20
158.756312576143614
 30
0.0
 40
0.6504156740373406
 50
287.3435476074999997
 51
301.2207096957122872
  0
ARC
  5
D31E
  8
0
 10
3892.014561927505838
 20
159.1029874510159061
 30
0.0
 40
1.0275726378809691
 50
277.9905858835218737
 51
289.6851564049828767
  0
ARC
  5
D31F
  8
0
 10
3891.9717803257908599
 20
159.3994723232096078
 30
0.0
 40
1.3271265024340351
 50
273.6011037931540955
 51
278.040310340704707
  0
ARC
  5
D320
  8
0
 10
3892.0155515262349581
 20
158.7433746288446059
 30
0.0
 40
0.669579578664186
 50
271.6149151172475058
 51
273.3892799948384891
  0
ARC
  5
D321
  8
0
 10
3892.0223601447792134
 20
158.2608301918388065
 30
0.0
 40
0.1871582439605618
 50
263.8207672642498096
 51
273.6949756592234166
  0
ARC
  5
D322
  8
0
 10
3892.0132825566029169
 20
158.1769865401732034
 30
0.0
 40
0.1028246176201154
 50
250.7354172928822891
 51
263.8207672642498096
  0
ARC
  5
D323
  8
0
 10
3892.1680191286541231
 20
162.4630939184237945
 30
0.0
 40
0.0914180413694402
 50
72.0295549069000458
 51
96.4819658371760767
  0
ARC
  5
D324
  8
0
 10
3892.164163551547972
 20
162.4970288456825926
 30
0.0
 40
0.057264787309555
 50
96.4819658371760767
 51
134.0199360195441898
  0
ARC
  5
D325
  8
0
 10
3892.1379698568839558
 20
162.5241343300320125
 30
0.0
 40
0.0195710620766669
 50
134.0199360195441898
 51
143.191740678931609
  0
ARC
  5
D326
  8
0
 10
3892.1257124193070922
 20
162.5333068209897078
 30
0.0
 40
0.004261608581442
 50
143.191740678931609
 51
201.347414075422904
  0
ARC
  5
D327
  8
0
 10
3892.1694950245228029
 20
162.5463636609929097
 30
0.0
 40
0.0499363117478836
 50
197.0098328310392048
 51
216.1140070604301116
  0
ARC
  5
D328
  8
0
 10
3891.7278997776011238
 20
161.7221954132510007
 30
0.0
 40
0.8902867819492257
 50
57.3928305421224891
 51
63.2112406396472224
  0
ARC
  5
D329
  8
0
 10
3891.4187865880971913
 20
161.2389818156603098
 30
0.0
 40
1.463912395761146
 50
50.6379734474608725
 51
57.3928305421224891
  0
ARC
  5
D32A
  8
0
 10
3891.4063519384690153
 20
161.2816097464879022
 30
0.0
 40
1.4393073979699631
 50
35.5331181123822617
 51
49.1788842808346089
  0
ARC
  5
D32B
  8
0
 10
3890.1066065622731003
 20
160.2631381475839873
 30
0.0
 40
3.0897952320195481
 50
29.2553919464040284
 51
36.8949745570675773
  0
ARC
  5
D32C
  8
0
 10
3890.0843710184490192
 20
160.2614705167393936
 30
0.0
 40
3.1100238504350441
 50
13.0856923075766698
 51
29.0820012417066209
  0
ARC
  5
D32D
  8
0
 10
3889.1033214587509974
 20
160.0091384007941997
 30
0.0
 40
4.1227959741623108
 50
1.7195590038695749
 51
13.4145342530554004
  0
ARC
  5
D32E
  8
0
 10
3889.9956755055150097
 20
160.0222631623470875
 30
0.0
 40
3.2304788101628881
 50
349.8975060620542195
 51
1.961805639503112
  0
ARC
  5
D32F
  8
0
 10
3891.0135734241848695
 20
159.8562840621542875
 30
0.0
 40
2.1993006547990128
 50
332.9948502114528992
 51
349.5029908826181781
  0
ARC
  5
D330
  8
0
 10
3891.3711292094849341
 20
159.6745941289713073
 30
0.0
 40
1.7982307179565249
 50
314.7463851408675737
 51
332.9796817684095913
  0
ARC
  5
D331
  8
0
 10
3891.7442666963979718
 20
159.2850199961301882
 30
0.0
 40
1.258899871514928
 50
301.4180393600872208
 51
315.1667025972146803
  0
ARC
  5
D332
  8
0
 10
3891.9179779791720648
 20
159.0357792947160078
 30
0.0
 40
0.9558248040747812
 50
282.1934980799592267
 51
300.3198542053339111
  0
ARC
  5
D333
  8
0
 10
3891.8725792183618069
 20
159.2423501086556996
 30
0.0
 40
1.167324438798002
 50
275.2483360701198194
 51
282.2300126954991129
  0
ARC
  5
D334
  8
0
 10
3892.1769941261841268
 20
162.468799820508309
 30
0.0
 40
0.0624545993159998
 50
79.3090563970539364
 51
133.1772354346209113
  0
ARC
  5
D335
  8
0
 10
3892.1631450861191297
 20
162.3954422922161882
 30
0.0
 40
0.1371079506665135
 50
50.4006481081864806
 51
79.3090563970539364
  0
ARC
  5
D336
  8
0
 10
3893.320515543493002
 20
163.5924807652993991
 30
0.0
 40
1.5283942439034419
 50
225.5677577566987111
 51
227.6745987172473917
  0
ARC
  5
D337
  8
0
 10
3889.5742058750711294
 20
159.3672179460866971
 30
0.0
 40
4.118709851266364
 50
46.2291809771279816
 51
48.721757867182049
  0
ARC
  5
D338
  8
0
 10
3890.5449467883358921
 20
160.5189352240622895
 30
0.0
 40
2.6172573559199761
 50
29.6955788045829507
 51
44.1326974233105815
  0
ARC
  5
D339
  8
0
 10
3890.2796548194219213
 20
160.3288130838498944
 30
0.0
 40
2.9420867381651208
 50
22.2183710693118108
 51
30.3524679419873884
  0
ARC
  5
D33A
  8
0
 10
3889.7561084883877811
 20
160.1358576465362091
 30
0.0
 40
3.4997766069876648
 50
8.5768020261389672
 51
21.9016804931575493
  0
ARC
  5
D33B
  8
0
 10
3890.2172511751969068
 20
160.0575138177642032
 30
0.0
 40
3.0589724085000878
 50
342.9830554872186212
 51
11.3169843072865799
  0
ARC
  5
D33C
  8
0
 10
3891.4492018186838322
 20
159.6804702831624923
 30
0.0
 40
1.7706152317153849
 50
325.3326197172717116
 51
342.9830554872186212
  0
ARC
  5
D33D
  8
0
 10
3891.1443209771427973
 20
159.891323089532591
 30
0.0
 40
2.1413054440130601
 50
317.1444318691333137
 51
325.3326197172717116
  0
ARC
  5
D33E
  8
0
 10
3891.7702681534919975
 20
159.3105610001204866
 30
0.0
 40
1.2874351540519631
 50
300.9810566925993953
 51
317.1444318691333137
  0
ARC
  5
D33F
  8
0
 10
3891.9669999613788605
 20
158.9828989488549951
 30
0.0
 40
0.9052495655297939
 50
286.2934874228839135
 51
300.9810566925993953
  0
ARC
  5
D340
  8
0
 10
3891.7337381753432055
 20
159.7809287610184015
 30
0.0
 40
1.736671625572854
 50
283.7357701278015156
 51
286.2934874228839135
  0
ARC
  5
D341
  8
0
 10
3891.9604611248469155
 20
158.8575040921720074
 30
0.0
 40
0.7858223700341702
 50
274.1481130910187858
 51
283.6645589842555069
  0
ARC
  5
D342
  8
0
 10
3892.00968371707404
 20
162.4671379880581128
 30
0.0
 40
0.0874801459769641
 50
86.876389908598469
 51
111.8177262427957999
  0
ARC
  5
D343
  8
0
 10
3892.0034797375951712
 20
162.3788116758115905
 30
0.0
 40
0.1760187126373329
 50
71.0393832482935466
 51
86.4265841481882831
  0
ARC
  5
D344
  8
0
 10
3891.8706988739040753
 20
161.9923252504744084
 30
0.0
 40
0.5846781242901919
 50
64.9675253832951256
 51
71.0393832482935466
  0
ARC
  5
D345
  8
0
 10
3892.0664666407042205
 20
162.3968103102891121
 30
0.0
 40
0.1354947581718439
 50
62.44133412422741
 51
67.6022191114837909
  0
ARC
  5
D346
  8
0
 10
3891.9989961294440945
 20
162.4965126830400095
 30
0.0
 40
0.0562462433366923
 50
112.8315586354076032
 51
135.8439997204235112
  0
ARC
  5
D347
  8
0
 10
3891.9803685652500462
 20
162.5145993858857878
 30
0.0
 40
0.0302825192652952
 50
135.8439997204235112
 51
152.0827760464607081
  0
ARC
  5
D348
  8
0
 10
3891.9791876870081069
 20
162.522085068026712
 30
0.0
 40
0.0264385705603832
 50
165.3370569176832134
 51
201.7451392389804994
  0
ARC
  5
D349
  8
0
 10
3892.1406049847068971
 20
162.5833395013092115
 30
0.0
 40
0.1990842424622929
 50
200.9087630645855995
 51
214.8446858286482097
  0
ARC
  5
D34A
  8
0
 10
3891.4449182083171763
 20
161.5648941243946126
 30
0.0
 40
1.0496756053753029
 50
38.4919752765236183
 51
59.5286975684711024
  0
ARC
  5
D34B
  8
0
 10
3889.9046942286909143
 20
160.3273985766051908
 30
0.0
 40
3.025441498929121
 50
25.3615862188281618
 51
38.6801976055362928
  0
ARC
  5
D34C
  8
0
 10
3889.6709805947348286
 20
160.2312325334291927
 30
0.0
 40
3.2778477930356629
 50
12.0371753422662593
 51
25.1307032292861585
  0
ARC
  5
D34D
  8
0
 10
3889.1457496397188152
 20
160.0590768104322876
 30
0.0
 40
3.8278848531363372
 50
350.7512589010000852
 51
12.9178594039731003
  0
ARC
  5
D34E
  8
0
 10
3890.9186353073409919
 20
159.7880781066423026
 30
0.0
 40
2.034566684001577
 50
319.7704653598179902
 51
350.259444759047426
  0
ARC
  5
D34F
  8
0
 10
3891.6561714294739431
 20
159.1066944097225075
 30
0.0
 40
1.032345103441378
 50
283.3646959835400025
 51
322.2061606512198182
  0
ARC
  5
D350
  8
0
 10
3891.6162015534127931
 20
159.4615254615818003
 30
0.0
 40
1.387476322667091
 50
269.7653852176628106
 51
281.5833069537019924
  0
ARC
  5
D351
  8
0
 10
3891.5949859322731754
 20
158.1856817433198898
 30
0.0
 40
0.1126967291616656
 50
233.6317915399039862
 51
277.9229172701438983
  0
ARC
  5
D352
  8
0
 10
3892.0950318657478419
 20
162.2325168925916046
 30
0.0
 40
0.2105403551696259
 50
58.6147025530612567
 51
82.4726045566871449
  0
ARC
  5
D353
  8
0
 10
3891.9153970724019018
 20
161.9380579752420886
 30
0.0
 40
0.5554674677414785
 50
47.5168422391386471
 51
58.6147025530612567
  0
ARC
  5
D354
  8
0
 10
3890.9630219666719313
 20
160.8981093649454124
 30
0.0
 40
1.9656133658924371
 50
35.318299469165261
 51
47.5168422391386471
  0
ARC
  5
D355
  8
0
 10
3889.5129278996309949
 20
159.8706900562521867
 30
0.0
 40
3.7427918147665169
 50
28.2271939001071601
 51
35.318299469165261
  0
ARC
  5
D356
  8
0
 10
3890.5000205833598557
 20
160.4005678554339056
 30
0.0
 40
2.6224693396117358
 50
16.2687741578271989
 51
28.2271939001071601
  0
ARC
  5
D357
  8
0
 10
3888.8010555219470916
 20
159.9047606446160898
 30
0.0
 40
4.3923018373921066
 50
9.4740614071393043
 51
16.2687741578271989
  0
ARC
  5
D358
  8
0
 10
3889.5882860688871006
 20
160.036131515657587
 30
0.0
 40
3.5941851543243071
 50
359.7835341208015052
 51
9.4740614071393043
  0
ARC
  5
D359
  8
0
 10
3890.1144333314177857
 20
160.0341436995805111
 30
0.0
 40
3.0680341367614972
 50
346.0819281730335888
 51
359.7835341208015052
  0
ARC
  5
D35A
  8
0
 10
3891.2891414670411905
 20
159.7430395857226983
 30
0.0
 40
1.8577941568384959
 50
324.5229748361758197
 51
346.0819281730335888
  0
ARC
  5
D35B
  8
0
 10
3891.3336858295310776
 20
159.7112933425256074
 30
0.0
 40
1.803094758425448
 50
312.486773767635384
 51
324.5229748361758197
  0
ARC
  5
D35C
  8
0
 10
3891.7029362239750299
 20
159.3081404478957097
 30
0.0
 40
1.25639730073468
 50
295.647853231628801
 51
312.486773767635384
  0
ARC
  5
D35D
  8
0
 10
3891.9701033021901821
 20
158.7517128360223069
 30
0.0
 40
0.6391534794316195
 50
275.4442915577899953
 51
295.647853231628801
  0
ARC
  5
D35E
  8
0
 10
3891.7334326456511917
 20
158.985825005247591
 30
0.0
 40
0.9197608473859769
 50
280.7520035458542793
 51
288.859552173427403
  0
ARC
  5
D35F
  8
0
 10
3891.8707817199660894
 20
158.2040602532339904
 30
0.0
 40
0.1265680655427485
 50
245.53483436233509
 51
285.6956053651172169
  0
ARC
  5
D360
  8
0
 10
3891.8692578969507849
 20
159.1170187059306045
 30
0.0
 40
1.042926905211502
 50
269.8901979941045965
 51
276.0598886560609913
  0
ARC
  5
D361
  8
0
 10
3891.8574010490201545
 20
158.1939665982276892
 30
0.0
 40
0.1202775606135623
 50
243.120340893224693
 51
274.7013446688932845
  0
ARC
  5
D362
  8
0
 10
3888.8272379828658813
 20
159.0967556597753116
 30
0.0
 40
4.6952198359768662
 50
42.6328895257376033
 51
45.4237871170827603
  0
ARC
  5
D363
  8
0
 10
3890.6166691202388392
 20
160.7441186863817109
 30
0.0
 40
2.2629639413737461
 50
24.9535387044467996
 51
42.6328895257376033
  0
ARC
  5
D364
  8
0
 10
3888.0457861918030176
 20
159.5478333762578131
 30
0.0
 40
5.0985481095732874
 50
18.3031293013138807
 51
24.9535387044467996
  0
ARC
  5
D365
  8
0
 10
3890.0678281473360585
 20
160.216682334543691
 30
0.0
 40
2.9687564298701061
 50
1.231510176942076
 51
18.3031293013138807
  0
ARC
  5
D366
  8
0
 10
3889.6379164038098679
 20
160.0327041255750942
 30
0.0
 40
3.407004736702659
 50
350.3666867396466955
 51
4.1706699810144334
  0
ARC
  5
D367
  8
0
 10
3890.8733818360860823
 20
159.832186309472803
 30
0.0
 40
2.1554246849783869
 50
328.6670424799066268
 51
350.125985812243016
  0
ARC
  5
D368
  8
0
 10
3891.2700346454898863
 20
159.5972996360723073
 30
0.0
 40
1.6944855999126689
 50
308.7778116014563921
 51
328.4765774539060885
  0
ARC
  5
D369
  8
0
 10
3891.6967148781159267
 20
159.1006974582938085
 30
0.0
 40
1.0403379681578899
 50
288.7281490126771928
 51
307.5876441302137891
  0
ARC
  5
D36A
  8
0
 10
3891.6443588554029702
 20
161.9528125652209951
 30
0.0
 40
0.6146988481843373
 50
57.2144685124243679
 51
76.1149833367475708
  0
ARC
  5
D36B
  8
0
 10
3891.7566743725928973
 20
162.4071680052988995
 30
0.0
 40
0.1466671811680475
 50
76.1149833367475708
 51
114.3490319305022069
  0
ARC
  5
D36C
  8
0
 10
3891.7115278759479224
 20
162.5069286986118016
 30
0.0
 40
0.0371664866976118
 50
114.3490319304776932
 51
197.4624795492107978
  0
ARC
  5
D36D
  8
0
 10
3891.9894868146320732
 20
162.5943689961131895
 30
0.0
 40
0.328554505019326
 50
197.4625224526791101
 51
209.9380027912187074
  0
ARC
  5
D36E
  8
0
 10
3891.8556776224841087
 20
162.3010028532295053
 30
0.0
 40
0.1398679959326551
 50
66.140311055314001
 51
100.2430350039577007
  0
ARC
  5
D36F
  8
0
 10
3891.7603510368790012
 20
162.0499954853956979
 30
0.0
 40
0.4082357679348603
 50
46.8918184566402232
 51
68.1550513002637643
  0
ARC
  5
D370
  8
0
 10
3890.7031006333218102
 20
160.9289039195741964
 30
0.0
 40
1.9492152726408101
 50
38.8673540485032731
 51
46.7233344896173506
  0
ARC
  5
D371
  8
0
 10
3889.7455139623739342
 20
160.2045129953941114
 30
0.0
 40
3.1495785762837998
 50
6.9188376843621544
 51
38.1961977003603366
  0
ARC
  5
D372
  8
0
 10
3889.5952032690379383
 20
160.056975545361496
 30
0.0
 40
3.3190503716705821
 50
346.9277064994276998
 51
9.1351642279557481
  0
ARC
  5
D373
  8
0
 10
3890.9634346463799375
 20
159.7650656732043899
 30
0.0
 40
1.9204161484448341
 50
314.7536027787184025
 51
346.1781735718125219
  0
ARC
  5
D374
  8
0
 10
3891.4047853309339189
 20
159.3677542580470003
 30
0.0
 40
1.3279593249209549
 50
294.9374823683963882
 51
313.2998482818895809
  0
ARC
  5
D375
  8
0
 10
3891.7474379359068735
 20
158.6308351361485904
 30
0.0
 40
0.5152720542471149
 50
268.3310701563049747
 51
294.9374823683963882
  0
ARC
  5
D376
  8
0
 10
3891.4011156462729559
 20
159.0383756447542964
 30
0.0
 40
0.9802803458050805
 50
280.4108656997590856
 51
302.7159850064848001
  0
ARC
  5
D377
  8
0
 10
3891.3627377086309025
 20
159.1074404485289904
 30
0.0
 40
1.0591430124486729
 50
302.4434388328463115
 51
314.9835116236242811
  0
ARC
  5
D378
  8
0
 10
3890.7867895604749719
 20
159.6837201807497877
 30
0.0
 40
1.873891193871972
 50
314.9835116236242811
 51
324.6091523497992739
  0
ARC
  5
D379
  8
0
 10
3890.8319240028340573
 20
159.6516556518072036
 30
0.0
 40
1.8185264767379119
 50
324.6091523497992739
 51
339.2605082646118149
  0
ARC
  5
D37A
  8
0
 10
3889.947653773428101
 20
159.9864902279757075
 30
0.0
 40
2.7640676085826059
 50
339.2605082646118149
 51
5.4504199524234771
  0
ARC
  5
D37B
  8
0
 10
3888.5311658154842007
 20
160.0303552207626012
 30
0.0
 40
4.1737911265216292
 50
3.0032835338948241
 51
17.6554308491567014
  0
ARC
  5
D37C
  8
0
 10
3889.5505898891060497
 20
160.3179902284209106
 30
0.0
 40
3.1153446033500889
 50
18.3009179899461714
 51
35.7413108950512068
  0
ARC
  5
D37D
  8
0
 10
3879.7477640171568964
 20
152.2109873361542896
 30
0.0
 40
15.8305025434664302
 50
38.8339344543813993
 51
40.246144962752858
  0
ARC
  5
D37E
  8
0
 10
3891.1726216564411516
 20
161.6367870487827929
 30
0.0
 40
0.9555133626596248
 50
44.3333668469592794
 51
56.1564677363504288
  0
ARC
  5
D37F
  8
0
 10
3890.9013416567067907
 20
161.3717595497435866
 30
0.0
 40
1.3347658029266629
 50
29.6238384639601691
 51
44.3329931742829189
  0
ARC
  5
D380
  8
0
 10
3889.4683467880881835
 20
160.338909231226296
 30
0.0
 40
3.096798681752079
 50
23.5158905174538013
 51
33.1322954227323621
  0
ARC
  5
D381
  8
0
 10
3888.9903094081128074
 20
160.1656527900771891
 30
0.0
 40
3.6044056113062131
 50
8.5539652893261398
 51
23.009258995362849
  0
ARC
  5
D382
  8
0
 10
3888.7046124222401886
 20
160.0540122234135936
 30
0.0
 40
3.904120644818748
 50
351.2610017971117031
 51
9.5505538571554922
  0
ARC
  5
D383
  8
0
 10
3890.5035364892260077
 20
159.7850833332142031
 30
0.0
 40
2.0852350121423449
 50
321.6425976977042751
 51
351.0546444993613022
  0
ARC
  5
D384
  8
0
 10
3891.332108391130987
 20
159.0567469741326079
 30
0.0
 40
0.9851733534708611
 50
290.2537376750298108
 51
324.9563109075393754
  0
ARC
  5
D385
  8
0
 10
3891.3558419958849299
 20
159.0589711664746915
 30
0.0
 40
0.9793149358576767
 50
276.9379236619922722
 51
288.9058641451716198
  0
ARC
  5
D386
  8
0
 10
3891.2663096074238638
 20
159.7506899500598081
 30
0.0
 40
1.6767920937464
 50
269.4865625551053085
 51
277.1197548556064021
  0
ARC
  5
D387
  8
0
 10
3891.2328210680229859
 20
158.1837288693245114
 30
0.0
 40
0.1113056110732124
 50
224.5914641258789004
 51
279.5480148348636931
  0
ARC
  5
D388
  8
0
 10
3891.1337305660917991
 20
161.5748607902405922
 30
0.0
 40
1.0286087491509841
 50
56.2782857410609409
 51
64.439497311799613
  0
ARC
  5
D389
  8
0
 10
3891.312256617519779
 20
161.9481335372925912
 30
0.0
 40
0.6148405837126
 50
64.439497311799613
 51
77.0403263819909796
  0
ARC
  5
D38A
  8
0
 10
3891.397508424120133
 20
162.3185890597567891
 30
0.0
 40
0.234702234354344
 50
77.0403263819909796
 51
104.9732898907820982
  0
ARC
  5
D38B
  8
0
 10
3891.3527440469219982
 20
162.4859640579429083
 30
0.0
 40
0.0614445087437874
 50
104.9732898907820982
 51
168.2903487048835984
  0
ARC
  5
D38C
  8
0
 10
3891.511785113149017
 20
162.5028653301829138
 30
0.0
 40
0.2192516095427631
 50
181.1579995067793902
 51
208.9002268328355001
  0
ARC
  5
D38D
  8
0
 10
3890.8669566420721821
 20
161.7926502663667918
 30
0.0
 40
0.755132261501737
 50
35.8466005548549731
 51
53.1488291750943631
  0
ARC
  5
D38E
  8
0
 10
3888.957775634437894
 20
160.3866585942552945
 30
0.0
 40
3.126138731778545
 50
18.5934099535792612
 51
36.2430476584966001
  0
ARC
  5
D38F
  8
0
 10
3887.9008515222308233
 20
160.0247037371250087
 30
0.0
 40
4.2433105286940087
 50
5.1367204277787231
 51
18.6752640231904898
  0
ARC
  5
D390
  8
0
 10
3889.0131740442780028
 20
160.0419294582046064
 30
0.0
 40
3.1349968954435021
 50
341.7287350482562829
 51
6.6434478774522141
  0
ARC
  5
D391
  8
0
 10
3890.2616365993180807
 20
159.6124507396991987
 30
0.0
 40
1.8149039356504271
 50
312.835214396170727
 51
342.2468719860399915
  0
ARC
  5
D392
  8
0
 10
3890.9896005494370002
 20
158.8446094477831991
 30
0.0
 40
0.7569912298093027
 50
282.5087988305252793
 51
311.9439010957663072
  0
ARC
  5
D393
  8
0
 10
3890.8351988592298767
 20
159.6471618515699049
 30
0.0
 40
1.5741043704494
 50
267.985564858739906
 51
281.6683952219401021
  0
ARC
  5
D394
  8
0
 10
3890.7942309118648154
 20
158.4830353286887998
 30
0.0
 40
0.4092571993106692
 50
262.809295151123024
 51
267.9886572495663017
  0
ARC
  5
D395
  8
0
 10
3890.7535202203680456
 20
158.1603560364526118
 30
0.0
 40
0.0840199227875588
 50
226.1270251455484015
 51
262.809295151123024
  0
ARC
  5
D396
  8
0
 10
3890.727968288602824
 20
158.1337176211891062
 30
0.0
 40
0.0471078217627462
 50
199.2580953624594997
 51
226.0756470375297909
  0
ARC
  5
D397
  8
0
 10
3891.4777649559391648
 20
162.403712914912802
 30
0.0
 40
0.0389730110625449
 50
80.202173675541971
 51
144.3873238745416074
  0
ARC
  5
D398
  8
0
 10
3891.4826120194647956
 20
162.2451979111783942
 30
0.0
 40
0.1969276588103971
 50
70.8172706919694122
 51
89.4806337154385432
  0
ARC
  5
D399
  8
0
 10
3891.4248599095249119
 20
162.0631851332767894
 30
0.0
 40
0.3878462414132318
 50
51.2998699387786701
 51
71.5944426404378333
  0
ARC
  5
D39A
  8
0
 10
3890.7802153547058879
 20
161.3460139596757017
 30
0.0
 40
1.3517147364493349
 50
38.1598730860421682
 51
48.9809802126748721
  0
ARC
  5
D39B
  8
0
 10
3889.7325050840709082
 20
160.473472310188896
 30
0.0
 40
2.7149016972614488
 50
25.4578265943528912
 51
38.9773620688561024
  0
ARC
  5
D39C
  8
0
 10
3889.0044949903131055
 20
160.1370798196186058
 30
0.0
 40
3.5168326283238431
 50
6.8083592932335222
 51
25.3078882639388389
  0
ARC
  5
D39D
  8
0
 10
3888.8302498139410091
 20
160.045722280993914
 30
0.0
 40
3.701342451503046
 50
351.6859158131645131
 51
7.8928834687978808
  0
ARC
  5
D39E
  8
0
 10
3890.4582362446749357
 20
159.805472262028502
 30
0.0
 40
2.0557270023595371
 50
318.9778064449336057
 51
351.7505531360340001
  0
ARC
  5
D39F
  8
0
 10
3891.0653629535308937
 20
159.3101949827133126
 30
0.0
 40
1.272843172363828
 50
298.5571675798399838
 51
317.8603168380471971
  0
ARC
  5
D3A0
  8
0
 10
3891.3444127248308178
 20
158.8290171336198
 30
0.0
 40
0.7169680990167893
 50
276.7598463298785987
 51
297.3519193172477912
  0
ARC
  5
D3A1
  8
0
 10
3891.3920567691930046
 20
158.3084580398237051
 30
0.0
 40
0.1949203444164537
 50
256.4000656969586203
 51
280.8671718735989202
  0
ARC
  5
D3A2
  8
0
 10
3890.9156580411317918
 20
159.1203569349742111
 30
0.0
 40
1.090045264936041
 50
293.2701801327532962
 51
303.1829864119636113
  0
ARC
  5
D3A3
  8
0
 10
3890.9282297256431775
 20
159.101132930844301
 30
0.0
 40
1.0670755112097441
 50
303.1829864119636113
 51
321.719600245654874
  0
ARC
  5
D3A4
  8
0
 10
3890.0090658418421299
 20
159.8265344112919877
 30
0.0
 40
2.238002303592125
 50
321.719600245654874
 51
357.8149240688018722
  0
ARC
  5
D3A5
  8
0
 10
3887.898087326795121
 20
160.0306306578463023
 30
0.0
 40
4.3569771557698456
 50
356.1911452040101267
 51
18.2792990377796514
  0
ARC
  5
D3A6
  8
0
 10
3888.9836920549391834
 20
160.3133579593497871
 30
0.0
 40
3.238277413662213
 50
19.5540061234896498
 51
39.3014596597955901
  0
ARC
  5
D3A7
  8
0
 10
3891.7650253597298615
 20
162.604081171287504
 30
0.0
 40
0.3650939849309549
 50
209.1208433660382866
 51
221.0152215258304977
  0
ARC
  5
D3A8
  8
0
 10
3890.7724247837909388
 20
161.6772802721019104
 30
0.0
 40
0.9042334567290231
 50
53.2527146794621373
 51
67.1587057907964748
  0
ARC
  5
D3A9
  8
0
 10
3890.8892371899828504
 20
161.9546063338594877
 30
0.0
 40
0.6033100731740598
 50
67.1587057907964748
 51
82.660217756806361
  0
ARC
  5
D3AA
  8
0
 10
3890.9403615530759453
 20
162.3515076778355137
 30
0.0
 40
0.2031296421786212
 50
82.660217756806361
 51
117.907429195051904
  0
ARC
  5
D3AB
  8
0
 10
3890.8796596615911767
 20
162.4661176626919996
 30
0.0
 40
0.0734370507995929
 50
117.907429195051904
 51
200.9908975549481909
  0
ARC
  5
D3AC
  8
0
 10
3891.0345870801170349
 20
162.4803061214828972
 30
0.0
 40
0.2271300787492782
 50
190.2701806943182987
 51
213.5745535904445944
  0
ARC
  5
D3AD
  8
0
 10
3888.9435369766470103
 20
160.7607959793882912
 30
0.0
 40
2.481414237461621
 50
21.9786062169564183
 51
39.966248962775289
  0
ARC
  5
D3AE
  8
0
 10
3887.0503293042597761
 20
160.0436288245034007
 30
0.0
 40
4.5056478098104487
 50
355.0054171734320221
 51
21.4253497827561183
  0
ARC
  5
D3AF
  8
0
 10
3889.2759341962578219
 20
159.7827542179200009
 30
0.0
 40
2.2667460720204691
 50
322.1206219475196804
 51
356.6769328149188141
  0
ARC
  5
D3B0
  8
0
 10
3890.4468418424398806
 20
158.8525155807911915
 30
0.0
 40
0.7715268571089759
 50
287.8626052709166743
 51
323.2571766089558878
  0
ARC
  5
D3B1
  8
0
 10
3891.0165100922117745
 20
162.1424840897917932
 30
0.0
 40
0.2992339832397492
 50
56.7062096619554481
 51
90.254878805426074
  0
ARC
  5
D3B2
  8
0
 10
3890.8461281846530255
 20
161.8830411532611038
 30
0.0
 40
0.6096218562941922
 50
42.2626513467982718
 51
56.7062096619554481
  0
ARC
  5
D3B3
  8
0
 10
3889.8270647361600822
 20
160.9569783341995048
 30
0.0
 40
1.986605028632114
 50
31.9450193943824914
 51
42.2626513467982718
  0
ARC
  5
D3B4
  8
0
 10
3888.543921132019932
 20
160.1568922651069045
 30
0.0
 40
3.498754236482529
 50
24.1812112178854299
 51
31.9450193943824914
  0
ARC
  5
D3B5
  8
0
 10
3888.6653913775107867
 20
160.2114352863941917
 30
0.0
 40
3.3656003341327909
 50
2.8728642659684702
 51
24.1812112178854299
  0
ARC
  5
D3B6
  8
0
 10
3888.8812590555539828
 20
160.0341075756371083
 30
0.0
 40
3.1644765254071499
 50
342.5070478297503769
 51
6.2774076817827904
  0
ARC
  5
D3B7
  8
0
 10
3890.1875927827582018
 20
159.6369410804836093
 30
0.0
 40
1.7992253815829209
 50
316.049720383370186
 51
342.0653650147157236
  0
ARC
  5
D3B8
  8
0
 10
3890.7757625917529367
 20
159.0534782758504946
 30
0.0
 40
0.9709063941714768
 50
293.2439263851658211
 51
316.7490264316620028
  0
ARC
  5
D3B9
  8
0
 10
3890.9305714721140248
 20
158.7136537311986046
 30
0.0
 40
0.5976249376749805
 50
267.9268920847986237
 51
292.4641750818356059
  0
ARC
  5
D3BA
  8
0
 10
3890.950195394379989
 20
158.4340417626889916
 30
0.0
 40
0.3202882844116872
 50
255.1099123828664119
 51
262.6016085023297819
  0
ARC
  5
D3BB
  8
0
 10
3890.7532253846261483
 20
158.1872353281036112
 30
0.0
 40
0.1096767414761661
 50
255.5057240676798926
 51
300.9052909064020014
  0
ARC
  5
D3BC
  8
0
 10
3891.2630994131818625
 20
157.3381660691217974
 30
0.0
 40
0.8807223544458462
 50
115.2066900086442018
 51
120.995162615892994
  0
ARC
  5
D3BD
  8
0
 10
3890.2641474639681292
 20
159.2359920444143029
 30
0.0
 40
1.265440459849813
 50
299.5381321313411149
 51
332.7121931389687006
  0
ARC
  5
D3BE
  8
0
 10
3888.9807902952779841
 20
159.9246207113287994
 30
0.0
 40
2.7217905345979849
 50
332.2148412127701249
 51
1.9307782020884241
  0
ARC
  5
D3BF
  8
0
 10
3887.1450293742050235
 20
160.0391535804500904
 30
0.0
 40
4.5560633906945416
 50
359.7128933241955906
 51
18.321229784049109
  0
ARC
  5
D3C0
  8
0
 10
3888.4643451772590197
 20
160.4245199498190004
 30
0.0
 40
3.1828627100321811
 50
19.2013049303222587
 51
35.7988871487967018
  0
ARC
  5
D3C1
  8
0
 10
3892.4001087285359972
 20
163.2894552453763026
 30
0.0
 40
1.6852951336908051
 50
212.167862227225811
 51
216.5293364647687895
  0
ARC
  5
D3C2
  8
0
 10
3891.0107665322220782
 20
162.4179241315407012
 30
0.0
 40
0.045265417760561
 50
186.3711929667965137
 51
214.6291455679067894
  0
ARC
  5
D3C3
  8
0
 10
3891.0117499188368129
 20
162.3908430219416914
 30
0.0
 40
0.0509875270183678
 50
86.143800028302735
 51
154.366283239542895
  0
ARC
  5
D3C4
  8
0
 10
3890.2968967118608816
 20
161.7558772974282135
 30
0.0
 40
0.8120416513251804
 50
47.0536791437082016
 51
64.5858019434183035
  0
ARC
  5
D3C5
  8
0
 10
3890.333692891652845
 20
161.8333203385683987
 30
0.0
 40
0.726301442155955
 50
64.5858019434183035
 51
81.2148349458083203
  0
ARC
  5
D3C6
  8
0
 10
3890.4067848600398065
 20
162.3062756791082109
 30
0.0
 40
0.2477314995269893
 50
81.2148349458083203
 51
126.8670326448289956
  0
ARC
  5
D3C7
  8
0
 10
3890.3313905397749295
 20
162.440035635237308
 30
0.0
 40
0.0975442796188275
 50
138.6583226186652098
 51
180.1319060017185905
  0
ARC
  5
D3C8
  8
0
 10
3890.5163758291068916
 20
162.4551066231836103
 30
0.0
 40
0.2829430423694318
 50
183.0988500925635094
 51
209.6072795151831087
  0
ARC
  5
D3C9
  8
0
 10
3887.5210695371529255
 20
160.3989672348741919
 30
0.0
 40
3.3512813010235281
 50
13.2142266652556195
 51
34.8776762148913093
  0
ARC
  5
D3CA
  8
0
 10
3886.7713706170648038
 20
160.122964176848086
 30
0.0
 40
4.1453646079238657
 50
343.1785332770417085
 51
14.5594658976221805
  0
ARC
  5
D3CB
  8
0
 10
3889.1595688368838637
 20
159.4920994910229126
 30
0.0
 40
1.679056954317895
 50
307.4248381855139201
 51
340.1998554387138256
  0
ARC
  5
D3CC
  8
0
 10
3889.8516027880727961
 20
158.8261240354231916
 30
0.0
 40
0.7438489513076443
 50
274.9138452024262165
 51
296.1956354351394225
  0
ARC
  5
D3CD
  8
0
 10
3889.7032216743950812
 20
160.1256593302213957
 30
0.0
 40
2.0516430215935508
 50
265.9333372075254829
 51
275.9338011184468087
  0
ARC
  5
D3CE
  8
0
 10
3890.4435282762028692
 20
162.0501952673498067
 30
0.0
 40
0.3954801392848086
 50
42.1274666583157327
 51
66.6219597290956358
  0
ARC
  5
D3CF
  8
0
 10
3890.457233440564778
 20
162.081899366124901
 30
0.0
 40
0.3609405763265457
 50
66.6219597290956358
 51
86.348135404534986
  0
ARC
  5
D3D0
  8
0
 10
3890.4738648830179955
 20
162.3424842569349948
 30
0.0
 40
0.0998254863822961
 50
86.348135404534986
 51
139.3506152356818859
  0
ARC
  5
D3D1
  8
0
 10
3891.825043165005809
 20
162.9952287159435116
 30
0.0
 40
1.5432112876346731
 50
202.3856722663776111
 51
214.2314272643872073
  0
ARC
  5
D3D2
  8
0
 10
3887.5002839586240952
 20
160.3910410043476986
 30
0.0
 40
3.5085030276702689
 50
13.6351613938700797
 51
29.657822728077349
  0
ARC
  5
D3D3
  8
0
 10
3886.2119283276169881
 20
160.0855607280761035
 30
0.0
 40
4.832566629408845
 50
4.5199218994210142
 51
13.5540140799500595
  0
ARC
  5
D3D4
  8
0
 10
3886.5251105448292037
 20
160.1103182749218945
 30
0.0
 40
4.5184073747253608
 50
345.5340968277782849
 51
4.5199218994210142
  0
ARC
  5
D3D5
  8
0
 10
3889.4341873320659033
 20
159.3598265644087064
 30
0.0
 40
1.5140828979765779
 50
316.8059090678759731
 51
345.5340968277782849
  0
ARC
  5
D3D6
  8
0
 10
3889.6895514444968285
 20
159.120073257119202
 30
0.0
 40
1.163808036939755
 50
300.3977016787667935
 51
316.8059090678759731
  0
ARC
  5
D3D7
  8
0
 10
3890.2909239965802044
 20
158.0949643468624117
 30
0.0
 40
0.0246772277087061
 50
120.3977016787667935
 51
161.9635348641340897
  0
ARC
  5
D3D8
  8
0
 10
3890.2025350977141898
 20
158.1751908051851103
 30
0.0
 40
0.0973851701722452
 50
289.1411912634337114
 51
311.8110031169824197
  0
ARC
  5
D3D9
  8
0
 10
3890.2028842152199104
 20
158.1698890313778918
 30
0.0
 40
0.0922727911558096
 50
245.8789291854805015
 51
290.0158927677866245
  0
ARC
  5
D3DA
  8
0
 10
3890.1900621120448704
 20
158.1466932829212055
 30
0.0
 40
0.0658999564906306
 50
191.2503993647717948
 51
247.8122351715136915
  0
ARC
  5
D3DB
  8
0
 10
3888.9579901210599928
 20
160.7931938392273992
 30
0.0
 40
2.3414675002037959
 50
26.7897628171844815
 51
40.4863832224345899
  0
ARC
  5
D3DC
  8
0
 10
3887.8767208888389177
 20
160.2472479148931086
 30
0.0
 40
3.5527478578609939
 50
6.828755913637865
 51
26.7897628171844815
  0
ARC
  5
D3DD
  8
0
 10
3886.852665631086893
 20
160.1246154209003976
 30
0.0
 40
4.584119711030807
 50
346.7415872002497963
 51
6.828755913637865
  0
ARC
  5
D3DE
  8
0
 10
3889.9079650983758256
 20
159.4047143915776985
 30
0.0
 40
1.44515295000332
 50
310.7313790097928177
 51
346.7415872002497963
  0
ARC
  5
D3DF
  8
0
 10
3890.1477164683092269
 20
159.1262862943110861
 30
0.0
 40
1.0777255085504629
 50
297.9740622119902014
 51
310.7313790097928177
  0
ARC
  5
D3E0
  8
0
 10
3890.5037483693431568
 20
158.4559557774919938
 30
0.0
 40
0.3187118615503305
 50
258.8142007057853107
 51
297.9740622119902014
  0
ARC
  5
D3E1
  8
0
 10
3890.5906619330608009
 20
158.8954730475900874
 30
0.0
 40
0.7667402069400743
 50
252.1436031865096936
 51
258.8142007057853107
  0
ARC
  5
D3E2
  8
0
 10
3889.7280022467148228
 20
161.8279411370299101
 30
0.0
 40
0.7301551895380904
 50
45.3565200345196615
 51
72.9183083562704013
  0
ARC
  5
D3E3
  8
0
 10
3889.7585770181099178
 20
161.927439101590295
 30
0.0
 40
0.6260655089852691
 50
72.9183083562704013
 51
91.9516005064586892
  0
ARC
  5
D3E4
  8
0
 10
3889.7438892082791426
 20
162.3584822518731983
 30
0.0
 40
0.1947721874935204
 50
91.9516005064586892
 51
130.0569242333438069
  0
ARC
  5
D3E5
  8
0
 10
3889.6995443108889958
 20
162.4112239377857918
 30
0.0
 40
0.1258653274759251
 50
130.0569242333446027
 51
192.0062454774424054
  0
ARC
  5
D3E6
  8
0
 10
3890.0251374926479002
 20
162.4804680003636008
 30
0.0
 40
0.4587401691361344
 50
192.0062454774424054
 51
213.4141013949098067
  0
ARC
  5
D3E7
  8
0
 10
3886.9370617587492234
 20
160.6204611510179063
 30
0.0
 40
3.1466768442386441
 50
24.32767394173149
 51
30.7184545284967108
  0
ARC
  5
D3E8
  8
0
 10
3885.4731184781589945
 20
160.1123554513469003
 30
0.0
 40
4.6920366492025023
 50
359.4720112899258879
 51
22.616742530097401
  0
ARC
  5
D3E9
  8
0
 10
3886.9288803831927908
 20
159.9378397790572137
 30
0.0
 40
3.2387372300436779
 50
338.265898667247086
 51
2.3230552032997851
  0
ARC
  5
D3EA
  8
0
 10
3888.781819789669953
 20
159.1561095586818055
 30
0.0
 40
1.2286962765265499
 50
306.8449008939563782
 51
340.1322271258467254
  0
ARC
  5
D3EB
  8
0
 10
3889.2863639201132173
 20
158.4827722502097913
 30
0.0
 40
0.3872998714090767
 50
275.1294188957512006
 51
306.8449008939554119
  0
ARC
  5
D3EC
  8
0
 10
3888.8175126778569393
 20
163.7058573830013017
 30
0.0
 40
5.6313860445905339
 50
270.8484793358608727
 51
275.1294188957512006
  0
ARC
  5
D3ED
  8
0
 10
3888.8920839467969017
 20
158.2072422466802948
 30
0.0
 40
0.1324474068270098
 50
195.3174637240761058
 51
273.818083477616085
  0
ARC
  5
D3EE
  8
0
 10
3889.5655785372960054
 20
158.1615849141331864
 30
0.0
 40
0.0827763946726333
 50
209.5544776517868968
 51
264.5558891197333082
  0
ARC
  5
D3EF
  8
0
 10
3889.5340399374449589
 20
158.1437418367733869
 30
0.0
 40
0.0465402729982626
 50
169.4332700280839106
 51
209.5975409002957974
  0
ARC
  5
D3F0
  8
0
 10
3889.824551014141889
 20
162.0480709466845894
 30
0.0
 40
0.3955207877703923
 50
34.0328987772512832
 51
74.7215445967054706
  0
ARC
  5
D3F1
  8
0
 10
3889.8515351070500401
 20
162.1468541031165955
 30
0.0
 40
0.2931183792793573
 50
74.7215445967054706
 51
110.0135501955283956
  0
ARC
  5
D3F2
  8
0
 10
3889.7608813492561239
 20
162.3957400987457902
 30
0.0
 40
0.0282366271284575
 50
110.0135501955279977
 51
221.4115910913675123
  0
ARC
  5
D3F3
  8
0
 10
3890.7527164401421942
 20
162.741331760762904
 30
0.0
 40
1.0765152911122211
 50
199.7780879091116901
 51
211.7060069109552956
  0
ARC
  5
D3F4
  8
0
 10
3886.8492312382218188
 20
160.5703796173075943
 30
0.0
 40
3.3915407916903879
 50
17.0109687458906294
 51
28.2479843316132495
  0
ARC
  5
D3F5
  8
0
 10
3885.2714925083851085
 20
160.0876861851004094
 30
0.0
 40
5.0414657745678353
 50
351.9943870947990945
 51
17.0109687458906294
  0
ARC
  5
D3F6
  8
0
 10
3887.6311013113399895
 20
159.755829069433787
 30
0.0
 40
2.6586349269840208
 50
333.7689246621304164
 51
351.9943870947990945
  0
ARC
  5
D3F7
  8
0
 10
3888.8576737343341847
 20
159.1514540668526081
 30
0.0
 40
1.2912472524026819
 50
312.2338316909998071
 51
333.7689246621304164
  0
ARC
  5
D3F8
  8
0
 10
3891.1812093557209664
 20
156.5919900192157002
 30
0.0
 40
2.165582797657176
 50
132.2338316909998071
 51
136.186660386235701
  0
ARC
  5
D3F9
  8
0
 10
3889.5817871174372158
 20
158.1264957823497923
 30
0.0
 40
0.0509143111625563
 50
283.3211824280185738
 51
316.186660386235701
  0
ARC
  5
D3FA
  8
0
 10
3888.2588604264701644
 20
160.8807289357116019
 30
0.0
 40
2.3481280445394872
 50
25.1142089338926802
 51
36.2570169913512999
  0
ARC
  5
D3FB
  8
0
 10
3887.0527222371310927
 20
160.3153677316801975
 30
0.0
 40
3.6801950934545689
 50
11.2912808824419209
 51
25.1142089338926802
  0
ARC
  5
D3FC
  8
0
 10
3885.5294578330481272
 20
160.0112305229677929
 30
0.0
 40
5.2335250282942392
 50
358.8514107828896158
 51
11.2912808824419209
  0
ARC
  5
D3FD
  8
0
 10
3887.3745556103090166
 20
159.9742375129563072
 30
0.0
 40
3.388056445402281
 50
344.5488924676994884
 51
358.8514107828896158
  0
ARC
  5
D3FE
  8
0
 10
3888.7577259978020265
 20
159.5919211986532105
 30
0.0
 40
1.953021224572554
 50
326.4307499930014274
 51
344.5488924676994884
  0
ARC
  5
D3FF
  8
0
 10
3889.3849037243121529
 20
159.1757103230418977
 30
0.0
 40
1.2003038847912151
 50
306.3339202477822028
 51
326.4307499930014274
  0
ARC
  5
D400
  8
0
 10
3889.7670261845019013
 20
158.7422595825549934
 30
0.0
 40
0.6268012484162778
 50
268.7941837182157769
 51
301.6655769360596082
  0
ARC
  5
D401
  8
0
 10
3889.7535967061708106
 20
158.3269221890087124
 30
0.0
 40
0.211325186526788
 50
244.560005546268286
 51
270.0648340746652138
  0
ARC
  5
D402
  8
0
 10
3889.0632441543198183
 20
161.865873101982686
 30
0.0
 40
0.6871127761260559
 50
36.4100072456495312
 51
66.4876403090256076
  0
ARC
  5
D403
  8
0
 10
3889.0423691709302148
 20
161.8090770045454008
 30
0.0
 40
0.7475296050150764
 50
66.7571935425387153
 51
83.9953163512390972
  0
ARC
  5
D404
  8
0
 10
3889.0865597186561899
 20
162.2291916234568987
 30
0.0
 40
0.3250972464870276
 50
83.9953163512390972
 51
131.8390906815861001
  0
ARC
  5
D405
  8
0
 10
3889.0205135702499319
 20
162.3733806644027879
 30
0.0
 40
0.1798603576329929
 50
146.9786171574855871
 51
204.23072047068041
  0
ARC
  5
D406
  8
0
 10
3879.9868588050248945
 20
158.0475982211501105
 30
0.0
 40
9.8361438755179051
 50
23.7215935211010205
 51
25.6123245751156894
  0
ARC
  5
D407
  8
0
 10
3886.1694703748698885
 20
160.7643545001496079
 30
0.0
 40
3.082963106202488
 50
12.8708854169450699
 51
23.7215935211010205
  0
ARC
  5
D408
  8
0
 10
3882.9532190036379689
 20
160.0294544533790884
 30
0.0
 40
6.3821070802793001
 50
356.3940826028033939
 51
12.8708854169450699
  0
ARC
  5
D409
  8
0
 10
3886.3451679760719344
 20
159.7794708230902927
 30
0.0
 40
2.9813702459826721
 50
336.5931610945194166
 51
357.088959870060819
  0
ARC
  5
D40A
  8
0
 10
3887.9969226199600598
 20
159.0741729473367059
 30
0.0
 40
1.1853917917575949
 50
317.9276741988826984
 51
336.1622583062022045
  0
ARC
  5
D40B
  8
0
 10
3888.036345103891108
 20
159.0385865718862135
 30
0.0
 40
1.1322832015200279
 50
311.3765076557418752
 51
317.9276741988826984
  0
ARC
  5
D40C
  8
0
 10
3888.5531810212451092
 20
158.4518665162802051
 30
0.0
 40
0.3503882027401514
 50
284.0351839184643268
 51
311.3765076557418752
  0
ARC
  5
D40D
  8
0
 10
3888.2909731261761408
 20
159.5007805341726055
 30
0.0
 40
1.4315790264008079
 50
265.133772257761791
 51
284.0351839184643268
  0
ARC
  5
D40E
  8
0
 10
3888.2511803370948655
 20
158.9380212117237932
 30
0.0
 40
0.8675102950162505
 50
255.814566277159912
 51
264.5994962825286052
  0
ARC
  5
D40F
  8
0
 10
3888.325949653274165
 20
161.4653106351055953
 30
0.0
 40
1.380843943809662
 50
25.4863578787850216
 51
37.6473859897153389
  0
ARC
  5
D410
  8
0
 10
3889.162092241938808
 20
162.1103294556085928
 30
0.0
 40
0.3248213553289472
 50
37.6473859897153389
 51
72.9915445745874649
  0
ARC
  5
D411
  8
0
 10
3889.133320512948103
 20
162.0162710181317891
 30
0.0
 40
0.4231819269504159
 50
72.9915445745874649
 51
95.7307223110415606
  0
ARC
  5
D412
  8
0
 10
3889.1004385650930999
 20
162.3439278195012889
 30
0.0
 40
0.093879327540037
 50
95.7307223110415606
 51
153.7244838716798085
  0
ARC
  5
D413
  8
0
 10
3889.777778930311797
 20
162.4944283965677982
 30
0.0
 40
0.7692726611386482
 50
188.1413681904163013
 51
209.7971854343454936
  0
ARC
  5
D414
  8
0
 10
3885.4421153872599461
 20
160.5212011201990094
 30
0.0
 40
3.9982570031648579
 50
13.8622302232056906
 51
23.4476676831900086
  0
ARC
  5
D415
  8
0
 10
3883.627289770346124
 20
160.1116646559254946
 30
0.0
 40
5.8584633319893857
 50
349.2294504561216968
 51
13.4983918261295006
  0
ARC
  5
D416
  8
0
 10
3887.5234462139128482
 20
159.4005831647357923
 30
0.0
 40
1.8982893692119771
 50
322.1127966122548969
 51
348.3376634067917053
  0
ARC
  5
D417
  8
0
 10
3890.2781032101838719
 20
156.9842471769703138
 30
0.0
 40
1.772768407249665
 50
135.1350004503659079
 51
141.9700874362393108
  0
ARC
  5
D418
  8
0
 10
3885.6932510491487847
 20
160.2364110441997127
 30
0.0
 40
4.2861457061509594
 50
3.8499253858774929
 51
25.2023054336739882
  0
ARC
  5
D419
  8
0
 10
3885.7007391435499812
 20
160.056804385856708
 30
0.0
 40
4.2944954244665681
 50
345.8844861729460263
 51
6.248180359569357
  0
ARC
  5
D41A
  8
0
 10
3888.4069244748620804
 20
159.3120016161479953
 30
0.0
 40
1.489684693808119
 50
315.308027281991599
 51
348.2827411466370791
  0
ARC
  5
D41B
  8
0
 10
3889.1024744252858909
 20
158.6238904245738865
 30
0.0
 40
0.5112743782937498
 50
262.6119643811484252
 51
315.308027281991599
  0
ARC
  5
D41C
  8
0
 10
3889.0778016591561936
 20
158.4336095610183008
 30
0.0
 40
0.3194005853360571
 50
244.2437758796374965
 51
262.6119643811484252
  0
ARC
  5
D41D
  8
0
 10
3888.1183573646480909
 20
161.5697809346710017
 30
0.0
 40
1.037996114858035
 50
44.6737506800257265
 51
62.9760462159496086
  0
ARC
  5
D41E
  8
0
 10
3888.2703502977060452
 20
161.6986969012054942
 30
0.0
 40
0.8575437074668064
 50
68.1157885698952583
 51
86.3598407944619453
  0
ARC
  5
D41F
  8
0
 10
3888.3028635872769883
 20
162.2097644254658064
 30
0.0
 40
0.3454430060882952
 50
86.3598407944619453
 51
120.0676647243128059
  0
ARC
  5
D420
  8
0
 10
3888.2163159236952197
 20
162.3592613689075961
 30
0.0
 40
0.1727009030277269
 50
120.0676647243128059
 51
174.8320469288248944
  0
ARC
  5
D421
  8
0
 10
3888.3247966780659226
 20
162.3494500222356862
 30
0.0
 40
0.2816244385575483
 50
174.8320469288248944
 51
212.027697233487288
  0
ARC
  5
D422
  8
0
 10
3884.1562134594428244
 20
160.622976666874905
 30
0.0
 40
4.2344805765332829
 50
11.7726403760782308
 51
21.8666111951246904
  0
ARC
  5
D423
  8
0
 10
3880.9209631592589176
 20
160.0483034885969005
 30
0.0
 40
7.5195590290232692
 50
355.4910168403893067
 51
11.0297216099661899
  0
ARC
  5
D424
  8
0
 10
3885.2860552962729344
 20
159.687084365041386
 30
0.0
 40
3.139625067325956
 50
337.6565002249752183
 51
355.8001186399200151
  0
ARC
  5
D425
  8
0
 10
3887.0064168359990617
 20
159.0321695427020074
 30
0.0
 40
1.300350546323461
 50
320.4060970472900749
 51
335.5293548722063974
  0
ARC
  5
D426
  8
0
 10
3888.0707235200229661
 20
158.1635527085923911
 30
0.0
 40
0.0739383054165557
 50
147.3880171672387007
 51
244.2380365768131867
  0
ARC
  5
D427
  8
0
 10
3888.3343613713559535
 20
162.0311106676820998
 30
0.0
 40
0.4218458504223191
 50
23.5838916147052196
 51
65.519251642383864
  0
ARC
  5
D428
  8
0
 10
3888.3816891053929794
 20
162.135054441283188
 30
0.0
 40
0.3076345441543669
 50
65.519251642383864
 51
111.2114909756280952
  0
ARC
  5
D429
  8
0
 10
3888.3012684436480413
 20
162.3422680140469936
 30
0.0
 40
0.0853623066324896
 50
111.2114909756280952
 51
190.0139939728211118
  0
ARC
  5
D42A
  8
0
 10
3880.0837980545529717
 20
159.4219332759678878
 30
0.0
 40
8.6367941823705454
 50
15.5320308773631801
 51
19.6582124412296118
  0
ARC
  5
D42B
  8
0
 10
3882.3509903859048791
 20
160.1877266004584044
 30
0.0
 40
6.2487033487321231
 50
344.9023128219934051
 51
14.3332945850536309
  0
ARC
  5
D42C
  8
0
 10
3887.2564436828361067
 20
158.945431535936109
 30
0.0
 40
1.191570327343723
 50
323.4568170578770037
 51
341.1352472437091023
  0
ARC
  5
D42D
  8
0
 10
3890.2584505774748322
 20
156.6178951191369038
 30
0.0
 40
2.6074533540754392
 50
141.6440733038461133
 51
143.4618177152902945
  0
ARC
  5
D42E
  8
0
 10
3888.2074607903050492
 20
158.1744393565676035
 30
0.0
 40
0.0440289896752531
 50
185.0790972709648941
 51
266.5615463442733812
  0
ARC
  5
D42F
  8
0
 10
3888.328463088494118
 20
158.6236410498082137
 30
0.0
 40
0.5084151012461027
 50
255.9249290879513978
 51
282.5481826015465003
  0
ARC
  5
D430
  8
0
 10
3888.3693526217348335
 20
158.5699316527029055
 30
0.0
 40
0.4479961474139732
 50
278.9335753992319269
 51
307.766491219295574
  0
ARC
  5
D431
  8
0
 10
3886.2662198136008556
 20
159.8652162425051131
 30
0.0
 40
2.8936409322781742
 50
325.2484202673215918
 51
6.160683243821528
  0
ARC
  5
D432
  8
0
 10
3884.1951272126439108
 20
160.1998307137471897
 30
0.0
 40
4.9480808731245318
 50
359.7211993855287915
 51
23.8415434837902183
  0
ARC
  5
D433
  8
0
 10
3887.6066370130611176
 20
162.068668519779095
 30
0.0
 40
0.4613837856897684
 50
26.8332614054913385
 51
68.9959691632338092
  0
ARC
  5
D434
  8
0
 10
3887.4857884141879367
 20
161.7539133439194927
 30
0.0
 40
0.7985413224286834
 50
68.9959691632338092
 51
93.0070017540974874
  0
ARC
  5
D435
  8
0
 10
3887.4596529233208457
 20
162.2514448872173887
 30
0.0
 40
0.3003237991928334
 50
93.0070017540974874
 51
136.7921338410750991
  0
ARC
  5
D436
  8
0
 10
3887.3779503661698982
 20
162.3281898065220901
 30
0.0
 40
0.1882296847888097
 50
136.7921338410739054
 51
199.6527103457557075
  0
ARC
  5
D437
  8
0
 10
3881.9322250925429216
 20
160.6048744780183881
 30
0.0
 40
5.5237946776138553
 50
7.5653211875209676
 51
17.4888327992746895
  0
ARC
  5
D438
  8
0
 10
3878.9848867424570926
 20
160.1414173031417931
 30
0.0
 40
8.5067943004895596
 50
351.1764605461987117
 51
8.0461390406988027
  0
ARC
  5
D439
  8
0
 10
3885.4978015434858207
 20
159.1663074651843033
 30
0.0
 40
1.921710217566758
 50
332.202561396850399
 51
350.1192186799955834
  0
ARC
  5
D43A
  8
0
 10
3887.3791863678170557
 20
158.144210915240194
 30
0.0
 40
0.2208485405742136
 50
145.2397067459552034
 51
171.2037878327082012
  0
ARC
  5
D43B
  8
0
 10
3887.2578107602121236
 20
158.1854115154227998
 30
0.0
 40
0.0971598031620371
 50
184.3848143115567098
 51
248.0001694492823106
  0
ARC
  5
D43C
  8
0
 10
3887.3982163287410003
 20
158.768411758137006
 30
0.0
 40
0.6959187013678353
 50
255.2823710248561895
 51
273.8171228858802806
  0
ARC
  5
D43D
  8
0
 10
3887.5008812765549919
 20
159.6239249705116094
 30
0.0
 40
1.55091163137167
 50
267.918297982592378
 51
281.7103825584009087
  0
ARC
  5
D43E
  8
0
 10
3887.7096503041470896
 20
158.4859076695333897
 30
0.0
 40
0.395101526100047
 50
285.5639755639523969
 51
339.1415850653194184
  0
ARC
  5
D43F
  8
0
 10
3884.720612105663804
 20
159.8055673944319039
 30
0.0
 40
3.6620223655204551
 50
336.4980974892733911
 51
1.523005872312055
  0
ARC
  5
D440
  8
0
 10
3881.2782453292161335
 20
160.0882500316363917
 30
0.0
 40
7.1055134029960936
 50
358.5052308775914867
 51
14.9754716854215602
  0
ARC
  5
D441
  8
0
 10
3884.8736160099329027
 20
160.9720299881898882
 30
0.0
 40
3.404713129155847
 50
16.2427490755896393
 51
22.5360310235109615
  0
ARC
  5
D442
  8
0
 10
3886.7592186201450204
 20
161.6385313434315947
 30
0.0
 40
1.260395194708704
 50
12.9743240889907891
 51
32.8832468510481917
  0
ARC
  5
D443
  8
0
 10
3887.6010914314929323
 20
162.1828141716217999
 30
0.0
 40
0.2579014902159326
 50
32.8832468510481917
 51
93.6516507830926344
  0
ARC
  5
D444
  8
0
 10
3887.5418725087929488
 20
162.233120513869693
 30
0.0
 40
0.2114470915709166
 50
78.3237017477879078
 51
139.6405490383176868
  0
ARC
  5
D445
  8
0
 10
3893.7857277555722249
 20
163.3054049032641046
 30
0.0
 40
6.4729145823586709
 50
188.3084977552196051
 51
194.028013055935304
  0
ARC
  5
D446
  8
0
 10
3879.8216579074592119
 20
160.1971931346726024
 30
0.0
 40
7.8368355738623459
 50
347.5954612401952204
 51
11.3268693960109896
  0
ARC
  5
D447
  8
0
 10
3886.4067555384149273
 20
158.8096754400905866
 30
0.0
 40
1.1090027490993311
 50
328.9382098630101154
 51
344.5232682817796785
  0
ARC
  5
D448
  8
0
 10
3887.6827658996971877
 20
158.0284925619575063
 30
0.0
 40
0.3872535934450272
 50
147.3405353809733924
 51
154.8716539841909992
  0
ARC
  5
D449
  8
0
 10
3887.3633700691880222
 20
158.1823200914120093
 30
0.0
 40
0.0329647190432928
 50
161.2086331273850988
 51
177.8261143746956918
  0
ARC
  5
D44A
  8
0
 10
3887.3734938994680306
 20
158.1819357940696023
 30
0.0
 40
0.0430958405991166
 50
177.8261143746973971
 51
253.6731464002886867
  0
ARC
  5
D44B
  8
0
 10
3887.493275764360078
 20
158.4669779349534906
 30
0.0
 40
0.3520423054961856
 50
247.9965859989619048
 51
272.5046460678544236
  0
ARC
  5
D44C
  8
0
 10
3887.5327920638069372
 20
158.5507325699942101
 30
0.0
 40
0.4361287740490646
 50
266.8280856665174952
 51
332.5442840448567949
  0
ARC
  5
D44D
  8
0
 10
3885.2281508627070252
 20
159.6517367323963015
 30
0.0
 40
2.9900497811728282
 50
334.184583027369797
 51
357.1781237593451124
  0
ARC
  5
D44E
  8
0
 10
3881.0859807580459346
 20
160.0537755248410008
 30
0.0
 40
7.1497218294832532
 50
355.5941922329344038
 51
15.1431485103157897
  0
ARC
  5
D44F
  8
0
 10
3886.7332432581051762
 20
162.0669350854809068
 30
0.0
 40
0.4719407181633016
 50
37.996804504364242
 51
72.1479234880052331
  0
ARC
  5
D450
  8
0
 10
3886.6230713347022174
 20
161.7248582479390109
 30
0.0
 40
0.8313213179302326
 50
72.1479234880052331
 51
85.1130993125972566
  0
ARC
  5
D451
  8
0
 10
3886.6368417440949088
 20
162.1395258157905914
 30
0.0
 40
0.4175473759460315
 50
82.147165408550066
 51
130.6684673195152016
  0
ARC
  5
D452
  8
0
 10
3886.5296902455129384
 20
162.2968209028140905
 30
0.0
 40
0.2293962740385967
 50
135.9792758184316028
 51
193.2472236106416972
  0
ARC
  5
D453
  8
0
 10
3881.966269108808774
 20
161.2225112501106992
 30
0.0
 40
4.4587754059247464
 50
7.1980012051484499
 51
13.2472236106417594
  0
ARC
  5
D454
  8
0
 10
3872.923425103081172
 20
160.0804548852023004
 30
0.0
 40
13.5734515083735001
 50
355.6179685785701849
 51
7.1980012051484499
  0
ARC
  5
D455
  8
0
 10
3883.0783782484950279
 20
159.3022773075329894
 30
0.0
 40
3.3887259976916262
 50
344.0568900338107028
 51
355.6179685785701849
  0
ARC
  5
D456
  8
0
 10
3885.1407283623898365
 20
158.7131234154761046
 30
0.0
 40
1.243873951323843
 50
337.3697898753634945
 51
344.0568900338107028
  0
ARC
  5
D457
  8
0
 10
3886.3811695555591541
 20
158.1960100438903112
 30
0.0
 40
0.1000384687326338
 50
157.3697898753634945
 51
247.5987261734262006
  0
ARC
  5
D458
  8
0
 10
3886.6538873886879628
 20
159.7186006551002038
 30
0.0
 40
1.6447205483520619
 50
259.1059448444343047
 51
280.8940551555656953
  0
ARC
  5
D459
  8
0
 10
3886.8957812199541877
 20
158.3816307490459963
 30
0.0
 40
0.2865291958687505
 50
283.9237747897615805
 51
329.6284844335788193
  0
ARC
  5
D45A
  8
0
 10
3886.2353885901820831
 20
158.7179770807481987
 30
0.0
 40
1.02728161606087
 50
332.0671020485917211
 51
346.2958949597356764
  0
ARC
  5
D45B
  8
0
 10
3880.5898241664281159
 20
160.1301416350312081
 30
0.0
 40
6.84676853146577
 50
346.0073107483631247
 51
6.58091014187083
  0
ARC
  5
D45C
  8
0
 10
3880.8443934687288674
 20
160.4700227034086879
 30
0.0
 40
6.562178120687423
 50
3.8866314033987339
 51
14.2377809321649291
  0
ARC
  5
D45D
  8
0
 10
3886.4928590987788084
 20
161.9789565511574096
 30
0.0
 40
0.7198453362142029
 50
8.3882753518005782
 51
31.7238768367381105
  0
ARC
  5
D45E
  8
0
 10
3883.8838130211920543
 20
161.1568003582671906
 30
0.0
 40
3.2920157867973669
 50
10.1383934652748007
 51
19.4137666071843888
  0
ARC
  5
D45F
  8
0
 10
3886.7285680135610164
 20
162.1593650789457968
 30
0.0
 40
0.2757653022134729
 50
19.4137666071843888
 51
81.0071481786892349
  0
ARC
  5
D460
  8
0
 10
3886.7008053077961449
 20
161.9839366048971101
 30
0.0
 40
0.4533770060463664
 50
81.0071481786892349
 51
110.889376067816201
  0
ARC
  5
D461
  8
0
 10
3886.6122039486058384
 20
162.2936023778401022
 30
0.0
 40
0.1353256675745621
 50
122.6741059588854057
 51
192.319916467276812
  0
ARC
  5
D462
  8
0
 10
3867.0184020779788625
 20
158.7858388314598983
 30
0.0
 40
19.7700848305152803
 50
8.7179463424201789
 51
10.1349558394102708
  0
ARC
  5
D463
  8
0
 10
3873.8124178602688517
 20
160.1279669814543922
 30
0.0
 40
12.8545650666369404
 50
354.2828687703279797
 51
7.3946997591983008
  0
ARC
  5
D464
  8
0
 10
3883.9550482730342083
 20
159.13532215721429
 30
0.0
 40
2.6635977758603588
 50
339.8658570510430081
 51
353.7951332258134016
  0
ARC
  5
D465
  8
0
 10
3886.5135699296711209
 20
158.1991609967998897
 30
0.0
 40
0.0608404173458011
 50
161.5053684220571881
 51
257.7738109065678032
  0
ARC
  5
D466
  8
0
 10
3886.6628739968327864
 20
158.6608955212753074
 30
0.0
 40
0.5458473395482492
 50
252.7146157587081916
 51
284.4523379849015896
  0
ARC
  5
D467
  8
0
 10
3886.577038654791977
 20
158.6272151080644903
 30
0.0
 40
0.5424323193059301
 50
294.1663571202744833
 51
356.2288801633123967
  0
ARC
  5
D468
  8
0
 10
3878.9114590974818384
 20
160.1799112042766069
 30
0.0
 40
8.3591331190764038
 50
349.0462587095951221
 51
10.7304070823409301
  0
ARC
  5
D469
  8
0
 10
3882.7979061976138837
 20
161.424814200961606
 30
0.0
 40
3.5461984459407478
 50
8.0658267293489452
 51
14.4851015619979293
  0
ARC
  5
D46A
  8
0
 10
3885.8140641647091797
 20
162.0655550106937142
 30
0.0
 40
0.4845604034007222
 50
30.5453810643915702
 51
71.3708048770963046
  0
ARC
  5
D46B
  8
0
 10
3885.7701217941630603
 20
161.7716150069896059
 30
0.0
 40
0.7788916555565688
 50
75.2177388793425479
 51
102.9221773658764931
  0
ARC
  5
D46C
  8
0
 10
3885.665988890042172
 20
162.2466039833628884
 30
0.0
 40
0.292683082711182
 50
103.8471546704057999
 51
158.6217206595215998
  0
ARC
  5
D46D
  8
0
 10
3887.6815298335218358
 20
162.2350323154558112
 30
0.0
 40
2.291139881997641
 50
177.0412526854009911
 51
188.0814076882593895
  0
ARC
  5
D46E
  8
0
 10
3859.7575046964498142
 20
160.0425925350427008
 30
0.0
 40
25.7237237991591314
 50
358.6959244095979216
 51
4.1696097571850581
  0
ARC
  5
D46F
  8
0
 10
3874.5976514638791741
 20
159.6633248124323075
 30
0.0
 40
10.8788680814174192
 50
353.8270979250664823
 51
358.914128628341075
  0
ARC
  5
D470
  8
0
 10
3882.9862520781189232
 20
158.7691938755095862
 30
0.0
 40
2.4427949818111712
 50
348.211298490760214
 51
353.5204810887785811
  0
ARC
  5
D471
  8
0
 10
3885.5126779288989383
 20
158.2305958726828976
 30
0.0
 40
0.140816612029631
 50
163.6978475113654952
 51
243.2266038857218007
  0
ARC
  5
D472
  8
0
 10
3885.7695604484288197
 20
159.7457106524063875
 30
0.0
 40
1.6718079557805181
 50
258.9539388169066001
 51
281.1044526431173836
  0
ARC
  5
D473
  8
0
 10
3885.8643215256602161
 20
158.4890982713781113
 30
0.0
 40
0.4461025376285364
 50
300.6211164878836257
 51
0.1900256263399296
  0
ARC
  5
D474
  8
0
 10
3874.2343157897030324
 20
160.2015618133943065
 30
0.0
 40
12.1967125928091207
 50
351.9358126393310044
 51
8.1109770663837537
  0
ARC
  5
D475
  8
0
 10
3885.460261332078062
 20
161.9985288893321922
 30
0.0
 40
0.6641986227794709
 50
5.23817887484224
 51
33.0177891776175017
  0
ARC
  5
D476
  8
0
 10
3885.7956174162550269
 20
162.1017775261576048
 30
0.0
 40
0.340598409048642
 50
49.4171137559987912
 51
92.1592131674801607
  0
ARC
  5
D477
  8
0
 10
3885.7524802450448078
 20
162.2411352670567908
 30
0.0
 40
0.2032705197234241
 50
81.426082875096867
 51
156.8117522004656905
  0
ARC
  5
D478
  8
0
 10
3891.4836458010991009
 20
162.3729943117699861
 30
0.0
 40
5.9182419720819759
 50
180.5016927598204006
 51
185.7272123728928932
  0
ARC
  5
D479
  8
0
 10
3861.6799233770711908
 20
160.1404057774780085
 30
0.0
 40
23.9713200298884495
 50
356.8346966860406724
 51
3.9277285418500472
  0
ARC
  5
D47A
  8
0
 10
3881.2839766887209407
 20
159.0562773986000877
 30
0.0
 40
4.3373127825668751
 50
349.5557626246699101
 51
356.8346966860406724
  0
ARC
  5
D47B
  8
0
 10
3885.9008269949240457
 20
158.2052415931044891
 30
0.0
 40
0.3573191190984308
 50
169.5557626246699101
 51
179.7008869605164989
  0
ARC
  5
D47C
  8
0
 10
3885.6337641934128442
 20
158.228279692879795
 30
0.0
 40
0.0927017155766933
 50
193.2026687129180118
 51
258.0667016789266768
  0
ARC
  5
D47D
  8
0
 10
3885.7743949772529959
 20
158.6974728166131001
 30
0.0
 40
0.5822492264708358
 50
254.0706900362218903
 51
284.9561837589308197
  0
ARC
  5
D47E
  8
0
 10
3885.8721515976881165
 20
158.3720243990129859
 30
0.0
 40
0.2428219151688861
 50
282.4889181625147785
 51
320.1128112674041972
  0
ARC
  5
D47F
  8
0
 10
3884.4733981465478792
 20
158.8822386469715866
 30
0.0
 40
1.7192787219786421
 50
337.2114476562289838
 51
350.2655258123587032
  0
ARC
  5
D480
  8
0
 10
3873.890054159203828
 20
160.1619517272073949
 30
0.0
 40
12.3778935503404597
 50
352.7111032993753952
 51
8.8167389645373362
  0
ARC
  5
D481
  8
0
 10
3878.3659343976219134
 20
158.1281051017238042
 30
0.0
 40
1.3691103589741731
 50
182.0888729826417887
 51
185.3984633246811882
  0
ARC
  5
D482
  8
0
 10
3877.0828554343438554
 20
158.0068531497302899
 30
0.0
 40
0.080314928400313
 50
185.3984633246828935
 51
253.3607212736114889
  0
ARC
  5
D483
  8
0
 10
3877.1069596543270563
 20
158.2457881870946892
 30
0.0
 40
0.3193792931255733
 50
261.5190899330864909
 51
272.5449433794602783
  0
ARC
  5
D484
  8
0
 10
3877.119126155754202
 20
157.887861646677095
 30
0.0
 40
0.0389144503999907
 50
12.8244493157936699
 51
87.0320166562792252
  0
ARC
  5
D485
  8
0
 10
3891.1079486133821774
 20
161.0658966501071063
 30
0.0
 40
14.30636562148627
 50
192.7993575194539915
 51
192.8699395647873871
  0
ARC
  5
D486
  8
0
 10
3877.1989154482530466
 20
157.8879195398511968
 30
0.0
 40
0.0388942009988734
 50
192.7801162809396089
 51
270.1225199761584008
  0
LINE
  5
D487
  8
0
 10
3877.1989986186540591
 20
157.849025427777093
 30
0.0
 11
3891.6231004035757906
 21
157.8489791548533105
 31
0.0
  0
ARC
  5
D488
  8
0
 10
3882.7559493768258108
 20
157.6485423587415937
 30
0.0
 40
0.2009123387043798
 50
3.3897963305455892
 51
86.2412333452632964
  0
ARC
  5
D489
  8
0
 10
3856.6155869583258209
 20
156.1001903281041052
 30
0.0
 40
26.3870907804193813
 50
3.1514485341530358
 51
3.3897963305455892
  0
ARC
  5
D48A
  8
0
 10
3883.1620319079879664
 20
157.5618027635740077
 30
0.0
 40
0.1995609526773341
 50
183.1514485341529905
 51
270.1191738956117092
  0
ARC
  5
D48B
  8
0
 10
3898.0271461007409926
 20
157.5228062784088081
 30
0.0
 40
6.2262040259609339
 50
174.8847464688886078
 51
175.6108687321010962
  0
ARC
  5
D48C
  8
0
 10
3891.7392430504642107
 20
158.0068531497302899
 30
0.0
 40
0.080314928400313
 50
286.6392787263885111
 51
354.6015366753171065
  0
ARC
  5
D48D
  8
0
 10
3891.7151388304810098
 20
158.2457881870948029
 30
0.0
 40
0.3193792931256541
 50
267.4550566205397217
 51
278.4809100669135091
  0
ARC
  5
D48E
  8
0
 10
3891.7029723290529546
 20
157.8878616466772087
 30
0.0
 40
0.0389144503999837
 50
92.9679833436946836
 51
167.175550684212709
  0
ARC
  5
D48F
  8
0
 10
3877.7141498714249792
 20
161.0658966501071063
 30
0.0
 40
14.30636562148627
 50
347.1300604352126129
 51
347.2006424805459233
  0
ARC
  5
D490
  8
0
 10
3891.6230881171231886
 20
157.8879791189883122
 30
0.0
 40
0.0389999660704159
 50
270.0180503203262106
 51
347.1653704016388815
  0
ARC
  5
D491
  8
0
 10
3886.0661491079808911
 20
157.6485423587415937
 30
0.0
 40
0.2009123387043798
 50
93.7587666547367036
 51
176.6102036694541937
  0
ARC
  5
D492
  8
0
 10
3912.2065115264817905
 20
156.1001903281041052
 30
0.0
 40
26.3870907804193813
 50
176.6102036694541937
 51
176.8485514658486011
  0
ARC
  5
D493
  8
0
 10
3885.6600665768191902
 20
157.5618027635740077
 30
0.0
 40
0.1995609526773341
 50
269.8808261043882908
 51
356.848551465846981
  0
LINE
  5
D494
  8
0
 10
3883.1624469898711141
 20
157.3622422425771958
 30
0.0
 11
3885.659651494955142
 21
157.3622422425771106
 31
0.0
  0
LINE
  5
D495
  8
0
 10
3876.6828407014932054
 20
162.5678178204007907
 30
0.0
 11
3883.9142109871199864
 21
162.5678178226025921
 31
0.0
  0
LINE
  5
D496
  8
0
 10
3884.9078883371871598
 20
162.5678178229051127
 30
0.0
 11
3892.1392577782789886
 21
162.5678178251069994
 31
0.0
  0
ARC
  5
D497
  8
0
 10
3884.0334724457420634
 20
162.9422385380991045
 30
0.0
 40
0.120057454723062
 50
105.9012626356170017
 51
173.19153360580259
  0
ARC
  5
D498
  8
0
 10
3884.404819722350112
 20
161.6387228209792966
 30
0.0
 40
1.4754363776159991
 50
89.7580699408735541
 51
105.9012626356170017
  0
ARC
  5
D499
  8
0
 10
3884.4044246240300708
 20
161.5451530853960946
 30
0.0
 40
1.5690069473470101
 50
74.6017820165661334
 51
89.7580699408735541
  0
ARC
  5
D49A
  8
0
 10
3884.7893808369758517
 20
162.9428976020292907
 30
0.0
 40
0.1192204045539523
 50
5.3931122447252262
 51
74.6017820165661334
  0
LINE
  5
D49B
  8
0
 10
3884.9080734850540466
 20
162.9541029647770927
 30
0.0
 11
3884.9064946700477776
 21
159.6601261538787071
 31
0.0
  0
ARC
  5
D49C
  8
0
 10
3884.2187574229728853
 20
159.63795640175681
 30
0.0
 40
0.688094484008401
 50
348.1199511067775916
 51
1.8463352436186271
  0
ARC
  5
D49D
  8
0
 10
3884.7120028934527909
 20
159.5415319701683075
 30
0.0
 40
0.1857026441484348
 50
294.7363229603213881
 51
345.9034621516001948
  0
ARC
  5
D49E
  8
0
 10
3884.7233751746471171
 20
159.5330849180334951
 30
0.0
 40
0.1734051692363212
 50
273.1628334488382279
 51
292.4908427532507176
  0
LINE
  5
D49F
  8
0
 10
3884.8210369698531395
 20
163.0578384307771103
 30
0.0
 11
3884.8209998241982248
 21
160.4132743388771019
 31
0.0
  0
ARC
  5
D4A0
  8
0
 10
3880.2980991668050592
 20
160.4132743388771019
 30
0.0
 40
4.5229006573933566
 50
354.3176704096865137
 51
0.0
  0
ARC
  5
D4A1
  8
0
 10
3874.4792716816218672
 20
160.9922581455591057
 30
0.0
 40
10.3704621620487991
 50
353.8315049003031163
 51
354.3176704096865137
  0
ARC
  5
D4A2
  8
0
 10
3884.6214825776019097
 20
159.8871807515047863
 30
0.0
 40
0.1684628599369075
 50
312.2496198761988921
 51
356.8501324165067103
  0
ARC
  5
D4A3
  8
0
 10
3884.6641270382688162
 20
159.8685053471573099
 30
0.0
 40
0.1273927130280845
 50
278.1324287022536055
 51
303.6677917086889806
  0
ARC
  5
D4A4
  8
0
 10
3884.5841348533208475
 20
160.5840421093417945
 30
0.0
 40
0.8473361891171597
 50
269.4469807305508766
 51
276.6424058189228958
  0
LINE
  5
D4A5
  8
0
 10
3883.9142616360541069
 20
162.9564714326770911
 30
0.0
 11
3883.9156046542611875
 21
159.6601261538787071
 31
0.0
  0
ARC
  5
D4A6
  8
0
 10
3884.6033419013351704
 20
159.63795640175681
 30
0.0
 40
0.688094484008401
 50
178.1536647563812892
 51
191.8800488932224084
  0
ARC
  5
D4A7
  8
0
 10
3884.1100964308539005
 20
159.5415319701683075
 30
0.0
 40
0.1857026441484369
 50
194.0965378484015105
 51
245.263677039679493
  0
ARC
  5
D4A8
  8
0
 10
3884.0987119394171714
 20
159.5330465729138041
 30
0.0
 40
0.1733650697983142
 50
247.5080379233816927
 51
266.8001094725751727
  0
LINE
  5
D4A9
  8
0
 10
3884.0005790547538709
 20
163.0577020269770969
 30
0.0
 11
3884.0010995001089213
 21
160.4132743388771019
 31
0.0
  0
ARC
  5
D4AA
  8
0
 10
3888.5240001575020869
 20
160.4132743388771019
 30
0.0
 40
4.5229006573933566
 50
180.0
 51
185.682329590313401
  0
ARC
  5
D4AB
  8
0
 10
3894.3428276426861885
 20
160.9922581455591057
 30
0.0
 40
10.3704621620487991
 50
185.682329590313401
 51
186.1684950996969974
  0
ARC
  5
D4AC
  8
0
 10
3884.2006167467061459
 20
159.8871807515047863
 30
0.0
 40
0.1684628599369075
 50
183.1498675834932897
 51
227.7503801238009942
  0
ARC
  5
D4AD
  8
0
 10
3884.1579722860378752
 20
159.8685053471573099
 30
0.0
 40
0.1273927130280845
 50
236.3322082913109909
 51
261.8675712977462808
  0
ARC
  5
D4AE
  8
0
 10
3884.2380254939521365
 20
160.5847622479560073
 30
0.0
 40
0.8480585527200355
 50
263.3591269245611102
 51
270.5484254989041233
  0
LINE
  5
D4AF
  8
0
 10
3884.2461428428541694
 20
159.7367425444770959
 30
0.0
 11
3884.5759564854120072
 21
159.7367453893635911
 31
0.0
  0
ARC
  5
D4B0
  8
0
 10
3884.4110633249079001
 20
165.4313196933985068
 30
0.0
 40
6.0799021757297531
 50
266.9638467156033244
 51
273.0347445467323269
  0
LINE
  5
D4B1
  8
0
 10
3877.1211410649689242
 20
157.9267238981659887
 30
0.0
 11
3891.7009574198377777
 21
157.9267238981659887
 31
0.0
  0
ENDSEC
  0
EOF
