  0
SECTION
  2
HEADER
  9
$ACADVER
  1
AC1009
  9
$INSBASE
 10
5316.3273560033621834
 20
348.9398005932035858
 30
0.0
  9
$EXTMIN
 10
5306.5875925125437789
 20
342.0066148126654753
 30
-0.0015258207003583
  9
$EXTMAX
 10
5326.0917214960718411
 20
348.9550463848675008
 30
0.0000000349246037
  9
$LIMMIN
 10
0.0
 20
0.0
  9
$LIMMAX
 10
11.6929133858000007
 20
8.2677165353999982
  9
$ORTHOMODE
 70
     0
  9
$REGENMODE
 70
     1
  9
$FILLMODE
 70
     1
  9
$QTEXTMODE
 70
     0
  9
$MIRRTEXT
 70
     0
  9
$DRAGMODE
 70
     2
  9
$LTSCALE
 40
0.6431102362
  9
$OSMODE
 70
  4095
  9
$ATTMODE
 70
     1
  9
$TEXTSIZE
 40
0.2
  9
$TRACEWID
 40
0.05
  9
$TEXTSTYLE
  7
STANDARD
  9
$CLAYER
  8
0
  9
$CELTYPE
  6
BYLAYER
  9
$CECOLOR
 62
   256
  9
$DIMSCALE
 40
1.0
  9
$DIMASZ
 40
0.1875
  9
$DIMEXO
 40
0.0625
  9
$DIMDLI
 40
0.4443307087
  9
$DIMRND
 40
0.0
  9
$DIMDLE
 40
0.0
  9
$DIMEXE
 40
0.125
  9
$DIMTP
 40
0.01
  9
$DIMTM
 40
0.01
  9
$DIMTXT
 40
2.0
  9
$DIMCEN
 40
0.1052362205
  9
$DIMTSZ
 40
0.0
  9
$DIMTOL
 70
     1
  9
$DIMLIM
 70
     0
  9
$DIMTIH
 70
     1
  9
$DIMTOH
 70
     1
  9
$DIMSE1
 70
     0
  9
$DIMSE2
 70
     0
  9
$DIMTAD
 70
     0
  9
$DIMZIN
 70
     0
  9
$DIMBLK
  1

  9
$DIMASO
 70
     1
  9
$DIMSHO
 70
     1
  9
$DIMPOST
  1
\X
  9
$DIMAPOST
  1

  9
$DIMALT
 70
     1
  9
$DIMALTD
 70
     2
  9
$DIMALTF
 40
25.3999999999999986
  9
$DIMLFAC
 40
1.0
  9
$DIMTOFL
 70
     0
  9
$DIMTVP
 40
0.0
  9
$DIMTIX
 70
     0
  9
$DIMSOXD
 70
     0
  9
$DIMSAH
 70
     0
  9
$DIMBLK1
  1

  9
$DIMBLK2
  1

  9
$DIMSTYLE
  2
STANDARD
  9
$DIMCLRD
 70
     0
  9
$DIMCLRE
 70
     0
  9
$DIMCLRT
 70
     0
  9
$DIMTFAC
 40
1.0
  9
$DIMGAP
 40
0.09
  9
$LUNITS
 70
     2
  9
$LUPREC
 70
     4
  9
$SKETCHINC
 40
0.1
  9
$FILLETRAD
 40
0.0
  9
$AUNITS
 70
     0
  9
$AUPREC
 70
     0
  9
$MENU
  1
.
  9
$ELEVATION
 40
0.0
  9
$PELEVATION
 40
0.0
  9
$THICKNESS
 40
0.0
  9
$LIMCHECK
 70
     0
  9
$BLIPMODE
 70
     0
  9
$CHAMFERA
 40
0.0
  9
$CHAMFERB
 40
0.0
  9
$SKPOLY
 70
     0
  9
$TDCREATE
 40
2458060.468368056230247
  9
$TDUPDATE
 40
2460894.844189815223217
  9
$TDINDWG
 40
0.5685487269
  9
$TDUSRTIMER
 40
0.5685487269
  9
$USRTIMER
 70
     1
  9
$ANGBASE
 50
0.0
  9
$ANGDIR
 70
     0
  9
$PDMODE
 70
     0
  9
$PDSIZE
 40
0.3125
  9
$PLINEWID
 40
0.0
  9
$COORDS
 70
     1
  9
$SPLFRAME
 70
     0
  9
$SPLINETYPE
 70
     6
  9
$SPLINESEGS
 70
     8
  9
$ATTDIA
 70
     1
  9
$ATTREQ
 70
     1
  9
$HANDLING
 70
     1
  9
$HANDSEED
  5
28764
  9
$SURFTAB1
 70
     6
  9
$SURFTAB2
 70
     6
  9
$SURFTYPE
 70
     6
  9
$SURFU
 70
     6
  9
$SURFV
 70
     6
  9
$UCSNAME
  2

  9
$UCSORG
 10
0.0
 20
0.0
 30
0.0
  9
$UCSXDIR
 10
1.0
 20
0.0
 30
0.0
  9
$UCSYDIR
 10
0.0
 20
1.0
 30
0.0
  9
$PUCSNAME
  2

  9
$PUCSORG
 10
0.0
 20
0.0
 30
0.0
  9
$PUCSXDIR
 10
1.0
 20
0.0
 30
0.0
  9
$PUCSYDIR
 10
0.0
 20
1.0
 30
0.0
  9
$USERI1
 70
     0
  9
$USERI2
 70
     0
  9
$USERI3
 70
     0
  9
$USERI4
 70
     0
  9
$USERI5
 70
     0
  9
$USERR1
 40
0.0
  9
$USERR2
 40
0.0
  9
$USERR3
 40
0.0
  9
$USERR4
 40
0.0
  9
$USERR5
 40
0.0
  9
$WORLDVIEW
 70
     1
  9
$SHADEDGE
 70
     3
  9
$SHADEDIF
 70
    70
  9
$TILEMODE
 70
     1
  9
$MAXACTVP
 70
    64
  9
$PLIMCHECK
 70
     0
  9
$PEXTMIN
 10
1.0000000000000000E+20
 20
1.0000000000000000E+20
 30
1.0000000000000000E+20
  9
$PEXTMAX
 10
-1.0000000000000000E+20
 20
-1.0000000000000000E+20
 30
-1.0000000000000000E+20
  9
$PLIMMIN
 10
0.0
 20
0.0
  9
$PLIMMAX
 10
12.0
 20
9.0
  9
$UNITMODE
 70
     0
  9
$VISRETAIN
 70
     1
  9
$PLINEGEN
 70
     0
  9
$PSLTSCALE
 70
     1
  0
ENDSEC
  0
SECTION
  2
TABLES
  0
TABLE
  2
VPORT
 70
     1
  0
VPORT
  2
*ACTIVE
 70
     0
 10
0.0
 20
0.0
 11
1.0
 21
1.0
 12
915.2012544090830488
 22
96.0584741686235475
 13
0.0
 23
0.0
 14
1.0
 24
1.0
 15
0.0
 25
0.0
 16
0.0
 26
0.0
 36
0.0438225416440575
 17
4401.1384025952247612
 27
249.4223564301429121
 37
0.0
 40
13.6257957043982998
 41
1.436535162950257
 42
50.0
 43
0.0
 44
0.0
 50
0.0
 51
0.0
 71
     0
 72
   100
 73
     1
 74
     1
 75
     0
 76
     0
 77
     0
 78
     0
  0
ENDTAB
  0
TABLE
  2
LTYPE
 70
     2
  0
LTYPE
  2
CONTINUOUS
 70
     0
  3
Solid line
 72
    65
 73
     0
 40
0.0
  0
LTYPE
  2
PHANTOM2
 70
     0
  3
___ _ _ ___ _ _ ___ _ _ ___ _ _
 72
    65
 73
     6
 40
1.25
 49
0.625
 49
-0.125
 49
0.125
 49
-0.125
 49
0.125
 49
-0.125
  0
ENDTAB
  0
TABLE
  2
LAYER
 70
     2
  0
LAYER
  2
0
 70
     0
 62
   255
  6
CONTINUOUS
  0
LAYER
  2
DEFPOINTS
 70
     0
 62
     7
  6
CONTINUOUS
  0
ENDTAB
  0
TABLE
  2
STYLE
 70
     1
  0
STYLE
  2
STANDARD
 70
     0
 40
0.0
 41
0.8
 50
0.0
 71
     0
 42
0.2
  3
txt
  4

  0
ENDTAB
  0
TABLE
  2
VIEW
 70
     0
  0
ENDTAB
  0
TABLE
  2
UCS
 70
     0
  0
ENDTAB
  0
TABLE
  2
APPID
 70
    11
  0
APPID
  2
ACAD
 70
     0
  0
APPID
  2
ACAD_MLEADERVER
 70
     0
  0
APPID
  2
ACAD_EXEMPT_FROM_CAD_STANDARDS
 70
     0
  0
APPID
  2
ACAD_NAV_VCDISPLAY
 70
     0
  0
APPID
  2
ACAECLAYERSTANDARD
 70
     0
  0
APPID
  2
ACCMTRANSPARENCY
 70
     0
  0
APPID
  2
ACAD_DSTYLE_DIMJAG
 70
     0
  0
APPID
  2
ACAD_DSTYLE_DIMTALN
 70
     0
  0
APPID
  2
ACDBATTR
 70
     0
  0
APPID
  2
ACADANNOTATIVE
 70
     0
  0
APPID
  2
DCO15
 70
     0
  0
ENDTAB
  0
TABLE
  2
DIMSTYLE
 70
     1
  0
DIMSTYLE
  2
STANDARD
 70
     0
  3

  4

  5

  6

  7

 40
1.0
 41
0.1875
 42
0.0625
 43
0.38
 44
0.125
 45
0.0
 46
0.0
 47
0.01
 48
0.01
140
0.15625
141
0.09
142
0.0
143
25.3999999999999986
144
1.0
145
0.0
146
1.0
147
0.09
 71
     1
 72
     0
 73
     1
 74
     1
 75
     0
 76
     0
 77
     0
 78
     4
170
     0
171
     2
172
     0
173
     0
174
     0
175
     0
176
     0
177
     0
178
     0
  0
ENDTAB
  0
ENDSEC
  0
SECTION
  2
BLOCKS
  0
BLOCK
  8
0
  2
$MODEL_SPACE
 70
     0
 10
0.0
 20
0.0
 30
0.0
  3
$MODEL_SPACE
  1

  0
ENDBLK
  5
21
  8
0
  0
BLOCK
 67
     1
  8
0
  2
$PAPER_SPACE
 70
     0
 10
0.0
 20
0.0
 30
0.0
  3
$PAPER_SPACE
  1

  0
ENDBLK
  5
1D
 67
     1
  8
0
  0
ENDSEC
  0
SECTION
  2
ENTITIES
  0
ATTDEF
  5
1C5FC
  8
0
 10
5316.3235766229909132
 20
348.943396634520127
 30
0.0
 40
0.001
  1
P74233-WO
  3

  2
MODELNUMBER
 70
     0
1001
ACDBATTR
1070
     0
1070
     1
  0
ATTDEF
  5
1C5FD
  8
0
 10
5316.3234508133346026
 20
348.9417297941408833
 30
0.0
 40
0.001
  1
KALLISTA
  3

  2
BRANDNAME
 70
     0
1001
ACDBATTR
1070
     0
1070
     1
  0
ATTDEF
  5
1C5FE
  8
0
 10
5316.3235766229909132
 20
348.9400633011867967
 30
0.0
 40
0.001
  1
BATHROOM SINK
  3

  2
PRODUCT
 70
     0
1001
ACDBATTR
1070
     0
1070
     1
  0
ARC
  5
285BA
  8
0
 10
5325.8052893975109328
 20
348.8216903570036038
 30
0.0
 40
0.1181102361999988
 50
0.9999999999989599
 51
90.0
  0
ARC
  5
285BB
  8
0
 10
2293.1563527772118505
 20
295.8866062638157928
 30
0.0
 40
3033.2290043368730039
 50
0.9937102588747762
 51
0.9999999999989599
  0
ARC
  5
285BC
  8
0
 10
5325.8091746358113596
 20
348.4908242153035758
 30
0.0
 40
0.1199999999999992
 50
270.0
 51
0.0
  0
ARC
  5
285BD
  8
0
 10
5325.4184944723283479
 20
348.1206306083976756
 30
0.0
 40
0.2501936664001226
 50
90.0395127141815266
 51
166.1969519620170956
  0
ARC
  5
285BE
  8
0
 10
5319.8142694908274279
 20
349.2870663399277191
 30
0.0
 40
5.4742992231526939
 50
314.1838976721796257
 51
348.3360719294781234
  0
ARC
  5
285BF
  8
0
 10
5319.0959193271437471
 20
350.5895372263742047
 30
0.0
 40
6.9201215144353379
 50
275.3936176225034842
 51
310.9312419837759194
  0
ARC
  5
285C0
  8
0
 10
5317.9340682178026327
 20
357.2329704810359772
 30
0.0
 40
13.6537292786497293
 50
270.342129137442214
 51
277.627653016527006
  0
ARC
  5
285C1
  8
0
 10
5318.0407139666631338
 20
343.3278921321344228
 30
0.0
 40
0.2528430222677374
 50
95.7008399349611523
 51
174.666696068648605
  0
LINE
  5
285C2
  8
0
 10
5317.7889655427106845
 20
343.3513937267035772
 30
0.0
 11
5317.6923218844322037
 21
342.2467516575035802
 31
0.0
  0
ARC
  5
285C3
  8
0
 10
5317.44327320991124
 20
342.2685405932036247
 30
0.0
 40
0.2500000000000007
 50
270.0
 51
354.9999999969908231
  0
LINE
  5
285C4
  8
0
 10
5317.44327320991124
 20
342.0185405932036247
 30
0.0
 11
5315.2114387969113523
 21
342.0185405932036247
 31
0.0
  0
ARC
  5
285C5
  8
0
 10
5315.2114387969431846
 20
342.2685405933235074
 30
0.0
 40
0.2500000001198926
 50
185.0000000281858092
 51
269.9999999927567274
  0
LINE
  5
285C6
  8
0
 10
5314.9623901223112625
 20
342.2467516575035802
 30
0.0
 11
5314.8657464640109538
 21
343.3513937267035772
 31
0.0
  0
ARC
  5
285C7
  8
0
 10
5314.6170896646181063
 20
343.3296390756499932
 30
0.0
 40
0.2496066279710845
 50
4.9999999995473381
 51
86.4832215881535262
  0
ARC
  5
285C8
  8
0
 10
5314.6712904651540157
 20
356.1639146466230841
 30
0.0
 40
12.5851990696874605
 50
258.4965306246834871
 51
269.8229491224029744
  0
ARC
  5
285C9
  8
0
 10
5313.0187655917770826
 20
349.4965556567004228
 30
0.0
 40
5.7295387524290069
 50
208.7819091333880124
 51
261.3945538869298275
  0
ARC
  5
285CA
  8
0
 10
5313.9284499120831242
 20
349.6816430849411859
 30
0.0
 40
6.6216997946298761
 50
193.1055905527630046
 51
206.3950507844367053
  0
ARC
  5
285CB
  8
0
 10
5307.2362157869129078
 20
348.120624575985687
 30
0.0
 40
0.2501996585984709
 50
13.7743743695448302
 51
89.9775066234917915
  0
ARC
  5
285CC
  8
0
 10
5306.8455373709111882
 20
348.4908242153035758
 30
0.0
 40
0.120000000000001
 50
180.0
 51
270.0000000015633077
  0
LINE
  5
285CD
  8
0
 10
5306.7255373709122068
 20
348.4908242153035758
 30
0.0
 11
5306.7313303618111604
 21
348.8237516648035808
 31
0.0
  0
ARC
  5
285CE
  8
0
 10
5306.8494226091816017
 20
348.8216903570728959
 30
0.0
 40
0.1181102361306801
 50
89.9999999862428837
 51
179.0000000556375142
  0
LINE
  5
285CF
  8
0
 10
5306.8494226092116151
 20
348.9398005932035858
 30
0.0
 11
5325.8052893975109328
 21
348.9398005932035858
 31
0.0
  0
LINE
  5
285D0
  8
0
 10
5306.8455373709139167
 20
348.3708242153036281
 30
0.0
 11
5325.8091746358113596
 21
348.3708242153036281
 31
0.0
  0
LINE
  5
285D1
  8
0
 10
5314.6324007421608258
 20
343.5787756639535928
 30
0.0
 11
5318.0155979727123849
 21
343.5794846216036262
 31
0.0
  0
ENDSEC
  0
EOF
