  0
SECTION
  2
HEADER
  9
$ACADVER
  1
AC1009
  9
$INSBASE
 10
6090.285213599693634
 20
1013.1392410344089967
 30
0.0
  9
$EXTMIN
 10
6076.3123168210368021
 20
1013.1292994380660275
 30
-0.0000000349181948
  9
$EXTMAX
 10
6104.2566582923236638
 20
1047.0824233156429273
 30
0.0000000814935746
  9
$LIMMIN
 10
0.0
 20
0.0
  9
$LIMMAX
 10
11.6929133858000007
 20
8.2677165353999982
  9
$ORTHOMODE
 70
     0
  9
$REGENMODE
 70
     1
  9
$FILLMODE
 70
     1
  9
$QTEXTMODE
 70
     0
  9
$MIRRTEXT
 70
     0
  9
$DRAGMODE
 70
     2
  9
$LTSCALE
 40
0.6431102362
  9
$OSMODE
 70
  2047
  9
$ATTMODE
 70
     1
  9
$TEXTSIZE
 40
0.2
  9
$TRACEWID
 40
0.05
  9
$TEXTSTYLE
  7
STANDARD
  9
$CLAYER
  8
0
  9
$CELTYPE
  6
BYLAYER
  9
$CECOLOR
 62
   256
  9
$DIMSCALE
 40
1.0
  9
$DIMASZ
 40
0.1875
  9
$DIMEXO
 40
0.0625
  9
$DIMDLI
 40
0.4443307087
  9
$DIMRND
 40
0.0
  9
$DIMDLE
 40
0.0
  9
$DIMEXE
 40
0.125
  9
$DIMTP
 40
0.01
  9
$DIMTM
 40
0.01
  9
$DIMTXT
 40
2.0
  9
$DIMCEN
 40
0.1052362205
  9
$DIMTSZ
 40
0.0
  9
$DIMTOL
 70
     1
  9
$DIMLIM
 70
     0
  9
$DIMTIH
 70
     1
  9
$DIMTOH
 70
     1
  9
$DIMSE1
 70
     0
  9
$DIMSE2
 70
     0
  9
$DIMTAD
 70
     0
  9
$DIMZIN
 70
     0
  9
$DIMBLK
  1

  9
$DIMASO
 70
     1
  9
$DIMSHO
 70
     1
  9
$DIMPOST
  1
\X
  9
$DIMAPOST
  1

  9
$DIMALT
 70
     1
  9
$DIMALTD
 70
     2
  9
$DIMALTF
 40
25.3999999999999986
  9
$DIMLFAC
 40
1.0
  9
$DIMTOFL
 70
     0
  9
$DIMTVP
 40
0.0
  9
$DIMTIX
 70
     0
  9
$DIMSOXD
 70
     0
  9
$DIMSAH
 70
     0
  9
$DIMBLK1
  1

  9
$DIMBLK2
  1

  9
$DIMSTYLE
  2
STANDARD
  9
$DIMCLRD
 70
     0
  9
$DIMCLRE
 70
     0
  9
$DIMCLRT
 70
     0
  9
$DIMTFAC
 40
1.0
  9
$DIMGAP
 40
0.09
  9
$LUNITS
 70
     2
  9
$LUPREC
 70
     4
  9
$SKETCHINC
 40
0.1
  9
$FILLETRAD
 40
0.0
  9
$AUNITS
 70
     0
  9
$AUPREC
 70
     0
  9
$MENU
  1
.
  9
$ELEVATION
 40
0.0
  9
$PELEVATION
 40
0.0
  9
$THICKNESS
 40
0.0
  9
$LIMCHECK
 70
     0
  9
$BLIPMODE
 70
     0
  9
$CHAMFERA
 40
0.0
  9
$CHAMFERB
 40
0.0
  9
$SKPOLY
 70
     0
  9
$TDCREATE
 40
2458060.468368056230247
  9
$TDUPDATE
 40
2460899.2901504631154239
  9
$TDINDWG
 40
1.5393983795999999
  9
$TDUSRTIMER
 40
1.5393983795999999
  9
$USRTIMER
 70
     1
  9
$ANGBASE
 50
0.0
  9
$ANGDIR
 70
     0
  9
$PDMODE
 70
     0
  9
$PDSIZE
 40
0.3125
  9
$PLINEWID
 40
0.0
  9
$COORDS
 70
     1
  9
$SPLFRAME
 70
     0
  9
$SPLINETYPE
 70
     6
  9
$SPLINESEGS
 70
     8
  9
$ATTDIA
 70
     1
  9
$ATTREQ
 70
     1
  9
$HANDLING
 70
     1
  9
$HANDSEED
  5
20D75
  9
$SURFTAB1
 70
     6
  9
$SURFTAB2
 70
     6
  9
$SURFTYPE
 70
     6
  9
$SURFU
 70
     6
  9
$SURFV
 70
     6
  9
$UCSNAME
  2

  9
$UCSORG
 10
0.0
 20
0.0
 30
0.0
  9
$UCSXDIR
 10
1.0
 20
0.0
 30
0.0
  9
$UCSYDIR
 10
0.0
 20
1.0
 30
0.0
  9
$PUCSNAME
  2

  9
$PUCSORG
 10
0.0
 20
0.0
 30
0.0
  9
$PUCSXDIR
 10
1.0
 20
0.0
 30
0.0
  9
$PUCSYDIR
 10
0.0
 20
1.0
 30
0.0
  9
$USERI1
 70
     0
  9
$USERI2
 70
     0
  9
$USERI3
 70
     0
  9
$USERI4
 70
     0
  9
$USERI5
 70
     0
  9
$USERR1
 40
0.0
  9
$USERR2
 40
0.0
  9
$USERR3
 40
0.0
  9
$USERR4
 40
0.0
  9
$USERR5
 40
0.0
  9
$WORLDVIEW
 70
     1
  9
$SHADEDGE
 70
     3
  9
$SHADEDIF
 70
    70
  9
$TILEMODE
 70
     1
  9
$MAXACTVP
 70
    64
  9
$PLIMCHECK
 70
     0
  9
$PEXTMIN
 10
1.0000000000000000E+20
 20
1.0000000000000000E+20
 30
1.0000000000000000E+20
  9
$PEXTMAX
 10
-1.0000000000000000E+20
 20
-1.0000000000000000E+20
 30
-1.0000000000000000E+20
  9
$PLIMMIN
 10
0.0
 20
0.0
  9
$PLIMMAX
 10
12.0
 20
9.0
  9
$UNITMODE
 70
     0
  9
$VISRETAIN
 70
     1
  9
$PLINEGEN
 70
     0
  9
$PSLTSCALE
 70
     1
  0
ENDSEC
  0
SECTION
  2
TABLES
  0
TABLE
  2
VPORT
 70
     1
  0
VPORT
  2
*ACTIVE
 70
     0
 10
0.0
 20
0.0
 11
1.0
 21
1.0
 12
2178.9191311113681877
 22
897.5262562743155286
 13
0.0
 23
0.0
 14
1.0
 24
1.0
 15
0.0
 25
0.0
 16
0.0
 26
0.0
 36
60.4960186965801583
 17
3911.3653564453120453
 27
132.5796051025390057
 37
0.0
 40
34.1948804985745127
 41
2.2182448036951499
 42
50.0
 43
0.0
 44
0.0
 50
0.0
 51
0.0
 71
     0
 72
   100
 73
     1
 74
     1
 75
     0
 76
     0
 77
     0
 78
     0
  0
ENDTAB
  0
TABLE
  2
LTYPE
 70
     2
  0
LTYPE
  2
CONTINUOUS
 70
     0
  3
Solid line
 72
    65
 73
     0
 40
0.0
  0
LTYPE
  2
PHANTOM2
 70
     0
  3
___ _ _ ___ _ _ ___ _ _ ___ _ _
 72
    65
 73
     6
 40
1.25
 49
0.625
 49
-0.125
 49
0.125
 49
-0.125
 49
0.125
 49
-0.125
  0
ENDTAB
  0
TABLE
  2
LAYER
 70
     2
  0
LAYER
  2
0
 70
     0
 62
   255
  6
CONTINUOUS
  0
LAYER
  2
DEFPOINTS
 70
     0
 62
     7
  6
CONTINUOUS
  0
ENDTAB
  0
TABLE
  2
STYLE
 70
     1
  0
STYLE
  2
STANDARD
 70
     0
 40
0.0
 41
0.8
 50
0.0
 71
     0
 42
0.2
  3
txt
  4

  0
ENDTAB
  0
TABLE
  2
VIEW
 70
     0
  0
ENDTAB
  0
TABLE
  2
UCS
 70
     0
  0
ENDTAB
  0
TABLE
  2
APPID
 70
    11
  0
APPID
  2
ACAD
 70
     0
  0
APPID
  2
ACAD_MLEADERVER
 70
     0
  0
APPID
  2
ACAD_EXEMPT_FROM_CAD_STANDARDS
 70
     0
  0
APPID
  2
ACAD_NAV_VCDISPLAY
 70
     0
  0
APPID
  2
ACAECLAYERSTANDARD
 70
     0
  0
APPID
  2
ACCMTRANSPARENCY
 70
     0
  0
APPID
  2
ACAD_DSTYLE_DIMJAG
 70
     0
  0
APPID
  2
ACAD_DSTYLE_DIMTALN
 70
     0
  0
APPID
  2
ACDBATTR
 70
     0
  0
APPID
  2
ACADANNOTATIVE
 70
     0
  0
APPID
  2
DCO15
 70
     0
  0
ENDTAB
  0
TABLE
  2
DIMSTYLE
 70
     1
  0
DIMSTYLE
  2
STANDARD
 70
     0
  3

  4

  5

  6

  7

 40
1.0
 41
0.1875
 42
0.0625
 43
0.38
 44
0.125
 45
0.0
 46
0.0
 47
0.01
 48
0.01
140
0.15625
141
0.09
142
0.0
143
25.3999999999999986
144
1.0
145
0.0
146
1.0
147
0.09
 71
     1
 72
     0
 73
     1
 74
     1
 75
     0
 76
     0
 77
     0
 78
     4
170
     0
171
     2
172
     0
173
     0
174
     0
175
     0
176
     0
177
     0
178
     0
  0
ENDTAB
  0
ENDSEC
  0
SECTION
  2
BLOCKS
  0
BLOCK
  8
0
  2
$MODEL_SPACE
 70
     0
 10
0.0
 20
0.0
 30
0.0
  3
$MODEL_SPACE
  1

  0
ENDBLK
  5
21
  8
0
  0
BLOCK
 67
     1
  8
0
  2
$PAPER_SPACE
 70
     0
 10
0.0
 20
0.0
 30
0.0
  3
$PAPER_SPACE
  1

  0
ENDBLK
  5
1D
 67
     1
  8
0
  0
BLOCK
  8
0
  2
_FILLED
 70
     0
 10
0.0
 20
0.0
 30
0.0
  3
_FILLED
  1

  0
SOLID
  5
1FCD6
  8
0
  6
BYBLOCK
 62
     0
 10
0.0
 20
0.0
 30
0.0
 11
-1.0
 21
0.1666666667
 31
0.0
 12
-1.0
 22
-0.1666666667
 32
0.0
 13
-1.0
 23
-0.1666666667
 33
0.0
  0
ENDBLK
  5
1FCD7
  8
0
  6
BYBLOCK
 62
     0
  0
ENDSEC
  0
SECTION
  2
ENTITIES
  0
ATTDEF
  5
20569
  8
DEFPOINTS
 10
6090.2818035935024454
 20
1013.14281779387602
 30
0.0
 40
0.001
  1
P74242-CP
  3

  2
MODELNUMBER
 70
     0
1001
ACDBATTR
1070
     0
1070
     1
  0
ATTDEF
  5
2056A
  8
DEFPOINTS
 10
6090.2818035935024454
 20
1013.1411509534970037
 30
0.0
 40
0.001
  1
KALLISTA
  3

  2
BRANDNAME
 70
     0
1001
ACDBATTR
1070
     0
1070
     1
  0
ATTDEF
  5
2056B
  8
DEFPOINTS
 10
6090.2818035935024454
 20
1013.1394844605430308
 30
0.0
 40
0.001
  1
TABLE LEGS
  3

  2
PRODUCT
 70
     0
1001
ACDBATTR
1070
     0
1070
     1
  0
LINE
  5
20C0F
  8
0
 10
6078.0892135996946308
 20
1013.1392410344089967
 30
0.0
 11
6078.2292135996949582
 21
1013.1392410344089967
 31
0.0
  0
LINE
  5
20C10
  8
0
 10
6078.274213599695031
 20
1013.3261307982089647
 30
0.0
 11
6078.0442135996945581
 21
1013.3261307982089647
 31
0.0
  0
LINE
  5
20C11
  8
0
 10
6078.0442135996945581
 20
1013.4442410344089467
 30
0.0
 11
6078.274213599695031
 21
1013.4442410344089467
 31
0.0
  0
LINE
  5
20C12
  8
0
 10
6077.7797892159387629
 20
1013.5992410256319545
 30
0.0
 11
6078.5386404672954086
 21
1013.5992410344090331
 31
0.0
  0
LINE
  5
20C13
  8
0
 10
6076.5843673401959677
 20
1045.9944312179090957
 30
0.0
 11
6076.8679586808948443
 21
1046.2780225586091092
 31
0.0
  0
LINE
  5
20C14
  8
0
 10
6077.5304985207949358
 20
1017.9492410344090558
 30
0.0
 11
6078.787928678480057
 21
1017.9492410344090558
 31
0.0
  0
LINE
  5
20C15
  8
0
 10
6078.0892135996946308
 20
1013.1392410344089967
 30
0.0
 11
6078.0442135996945581
 21
1013.1842410344089558
 31
0.0
  0
LINE
  5
20C16
  8
0
 10
6078.0442135996945581
 20
1013.5692410344089467
 30
0.0
 11
6078.0442135996945581
 21
1013.4442410344089467
 31
0.0
  0
LINE
  5
20C17
  8
0
 10
6078.0442135996945581
 20
1013.3261307982089647
 30
0.0
 11
6078.0442135996945581
 21
1013.1842410344089558
 31
0.0
  0
LINE
  5
20C18
  8
0
 10
6078.0637135996948928
 20
1013.4442410344089467
 30
0.0
 11
6078.0637135996948928
 21
1013.3261307982089647
 31
0.0
  0
LINE
  5
20C19
  8
0
 10
6078.2547135996946963
 20
1013.4442410344089467
 30
0.0
 11
6078.2547135996946963
 21
1013.3261307982089647
 31
0.0
  0
LINE
  5
20C1A
  8
0
 10
6078.274213599695031
 20
1013.5692410344089467
 30
0.0
 11
6078.274213599695031
 21
1013.4442410344089467
 31
0.0
  0
LINE
  5
20C1B
  8
0
 10
6078.274213599695031
 20
1013.3261307982089647
 30
0.0
 11
6078.274213599695031
 21
1013.1842410344089558
 31
0.0
  0
LINE
  5
20C1C
  8
0
 10
6078.2292135996949582
 20
1013.1392410344089967
 30
0.0
 11
6078.274213599695031
 21
1013.1842410344089558
 31
0.0
  0
LINE
  5
20C1D
  8
0
 10
6079.734059859095396
 20
1045.9944312179090957
 30
0.0
 11
6079.4504685184938353
 21
1046.2780225586091092
 31
0.0
  0
LINE
  5
20C1E
  8
0
 10
6076.896544232395172
 20
1045.2662410345089938
 30
0.0
 11
6079.4218829669944171
 21
1045.2662410345089938
 31
0.0
  0
LINE
  5
20C1F
  8
0
 10
6079.4218804221945902
 20
1046.2898630817089725
 30
0.0
 11
6076.8965467770958639
 21
1046.2898630817089725
 31
0.0
  0
ARC
  5
20C20
  8
0
 10
6076.896544232395172
 20
1045.3066671091089574
 30
0.0
 40
0.0404260746
 50
224.9999999994012114
 51
270.0
  0
ARC
  5
20C21
  8
0
 10
6076.8965442330645601
 20
1046.2494370060060191
 30
0.0
 40
0.0404260757826678
 50
89.9963943522957521
 51
134.9999996667652056
  0
ARC
  5
20C22
  8
0
 10
6079.421882966325029
 20
1046.2494370060060191
 30
0.0
 40
0.0404260757827108
 50
45.0000003332348015
 51
90.0036057893919264
  0
ARC
  5
20C23
  8
0
 10
6078.7879286784946089
 20
1017.979690634409053
 30
0.0
 40
0.0304496
 50
270.0
 51
359.4999999911950113
  0
ARC
  5
20C24
  8
0
 10
6077.5304985207949358
 20
1017.979690634409053
 30
0.0
 40
0.0304496
 50
180.5000000087983949
 51
270.0
  0
ARC
  5
20C25
  8
0
 10
6077.7797903844948451
 20
1013.6292410309090428
 30
0.0
 40
0.0300000053
 50
181.0202263973968115
 51
269.9977682229210814
  0
ARC
  5
20C26
  8
0
 10
6078.0142135996939032
 20
1013.5692410344089467
 30
0.0
 40
0.03
 50
0.0
 51
90.0
  0
ARC
  5
20C27
  8
0
 10
6078.3042135996947763
 20
1013.5692410344089467
 30
0.0
 40
0.03
 50
90.0
 51
180.0
  0
ARC
  5
20C28
  8
0
 10
6078.7604912909919221
 20
1017.9342441327120241
 30
0.0
 40
0.0149969019854496
 50
3.0077213023023281
 51
90.0112334289074312
  0
ARC
  5
20C29
  8
0
 10
6077.5579011237296072
 20
1017.9342808001530329
 30
0.0
 40
0.0149602818207175
 50
89.8555189128529292
 51
177.125526188348914
  0
ARC
  5
20C2A
  8
0
 10
6077.3623265955839088
 20
1017.9377886203900516
 30
0.0
 40
0.1806541172214519
 50
298.5387788588373041
 51
359.1253754284812771
  0
ARC
  5
20C2B
  8
0
 10
6077.4563006480957483
 20
1017.7660174661630208
 30
0.0
 40
0.0151502030338522
 50
120.3974145312949986
 51
198.2888080592454969
  0
ARC
  5
20C2C
  8
0
 10
6075.0959910614647015
 20
1016.8938164525850425
 30
0.0
 40
2.5011650201230369
 50
5.5736118502422922
 51
20.2927572253878097
  0
ARC
  5
20C2D
  8
0
 10
6041.1013534423045712
 20
1013.8816044438329982
 30
0.0
 40
36.6289031243417966
 50
1.8390877367364531
 51
5.0984859260813256
  0
ARC
  5
20C2E
  8
0
 10
6205.0085012122872286
 20
1017.7650669044020333
 30
0.0
 40
127.3259115294382013
 50
181.2186483188851014
 51
181.8616609591718998
  0
ARC
  5
20C2F
  8
0
 10
6078.1879297172863517
 20
1044.3335183150120429
 30
0.0
 40
2.3086887984818132
 50
133.9935273488825089
 51
138.1799108401949923
  0
ARC
  5
20C30
  8
0
 10
6076.5288554346288947
 20
1045.783197029584926
 30
0.0
 40
0.1024270074350074
 50
149.5284189194103988
 51
177.3714982776943998
  0
ARC
  5
20C31
  8
0
 10
6076.529122676294719
 20
1045.7844942482329316
 30
0.0
 40
0.1027325714182901
 50
183.0559199093983977
 51
212.0614171974480939
  0
ARC
  5
20C32
  8
0
 10
6077.0593348252323267
 20
1046.1184638013498898
 30
0.0
 40
0.7293586427358365
 50
212.1856081846142956
 51
225.2630940423161974
  0
ARC
  5
20C33
  8
0
 10
6044.848845645215988
 20
1013.6107959922869668
 30
0.0
 40
45.0337714905970827
 50
44.6834799180298887
 51
45.26309404231624
  0
ARC
  5
20C34
  8
0
 10
6076.7052300887853562
 20
1045.6757580358830637
 30
0.0
 40
0.308940564511696
 50
140.3389445696045073
 51
148.9427126917420026
  0
ARC
  5
20C35
  8
0
 10
6076.9279761819097985
 20
1045.2462409851029861
 30
0.0
 40
0.0200000494060243
 50
90.0002123268461389
 51
224.5856250341977898
  0
ARC
  5
20C36
  8
0
 10
6076.2398649070537431
 20
1044.5680093746921102
 30
0.0
 40
0.9461755267427472
 50
7.1691260295550849
 51
44.5857185095086592
  0
ARC
  5
20C37
  8
0
 10
6065.5116742779691776
 20
1043.2185964913469434
 30
0.0
 40
11.7588990182459803
 50
1.56385827726917
 51
7.1691260295550849
  0
ARC
  5
20C38
  8
0
 10
-9050.8533031391707482
 20
892.3468412389523792
 30
0.0
 40
15128.8749986886105035
 50
0.475798732392279
 51
0.5726034483279765
  0
ARC
  5
20C39
  8
0
 10
6079.4218829669944171
 20
1045.3066671091089574
 30
0.0
 40
0.0404260746
 50
270.0
 51
315.0000000005987886
  0
ARC
  5
20C3A
  8
0
 10
6078.5386368297486115
 20
1013.6292410245220026
 30
0.0
 40
0.0299999903339675
 50
270.006947202085712
 51
358.9797852929580131
  0
ARC
  5
20C3B
  8
0
 10
6078.9561006038047708
 20
1017.9377886203900516
 30
0.0
 40
0.1806541172214519
 50
180.8746245715121006
 51
241.4612211411626106
  0
ARC
  5
20C3C
  8
0
 10
6078.8621265512920218
 20
1017.7660174661630208
 30
0.0
 40
0.0151502030338522
 50
341.7111919407544178
 51
59.6025854687082202
  0
ARC
  5
20C3D
  8
0
 10
6081.2224361379248876
 20
1016.8938164525850425
 30
0.0
 40
2.5011650201230369
 50
159.7072427746122116
 51
174.4263881497577131
  0
ARC
  5
20C3E
  8
0
 10
6115.2170737570831989
 20
1013.8816044438329982
 30
0.0
 40
36.6289031243417966
 50
174.9015140739122103
 51
178.1609122632700064
  0
ARC
  5
20C3F
  8
0
 10
5951.3099259871041795
 20
1017.7650669044020333
 30
0.0
 40
127.3259115294382013
 50
358.1383390408281002
 51
358.781351681114927
  0
ARC
  5
20C40
  8
0
 10
6078.1304974821032374
 20
1044.3335183150120429
 30
0.0
 40
2.3086887984818132
 50
41.8200891598049509
 51
46.0064726511174769
  0
ARC
  5
20C41
  8
0
 10
6079.789167869668745
 20
1045.7845574280870551
 30
0.0
 40
0.1028819217942631
 50
327.9491617350827823
 51
356.9132845589236922
  0
ARC
  5
20C42
  8
0
 10
6079.2590923741572624
 20
1046.1184638013498898
 30
0.0
 40
0.7293586427358365
 50
314.7369059576836889
 51
327.8143918153855907
  0
ARC
  5
20C43
  8
0
 10
6111.46958155417542
 20
1013.6107959922869668
 30
0.0
 40
45.0337714905970827
 50
134.7369059576836889
 51
135.3165200819701113
  0
ARC
  5
20C44
  8
0
 10
6079.7355496091686291
 20
1045.765096968573971
 30
0.0
 40
0.1580042068935678
 50
8.2957740975053582
 51
43.0407381403152911
  0
ARC
  5
20C45
  8
0
 10
6079.3904599422230604
 20
1045.2462447197010533
 30
0.0
 40
0.0199963167670504
 50
315.3888027859601948
 51
90.0253598529902632
  0
ARC
  5
20C46
  8
0
 10
6080.0785622923349365
 20
1044.5680093746921102
 30
0.0
 40
0.9461755267427472
 50
135.4142814904913052
 51
172.8308739704449124
  0
ARC
  5
20C47
  8
0
 10
6090.8067529214204114
 20
1043.2185964913469434
 30
0.0
 40
11.7588990182459803
 50
172.8308739704449124
 51
178.4361417227308095
  0
ARC
  5
20C48
  8
0
 10
21207.1717303385594278
 20
892.3468412389523792
 30
0.0
 40
15128.8749986886105035
 50
179.4273965516719898
 51
179.5242012676077081
  0
LINE
  5
20C49
  8
0
 10
6076.951718520895156
 20
1046.6452410344090822
 30
0.0
 11
6076.951718520895156
 21
1046.2898630817089725
 31
0.0
  0
LINE
  5
20C4A
  8
0
 10
6079.3667088387946933
 20
1046.6452410344090822
 30
0.0
 11
6079.3667088387946933
 21
1046.2898630817089725
 31
0.0
  0
LINE
  5
20C4B
  8
0
 10
6079.3467088387951662
 20
1046.665241034409064
 30
0.0
 11
6076.9717185208937735
 21
1046.665241034409064
 31
0.0
  0
LINE
  5
20C4C
  8
0
 10
6078.3092183605949685
 20
1047.0652410344089276
 30
0.0
 11
6078.0092183605947866
 21
1047.0652410344089276
 31
0.0
  0
LINE
  5
20C4D
  8
0
 10
6078.3492088387947661
 20
1047.025241034408964
 30
0.0
 11
6078.3492088387947661
 21
1046.6852410344090458
 31
0.0
  0
LINE
  5
20C4E
  8
0
 10
6077.9692088387937474
 20
1047.025241034408964
 30
0.0
 11
6077.9692088387937474
 21
1046.6852410344090458
 31
0.0
  0
LINE
  5
20C4F
  8
0
 10
6078.0092183605947866
 20
1047.0652410344089276
 30
0.0
 11
6077.9692088387937474
 21
1047.025241034408964
 31
0.0
  0
LINE
  5
20C50
  8
0
 10
6078.3092183605949685
 20
1047.0652410344089276
 30
0.0
 11
6078.3492088387947661
 21
1047.025241034408964
 31
0.0
  0
ARC
  5
20C51
  8
0
 10
6077.9492088387951299
 20
1046.6852410344090458
 30
0.0
 40
0.02
 50
270.0
 51
0.0
  0
ARC
  5
20C52
  8
0
 10
6078.3692088387952026
 20
1046.6852410344090458
 30
0.0
 40
0.02
 50
180.0000000000065086
 51
270.0
  0
ARC
  5
20C53
  8
0
 10
6079.3467088387951662
 20
1046.6452410344090822
 30
0.0
 40
0.02
 50
359.9999999999869829
 51
90.0
  0
ARC
  5
20C54
  8
0
 10
6076.9717185208937735
 20
1046.6452410344090822
 30
0.0
 40
0.02
 50
90.0
 51
179.9999999999870113
  0
LINE
  5
20C55
  8
0
 10
6102.3412136798460779
 20
1013.1392410344089967
 30
0.0
 11
6102.4812136798436768
 21
1013.1392410344089967
 31
0.0
  0
LINE
  5
20C56
  8
0
 10
6102.5262136798437496
 20
1013.3261307982089647
 30
0.0
 11
6102.2962136798460051
 21
1013.3261307982089647
 31
0.0
  0
LINE
  5
20C57
  8
0
 10
6102.2962136798460051
 20
1013.4442410344089467
 30
0.0
 11
6102.5262136798437496
 21
1013.4442410344089467
 31
0.0
  0
LINE
  5
20C58
  8
0
 10
6102.0317880541670092
 20
1013.5992410256319545
 30
0.0
 11
6102.7906393055218359
 21
1013.5992410344090331
 31
0.0
  0
LINE
  5
20C59
  8
0
 10
6100.8363674203446863
 20
1045.9944312179090957
 30
0.0
 11
6101.1199587610453818
 21
1046.2780225586091092
 31
0.0
  0
LINE
  5
20C5A
  8
0
 10
6101.7824986009436543
 20
1017.9492410344090558
 30
0.0
 11
6103.039928758629685
 21
1017.9492410344090558
 31
0.0
  0
LINE
  5
20C5B
  8
0
 10
6102.3412136798460779
 20
1013.1392410344089967
 30
0.0
 11
6102.2962136798460051
 21
1013.1842410344089558
 31
0.0
  0
LINE
  5
20C5C
  8
0
 10
6102.2962136798460051
 20
1013.5692410344089467
 30
0.0
 11
6102.2962136798460051
 21
1013.4442410344089467
 31
0.0
  0
LINE
  5
20C5D
  8
0
 10
6102.2962136798460051
 20
1013.3261307982089647
 30
0.0
 11
6102.2962136798460051
 21
1013.1842410344089558
 31
0.0
  0
LINE
  5
20C5E
  8
0
 10
6102.3157136798436113
 20
1013.4442410344089467
 30
0.0
 11
6102.3157136798436113
 21
1013.3261307982089647
 31
0.0
  0
LINE
  5
20C5F
  8
0
 10
6102.5067136798452339
 20
1013.4442410344089467
 30
0.0
 11
6102.5067136798452339
 21
1013.3261307982089647
 31
0.0
  0
LINE
  5
20C60
  8
0
 10
6102.5262136798437496
 20
1013.5692410344089467
 30
0.0
 11
6102.5262136798437496
 21
1013.4442410344089467
 31
0.0
  0
LINE
  5
20C61
  8
0
 10
6102.5262136798437496
 20
1013.3261307982089647
 30
0.0
 11
6102.5262136798437496
 21
1013.1842410344089558
 31
0.0
  0
LINE
  5
20C62
  8
0
 10
6102.4812136798436768
 20
1013.1392410344089967
 30
0.0
 11
6102.5262136798437496
 21
1013.1842410344089558
 31
0.0
  0
LINE
  5
20C63
  8
0
 10
6103.986059939245024
 20
1045.9944312179090957
 30
0.0
 11
6103.7024685986452823
 21
1046.2780225586091092
 31
0.0
  0
LINE
  5
20C64
  8
0
 10
6101.1485443125448001
 20
1045.2662410345089938
 30
0.0
 11
6103.6738830471449546
 21
1045.2662410345089938
 31
0.0
  0
LINE
  5
20C65
  8
0
 10
6103.6738805023451278
 20
1046.2898630817089725
 30
0.0
 11
6101.1485468572445825
 21
1046.2898630817089725
 31
0.0
  0
ARC
  5
20C66
  8
0
 10
6101.1485443125448001
 20
1045.3066671091089574
 30
0.0
 40
0.0404260746
 50
224.9999999994012114
 51
270.0
  0
ARC
  5
20C67
  8
0
 10
6101.1485443132150976
 20
1046.2494370060060191
 30
0.0
 40
0.0404260757826714
 50
89.9963943522957521
 51
134.9999996667652056
  0
ARC
  5
20C68
  8
0
 10
6103.673883046474657
 20
1046.2494370060060191
 30
0.0
 40
0.0404260757827146
 50
45.0000003332348015
 51
90.0036057893919264
  0
ARC
  5
20C69
  8
0
 10
6103.0399287586451464
 20
1017.979690634409053
 30
0.0
 40
0.0304496
 50
270.0
 51
359.4999999911950113
  0
ARC
  5
20C6A
  8
0
 10
6101.7824986009436543
 20
1017.979690634409053
 30
0.0
 40
0.0304496
 50
180.5000000087983949
 51
270.0
  0
ARC
  5
20C6B
  8
0
 10
6102.0317904647718024
 20
1013.6292410309639536
 30
0.0
 40
0.0300000054293254
 50
181.020226498402792
 51
269.995396082824584
  0
ARC
  5
20C6C
  8
0
 10
6102.2662136798444408
 20
1013.5692410344089467
 30
0.0
 40
0.03
 50
0.0
 51
90.0
  0
ARC
  5
20C6D
  8
0
 10
6102.5562136798462234
 20
1013.5692410344089467
 30
0.0
 40
0.03
 50
90.0
 51
180.0
  0
ARC
  5
20C6E
  8
0
 10
6103.0124913711415502
 20
1017.9342441327120241
 30
0.0
 40
0.0149969019854496
 50
3.0077213023023281
 51
90.0112334289074312
  0
ARC
  5
20C6F
  8
0
 10
6101.8099012038810542
 20
1017.9342808001530329
 30
0.0
 40
0.0149602818207175
 50
89.8555189128529292
 51
177.125526188348914
  0
ARC
  5
20C70
  8
0
 10
6101.6143266757344463
 20
1017.9377886203900516
 30
0.0
 40
0.1806541172214519
 50
298.5387788588373041
 51
359.1253754284812771
  0
ARC
  5
20C71
  8
0
 10
6101.7083007282471954
 20
1017.7660174661630208
 30
0.0
 40
0.0151502030338522
 50
120.3974145312949986
 51
198.2888080592454969
  0
ARC
  5
20C72
  8
0
 10
6099.3479911416143295
 20
1016.8938164525850425
 30
0.0
 40
2.5011650201230369
 50
5.5736118502422922
 51
20.2927572253878097
  0
ARC
  5
20C73
  8
0
 10
6065.3533535224560183
 20
1013.8816044438329982
 30
0.0
 40
36.6289031243417966
 50
1.8390877367364531
 51
5.0984859260813256
  0
ARC
  5
20C74
  8
0
 10
6229.2605012924359471
 20
1017.7650669044020333
 30
0.0
 40
127.3259115294382013
 50
181.2186483188851014
 51
181.8616609591718998
  0
ARC
  5
20C75
  8
0
 10
6102.4399297974368892
 20
1044.3335183150120429
 30
0.0
 40
2.3086887984818132
 50
133.9935273488825089
 51
138.1799108401949923
  0
ARC
  5
20C76
  8
0
 10
6100.7808555147803418
 20
1045.783197029584926
 30
0.0
 40
0.1024270074352178
 50
149.528418919449706
 51
177.3714982776812974
  0
ARC
  5
20C77
  8
0
 10
6100.781122756446166
 20
1045.7844942482329316
 30
0.0
 40
0.1027325714184634
 50
183.0559199094244036
 51
212.0614171974314957
  0
ARC
  5
20C78
  8
0
 10
6101.3113349053819547
 20
1046.1184638013498898
 30
0.0
 40
0.7293586427358365
 50
212.1856081846142956
 51
225.2630940423161974
  0
ARC
  5
20C79
  8
0
 10
6069.1008457253647066
 20
1013.6107959922869668
 30
0.0
 40
45.0337714905970827
 50
44.6834799180298887
 51
45.26309404231624
  0
ARC
  5
20C7A
  8
0
 10
6100.9572301689358937
 20
1045.6757580358830637
 30
0.0
 40
0.308940564511696
 50
140.3389445696045073
 51
148.9427126917420026
  0
ARC
  5
20C7B
  8
0
 10
6101.1799762620612455
 20
1045.2462409851029861
 30
0.0
 40
0.0200000494060243
 50
90.0002123268461389
 51
224.5856250341977898
  0
ARC
  5
20C7C
  8
0
 10
6100.4918649872033711
 20
1044.5680093746921102
 30
0.0
 40
0.9461755267427472
 50
7.1691260295550849
 51
44.5857185095086592
  0
ARC
  5
20C7D
  8
0
 10
6089.7636743581197152
 20
1043.2185964913469434
 30
0.0
 40
11.7588990182459803
 50
1.56385827726917
 51
7.1691260295550849
  0
ARC
  5
20C7E
  8
0
 10
-9026.6013030590183917
 20
892.3468412389523792
 30
0.0
 40
15128.8749986886105035
 50
0.475798732392279
 51
0.5726034483279765
  0
ARC
  5
20C7F
  8
0
 10
6103.6738830471449546
 20
1045.3066671091089574
 30
0.0
 40
0.0404260746
 50
270.0
 51
315.0000000005987886
  0
ARC
  5
20C80
  8
0
 10
6102.7906369101156088
 20
1013.6292410244300299
 30
0.0
 40
0.0299999901161609
 50
270.0045748924669056
 51
358.9797854629878771
  0
ARC
  5
20C81
  8
0
 10
6103.2081006839562178
 20
1017.9377886203900516
 30
0.0
 40
0.1806541172214519
 50
180.8746245715121006
 51
241.4612211411626106
  0
ARC
  5
20C82
  8
0
 10
6103.1141266314425593
 20
1017.7660174661630208
 30
0.0
 40
0.0151502030338522
 50
341.7111919407544178
 51
59.6025854687082202
  0
ARC
  5
20C83
  8
0
 10
6105.4744362180754251
 20
1016.8938164525850425
 30
0.0
 40
2.5011650201230369
 50
159.7072427746122116
 51
174.4263881497577131
  0
ARC
  5
20C84
  8
0
 10
6139.4690738372337364
 20
1013.8816044438329982
 30
0.0
 40
36.6289031243417966
 50
174.9015140739122103
 51
178.1609122632700064
  0
ARC
  5
20C85
  8
0
 10
5975.5619260672528981
 20
1017.7650669044020333
 30
0.0
 40
127.3259115294382013
 50
358.1383390408281002
 51
358.781351681114927
  0
ARC
  5
20C86
  8
0
 10
6102.3824975622528655
 20
1044.3335183150120429
 30
0.0
 40
2.3086887984818132
 50
41.8200891598049509
 51
46.0064726511174769
  0
ARC
  5
20C87
  8
0
 10
6104.0413046032454076
 20
1045.7844942482329316
 30
0.0
 40
0.1027325714181537
 50
327.9385828024746274
 51
356.9440800905820765
  0
ARC
  5
20C88
  8
0
 10
6104.0415718449112319
 20
1045.783197029584926
 30
0.0
 40
0.1024270074351511
 50
2.6285017222861211
 51
30.4715810805446914
  0
ARC
  5
20C89
  8
0
 10
6103.5110924543077999
 20
1046.1184638013498898
 30
0.0
 40
0.7293586427358365
 50
314.7369059576836889
 51
327.8143918153855907
  0
ARC
  5
20C8A
  8
0
 10
6135.7215816343241386
 20
1013.6107959922869668
 30
0.0
 40
45.0337714905970827
 50
134.7369059576836889
 51
135.3165200819701113
  0
ARC
  5
20C8B
  8
0
 10
6103.8651971907538609
 20
1045.6757580358830637
 30
0.0
 40
0.308940564511696
 50
31.057287308258001
 51
39.661055430395507
  0
ARC
  5
20C8C
  8
0
 10
6103.6424600223717789
 20
1045.2462447197010533
 30
0.0
 40
0.0199963167670504
 50
315.3888027859601948
 51
90.0253598529902632
  0
ARC
  5
20C8D
  8
0
 10
6104.3305623724863835
 20
1044.5680093746921102
 30
0.0
 40
0.9461755267427472
 50
135.4142814904913052
 51
172.8308739704449124
  0
ARC
  5
20C8E
  8
0
 10
6115.05875300156913
 20
1043.2185964913469434
 30
0.0
 40
11.7588990182459803
 50
172.8308739704449124
 51
178.4361417227308095
  0
ARC
  5
20C8F
  8
0
 10
21231.4237304187117843
 20
892.3468412389523792
 30
0.0
 40
15128.8749986886105035
 50
179.4273965516719898
 51
179.5242012676077081
  0
LINE
  5
20C90
  8
0
 10
6101.203718601044784
 20
1046.6452410344090822
 30
0.0
 11
6101.203718601044784
 21
1046.2898630817089725
 31
0.0
  0
LINE
  5
20C91
  8
0
 10
6103.6187089189452308
 20
1046.6452410344090822
 30
0.0
 11
6103.6187089189452308
 21
1046.2898630817089725
 31
0.0
  0
LINE
  5
20C92
  8
0
 10
6103.5987088387946642
 20
1046.665241034409064
 30
0.0
 11
6101.2237185208950905
 21
1046.665241034409064
 31
0.0
  0
LINE
  5
20C93
  8
0
 10
6102.561213679845423
 20
1047.0652410344089276
 30
0.0
 11
6102.2612136798452411
 21
1047.0652410344089276
 31
0.0
  0
LINE
  5
20C94
  8
0
 10
6102.6012089189462131
 20
1047.025241034408964
 30
0.0
 11
6102.6012089189462131
 21
1046.6852410344090458
 31
0.0
  0
LINE
  5
20C95
  8
0
 10
6102.2212089189451945
 20
1047.025241034408964
 30
0.0
 11
6102.2212089189451945
 21
1046.6852410344090458
 31
0.0
  0
LINE
  5
20C96
  8
0
 10
6102.2612136798452411
 20
1047.0652410344089276
 30
0.0
 11
6102.2212089189451945
 21
1047.025241034408964
 31
0.0
  0
LINE
  5
20C97
  8
0
 10
6102.561213679845423
 20
1047.0652410344089276
 30
0.0
 11
6102.6012089189462131
 21
1047.025241034408964
 31
0.0
  0
ARC
  5
20C98
  8
0
 10
6102.2012089189447579
 20
1046.6852410344090458
 30
0.0
 40
0.02
 50
270.0
 51
0.0
  0
ARC
  5
20C99
  8
0
 10
6102.6212089189448307
 20
1046.6852410344090458
 30
0.0
 40
0.02
 50
180.0000000000065086
 51
270.0
  0
ARC
  5
20C9A
  8
0
 10
6103.5987089189438848
 20
1046.6452410344090822
 30
0.0
 40
0.0200000000002092
 50
0.0000000002410097
 51
90.0002296125316263
  0
ARC
  5
20C9B
  8
0
 10
6101.2237186010452206
 20
1046.6452410344090822
 30
0.0
 40
0.0200000000002561
 50
90.0002296136780728
 51
179.9999999996742872
  0
LINE
  5
20C9C
  8
0
 10
6078.8765114689949769
 20
1017.7612632265089587
 30
0.0
 11
6077.4419157303937027
 21
1017.7612632265089587
 31
0.0
  0
LINE
  5
20C9D
  8
0
 10
6101.6939158105451497
 20
1017.7612632265089587
 30
0.0
 11
6103.1285115491446049
 21
1017.7612632265089587
 31
0.0
  0
LINE
  5
20C9E
  8
0
 10
6102.5262136798437496
 20
1013.1842410344089558
 30
0.0
 11
6102.2962136798460051
 21
1013.1842410344089558
 31
0.0
  0
LINE
  5
20C9F
  8
0
 10
6078.274213599695031
 20
1013.1842410344089558
 30
0.0
 11
6078.0442135996945581
 21
1013.1842410344089558
 31
0.0
  0
LINE
  5
20CA0
  8
0
 10
6078.3492088387947661
 20
1047.025241034408964
 30
0.0
 11
6077.9692088387937474
 21
1047.025241034408964
 31
0.0
  0
LINE
  5
20CA1
  8
0
 10
6076.4265361926536571
 20
1045.7790175152510983
 30
0.0
 11
6076.4265361926536571
 21
1045.7878943238808915
 31
0.0
  0
LINE
  5
20CA2
  8
0
 10
6079.8919005285370076
 20
1045.787894323879982
 30
0.0
 11
6079.8919005285370076
 21
1045.7790175152510983
 31
0.0
  0
LINE
  5
20CA3
  8
0
 10
6100.6785362728051041
 20
1045.7790175152510983
 30
0.0
 11
6100.6785362728051041
 21
1045.7878943238808915
 31
0.0
  0
LINE
  5
20CA4
  8
0
 10
6104.1438910868855601
 20
1045.7790175152510983
 30
0.0
 11
6104.1438910868855601
 21
1045.787894323879982
 31
0.0
  0
LINE
  5
20CA5
  8
0
 10
6102.6012089189462131
 20
1047.025241034408964
 30
0.0
 11
6102.2212089189451945
 21
1047.025241034408964
 31
0.0
  0
ENDSEC
  0
EOF
