  0
SECTION
  2
HEADER
  9
$ACADVER
  1
AC1009
  9
$INSBASE
 10
119.0274900680177979
 20
54.0426639273866414
 30
0.0
  9
$EXTMIN
 10
99.0620236811891459
 20
54.0399521106054976
 30
-0.0000000000000058
  9
$EXTMAX
 10
119.0393245246414011
 20
87.9204881226737029
 30
0.0000000000000104
  9
$LIMMIN
 10
0.0
 20
0.0
  9
$LIMMAX
 10
46.8110236219999933
 20
33.1102362204999991
  9
$ORTHOMODE
 70
     1
  9
$REGENMODE
 70
     1
  9
$FILLMODE
 70
     1
  9
$QTEXTMODE
 70
     0
  9
$MIRRTEXT
 70
     0
  9
$DRAGMODE
 70
     2
  9
$LTSCALE
 40
2.5746062992000001
  9
$OSMODE
 70
     7
  9
$ATTMODE
 70
     1
  9
$TEXTSIZE
 40
0.001
  9
$TRACEWID
 40
0.05
  9
$TEXTSTYLE
  7
STANDARD
  9
$CLAYER
  8
0
  9
$CELTYPE
  6
BYLAYER
  9
$CECOLOR
 62
   256
  9
$DIMSCALE
 40
1.0
  9
$DIMASZ
 40
0.1875
  9
$DIMEXO
 40
0.0625
  9
$DIMDLI
 40
1.778818897599999
  9
$DIMRND
 40
0.0
  9
$DIMDLE
 40
0.0
  9
$DIMEXE
 40
0.125
  9
$DIMTP
 40
0.0
  9
$DIMTM
 40
0.0
  9
$DIMTXT
 40
0.15625
  9
$DIMCEN
 40
0.4212992126
  9
$DIMTSZ
 40
0.0
  9
$DIMTOL
 70
     0
  9
$DIMLIM
 70
     0
  9
$DIMTIH
 70
     1
  9
$DIMTOH
 70
     1
  9
$DIMSE1
 70
     0
  9
$DIMSE2
 70
     0
  9
$DIMTAD
 70
     0
  9
$DIMZIN
 70
     0
  9
$DIMBLK
  1
CLOSED
  9
$DIMASO
 70
     1
  9
$DIMSHO
 70
     1
  9
$DIMPOST
  1

  9
$DIMAPOST
  1

  9
$DIMALT
 70
     0
  9
$DIMALTD
 70
     2
  9
$DIMALTF
 40
25.3999999999999986
  9
$DIMLFAC
 40
1.0
  9
$DIMTOFL
 70
     0
  9
$DIMTVP
 40
0.0
  9
$DIMTIX
 70
     0
  9
$DIMSOXD
 70
     0
  9
$DIMSAH
 70
     0
  9
$DIMBLK1
  1

  9
$DIMBLK2
  1

  9
$DIMSTYLE
  2
STANDARD
  9
$DIMCLRD
 70
     0
  9
$DIMCLRE
 70
     0
  9
$DIMCLRT
 70
     0
  9
$DIMTFAC
 40
1.0
  9
$DIMGAP
 40
0.09
  9
$LUNITS
 70
     2
  9
$LUPREC
 70
     4
  9
$SKETCHINC
 40
0.1
  9
$FILLETRAD
 40
0.0
  9
$AUNITS
 70
     0
  9
$AUPREC
 70
     0
  9
$MENU
  1
.
  9
$ELEVATION
 40
0.0
  9
$PELEVATION
 40
0.0
  9
$THICKNESS
 40
0.0
  9
$LIMCHECK
 70
     0
  9
$BLIPMODE
 70
     0
  9
$CHAMFERA
 40
0.0
  9
$CHAMFERB
 40
0.0
  9
$SKPOLY
 70
     0
  9
$TDCREATE
 40
2457200.4849421298131347
  9
$TDUPDATE
 40
2459609.3979398151859641
  9
$TDINDWG
 40
0.2325515046
  9
$TDUSRTIMER
 40
0.2325515046
  9
$USRTIMER
 70
     1
  9
$ANGBASE
 50
0.0
  9
$ANGDIR
 70
     0
  9
$PDMODE
 70
     0
  9
$PDSIZE
 40
0.3125
  9
$PLINEWID
 40
0.0
  9
$COORDS
 70
     1
  9
$SPLFRAME
 70
     0
  9
$SPLINETYPE
 70
     6
  9
$SPLINESEGS
 70
     8
  9
$ATTDIA
 70
     1
  9
$ATTREQ
 70
     1
  9
$HANDLING
 70
     1
  9
$HANDSEED
  5
1EAA
  9
$SURFTAB1
 70
     6
  9
$SURFTAB2
 70
     6
  9
$SURFTYPE
 70
     6
  9
$SURFU
 70
     6
  9
$SURFV
 70
     6
  9
$UCSNAME
  2

  9
$UCSORG
 10
0.0
 20
0.0
 30
0.0
  9
$UCSXDIR
 10
1.0
 20
0.0
 30
0.0
  9
$UCSYDIR
 10
0.0
 20
1.0
 30
0.0
  9
$PUCSNAME
  2

  9
$PUCSORG
 10
0.0
 20
0.0
 30
0.0
  9
$PUCSXDIR
 10
1.0
 20
0.0
 30
0.0
  9
$PUCSYDIR
 10
0.0
 20
1.0
 30
0.0
  9
$USERI1
 70
     0
  9
$USERI2
 70
     0
  9
$USERI3
 70
     0
  9
$USERI4
 70
     0
  9
$USERI5
 70
     0
  9
$USERR1
 40
0.0
  9
$USERR2
 40
0.0
  9
$USERR3
 40
0.0
  9
$USERR4
 40
0.0
  9
$USERR5
 40
0.0
  9
$WORLDVIEW
 70
     1
  9
$SHADEDGE
 70
     3
  9
$SHADEDIF
 70
    70
  9
$TILEMODE
 70
     1
  9
$MAXACTVP
 70
    64
  9
$PLIMCHECK
 70
     0
  9
$PEXTMIN
 10
1.0000000000000000E+20
 20
1.0000000000000000E+20
 30
1.0000000000000000E+20
  9
$PEXTMAX
 10
-1.0000000000000000E+20
 20
-1.0000000000000000E+20
 30
-1.0000000000000000E+20
  9
$PLIMMIN
 10
0.0
 20
0.0
  9
$PLIMMAX
 10
12.0
 20
9.0
  9
$UNITMODE
 70
     0
  9
$VISRETAIN
 70
     1
  9
$PLINEGEN
 70
     0
  9
$PSLTSCALE
 70
     1
  0
ENDSEC
  0
SECTION
  2
TABLES
  0
TABLE
  2
VPORT
 70
     1
  0
VPORT
  2
*ACTIVE
 70
     0
 10
0.0
 20
0.0
 11
1.0
 21
1.0
 12
109.0506741029152948
 22
70.9802201166396003
 13
0.0
 23
0.0
 14
1.0
 24
1.0
 15
0.0
 25
0.0
 16
0.0
 26
0.0
 36
1.0
 17
0.0
 27
0.0
 37
0.0
 40
34.1231174154958978
 41
2.2831541218637992
 42
50.0
 43
0.0
 44
0.0
 50
0.0
 51
0.0
 71
     0
 72
   100
 73
     1
 74
     1
 75
     0
 76
     0
 77
     0
 78
     0
  0
ENDTAB
  0
TABLE
  2
LTYPE
 70
     1
  0
LTYPE
  2
CONTINUOUS
 70
     0
  3
Solid line
 72
    65
 73
     0
 40
0.0
  0
ENDTAB
  0
TABLE
  2
LAYER
 70
     2
  0
LAYER
  2
0
 70
     0
 62
     7
  6
CONTINUOUS
  0
LAYER
  2
DEFPOINTS
 70
     0
 62
     7
  6
CONTINUOUS
  0
ENDTAB
  0
TABLE
  2
STYLE
 70
     1
  0
STYLE
  2
STANDARD
 70
     0
 40
0.0
 41
0.8
 50
0.0
 71
     0
 42
0.001
  3
txt
  4

  0
ENDTAB
  0
TABLE
  2
VIEW
 70
     0
  0
ENDTAB
  0
TABLE
  2
UCS
 70
     0
  0
ENDTAB
  0
TABLE
  2
APPID
 70
     7
  0
APPID
  2
ACAD
 70
     0
  0
APPID
  2
ACAD_MLEADERVER
 70
     0
  0
APPID
  2
ACAD_NAV_VCDISPLAY
 70
     0
  0
APPID
  2
ACAD_EXEMPT_FROM_CAD_STANDARDS
 70
     0
  0
APPID
  2
ACAD_DSTYLE_DIMRADIAL_EXTENSION
 70
     0
  0
APPID
  2
ACDBATTR
 70
     0
  0
APPID
  2
DCO15
 70
     0
  0
ENDTAB
  0
TABLE
  2
DIMSTYLE
 70
     1
  0
DIMSTYLE
  2
STANDARD
 70
     0
  3

  4

  5
CLOSED
  6
CLOSED
  7
CLOSED
 40
1.0
 41
0.1875
 42
0.0625
 43
0.38
 44
0.125
 45
0.0
 46
0.0
 47
1.5
 48
1.5
140
0.15625
141
0.09
142
0.0
143
25.3999999999999986
144
1.0
145
0.0
146
1.0
147
0.09
 71
     0
 72
     0
 73
     1
 74
     1
 75
     0
 76
     0
 77
     0
 78
     4
170
     0
171
     2
172
     0
173
     0
174
     0
175
     0
176
     0
177
     0
178
     0
  0
ENDTAB
  0
ENDSEC
  0
SECTION
  2
BLOCKS
  0
BLOCK
  8
0
  2
$MODEL_SPACE
 70
     2
 10
0.0
 20
0.0
 30
0.0
  3
$MODEL_SPACE
  1

  0
ENDBLK
  5
21
  8
0
  0
BLOCK
 67
     1
  8
0
  2
$PAPER_SPACE
 70
     0
 10
0.0
 20
0.0
 30
0.0
  3
$PAPER_SPACE
  1

  0
ENDBLK
  5
1D
 67
     1
  8
0
  0
BLOCK
  8
0
  2
_CLOSED
 70
     0
 10
0.0
 20
0.0
 30
0.0
  3
_CLOSED
  1

  0
LINE
  5
233
  8
0
  6
BYBLOCK
 62
     0
 10
0.0
 20
0.0
 30
0.0
 11
-1.0
 21
0.1666666667
 31
0.0
  0
LINE
  5
234
  8
0
  6
BYBLOCK
 62
     0
 10
-1.0
 20
0.1666666667
 30
0.0
 11
-1.0
 21
-0.1666666667
 31
0.0
  0
LINE
  5
235
  8
0
  6
BYBLOCK
 62
     0
 10
-1.0
 20
-0.1666666667
 30
0.0
 11
0.0
 21
0.0
 31
0.0
  0
LINE
  5
236
  8
0
  6
BYBLOCK
 62
     0
 10
-1.0
 20
0.0
 30
0.0
 11
0.0
 21
0.0
 31
0.0
  0
ENDBLK
  5
237
  8
0
  6
BYBLOCK
 62
     0
  0
ENDSEC
  0
SECTION
  2
ENTITIES
  0
ATTDEF
  5
A78
  8
DEFPOINTS
 10
119.0276557225478058
 20
54.0461663343458909
 30
0.0
 40
0.001
  1
P77618-00
  3

  2
MODELNUMBER
 70
     0
1001
ACDBATTR
1070
     0
1070
     1
  0
ATTDEF
  5
A79
  8
DEFPOINTS
 10
119.0276557225478058
 20
54.0444996676792329
 30
0.0
 40
0.001
  1
PER SE
  3

  2
TRADENAME
 70
     0
1001
ACDBATTR
1070
     0
1070
     1
  0
ATTDEF
  5
A7A
  8
DEFPOINTS
 10
119.0276557225478058
 20
54.0428330010125677
 30
0.0
 40
0.001
  1
TABLE LEGS
  3

  2
PRODUCT
 70
     0
1001
ACDBATTR
1070
     0
1070
     1
  0
LINE
  5
1DAD
  8
0
 10
99.1086429020674728
 20
87.9175802273866367
 30
0.0
 11
101.7630972339681961
 21
87.9175802273866367
 31
0.0
  0
LINE
  5
1DAE
  8
0
 10
119.0274900680177979
 20
80.2416998514866293
 30
0.0
 11
119.0274900680177979
 21
82.2901739273866326
 31
0.0
  0
LINE
  5
1DAF
  8
0
 10
101.5480890711178006
 20
54.0426639273866414
 30
0.0
 11
103.2302510649177947
 21
54.0426639273866414
 31
0.0
  0
LINE
  5
1DB0
  8
0
 10
101.9909954808178014
 20
55.1674139273866402
 30
0.0
 11
102.7873446552177938
 21
55.1674139273866402
 31
0.0
  0
LINE
  5
1DB1
  8
0
 10
99.9269735495178537
 20
86.3375802273866384
 30
0.0
 11
100.944766586517801
 21
86.3375802273866384
 31
0.0
  0
LINE
  5
1DB2
  8
0
 10
101.4667282915885949
 20
80.7454637900866459
 30
0.0
 11
101.2933255453279031
 21
80.7454637900866459
 31
0.0
  0
ARC
  5
1DB3
  8
0
 10
99.1086429020674728
 20
87.8775802272677709
 30
0.0
 40
0.0400000001188765
 50
90.0000000710848411
 51
180.6288214732915094
  0
ARC
  5
1DB4
  8
0
 10
100.9995135313178025
 20
87.8983333784866403
 30
0.0
 40
1.9309845134999679
 50
180.6288215664000916
 51
191.0863382656999931
  0
ARC
  5
1DB5
  8
0
 10
99.2522402722583195
 20
87.5562336273437438
 30
0.0
 40
0.1505364834471787
 50
191.1868094921481998
 51
243.4038678181566127
  0
ARC
  5
1DB6
  8
0
 10
98.5341064288301851
 20
86.0592708073118189
 30
0.0
 40
1.509792497689106
 50
52.352083888865117
 51
64.4681915922135289
  0
ARC
  5
1DB7
  8
0
 10
98.7174743112185951
 20
86.2577843366816239
 30
0.0
 40
1.2408419818452221
 50
26.8475534349992202
 51
53.4572705433352766
  0
ARC
  5
1DB8
  8
0
 10
98.9507216116600432
 20
86.3898214826527635
 30
0.0
 40
0.9731855755227732
 50
11.0998030147976401
 51
26.113586174150619
  0
ARC
  5
1DB9
  8
0
 10
98.6003347730592736
 20
86.3421303130212863
 30
0.0
 40
1.326360145773825
 50
0.6498746527062497
 51
10.2074328891794295
  0
ARC
  5
1DBA
  8
0
 10
99.9470209458165471
 20
86.3577583320851829
 30
0.0
 40
0.0204197025729605
 50
181.6393355612532048
 51
261.1775620876550761
  0
LINE
  5
1DBB
  8
0
 10
99.9269735495178537
 20
86.3375802273866384
 30
0.0
 11
99.9613187309178244
 21
82.4053936071866246
 31
0.0
  0
ARC
  5
1DBC
  8
0
 10
104.5123252627188037
 20
82.413512499894054
 30
0.0
 40
4.551013773755705
 50
180.1022142661659018
 51
185.5883908815945915
  0
ARC
  5
1DBD
  8
0
 10
101.2968303965353982
 20
82.0637610331619101
 30
0.0
 40
1.3172064586282941
 50
184.0675131172152987
 51
240.0240234696640016
  0
ARC
  5
1DBE
  8
0
 10
101.3049943985798933
 20
82.0857637476381115
 30
0.0
 40
1.3403507519857201
 50
240.1916521963634068
 51
269.5011869185947262
  0
ARC
  5
1DBF
  8
0
 10
101.4517057155504034
 20
80.1701733670448533
 30
0.0
 40
0.5754865321051581
 50
70.5559122618153083
 51
88.5041735291705152
  0
ARC
  5
1DC0
  8
0
 10
101.4980903208136027
 20
80.3736115617080742
 30
0.0
 40
0.3689904585835984
 50
18.551263295619151
 51
66.8293124794629563
  0
ARC
  5
1DC1
  8
0
 10
101.1819946689931982
 20
80.254556157329489
 30
0.0
 40
0.7066465172154242
 50
3.058880740788156
 51
19.5488099927831591
  0
ARC
  5
1DC2
  8
0
 10
95.953443572180575
 20
80.1470949989136443
 30
0.0
 40
5.9359661895562672
 50
359.4847424610857161
 51
1.401359215924876
  0
LINE
  5
1DC3
  8
0
 10
101.8891697337177931
 20
80.0937139273866165
 30
0.0
 11
101.8912549713216009
 21
79.5832609273866467
 31
0.0
  0
LINE
  5
1DC4
  8
0
 10
101.8918227964238952
 20
79.4442609273866367
 30
0.0
 11
101.8945230294642954
 21
78.7832609273866353
 31
0.0
  0
LINE
  5
1DC5
  8
0
 10
101.8950908545665044
 20
78.6442609273866395
 30
0.0
 11
101.9837730723227054
 21
56.9354139273866409
 31
0.0
  0
LINE
  5
1DC6
  8
0
 10
101.9843408974249002
 20
56.7964139273866309
 30
0.0
 11
101.9878581450008994
 21
55.9354139273866409
 31
0.0
  0
LINE
  5
1DC7
  8
0
 10
101.9884259701031937
 20
55.796413927386638
 30
0.0
 11
101.9909954808178014
 21
55.1674139273866402
 31
0.0
  0
ARC
  5
1DC8
  8
0
 10
102.0128631930797951
 20
55.1465020501510068
 30
0.0
 40
0.0221637350263514
 50
109.3490353475530981
 51
176.7991399090680034
  0
ARC
  5
1DC9
  8
0
 10
100.3150831773321983
 20
55.1779358615734665
 30
0.0
 40
1.6759229134089639
 50
355.4386391344585832
 51
358.9676063143685951
  0
ARC
  5
1DCA
  8
0
 10
101.1917664385275941
 20
55.1120783898912734
 30
0.0
 40
0.7967893111058509
 50
327.8475672823515197
 51
355.145910494041118
  0
ARC
  5
1DCB
  8
0
 10
101.2671525332707034
 20
55.0620841327519486
 30
0.0
 40
0.7063626138829461
 50
300.3518501871205899
 51
328.0267004739179129
  0
ARC
  5
1DCC
  8
0
 10
101.6685489775529021
 20
54.3689119224956698
 30
0.0
 40
0.0947113281147817
 50
118.0006562467317934
 51
170.1523233627387128
  0
ARC
  5
1DCD
  8
0
 10
103.4789776584627958
 20
54.0619107766159885
 30
0.0
 40
1.9309845100218559
 50
170.3647378758010973
 51
180.5710980510309014
  0
LINE
  5
1DCE
  8
0
 10
101.7966700680178036
 20
79.5832609273866467
 30
0.0
 11
102.0157502694177936
 21
79.5832609273866467
 31
0.0
  0
LINE
  5
1DCF
  8
0
 10
101.7966700680178036
 20
79.4442609273866367
 30
0.0
 11
102.0163585862178053
 21
79.4442609273866367
 31
0.0
  0
ARC
  5
1DD0
  8
0
 10
101.7966700680178036
 20
79.5137609273866417
 30
0.0
 40
0.0695000000000015
 50
89.9999999999992042
 51
270.0000000000007958
  0
LINE
  5
1DD1
  8
0
 10
102.0157502694177936
 20
79.5832609273866467
 30
0.0
 11
102.0163585862178053
 21
79.4442609273866367
 31
0.0
  0
LINE
  5
1DD2
  8
0
 10
101.7966700680178036
 20
78.7832609273866353
 30
0.0
 11
102.0157502694177936
 21
78.7832609273866353
 31
0.0
  0
LINE
  5
1DD3
  8
0
 10
101.7966700680178036
 20
78.6442609273866395
 30
0.0
 11
102.0163585862178053
 21
78.6442609273866395
 31
0.0
  0
ARC
  5
1DD4
  8
0
 10
101.7966700680178036
 20
78.7137609273866303
 30
0.0
 40
0.0695000000000015
 50
89.9999999999992042
 51
270.0000000000007958
  0
LINE
  5
1DD5
  8
0
 10
102.0157502694177936
 20
78.7832609273866353
 30
0.0
 11
102.0163585862178053
 21
78.6442609273866395
 31
0.0
  0
ARC
  5
1DD6
  8
0
 10
119.008243218750394
 20
80.3592853391578785
 30
0.0
 40
1.9309845109059689
 50
89.4289019481007017
 51
101.0335726221004933
  0
ARC
  5
1DD7
  8
0
 10
118.6677534251553965
 20
82.1068841955937074
 30
0.0
 40
0.1505255393645176
 50
101.1351307971967941
 51
154.7855641473516926
  0
ARC
  5
1DD8
  8
0
 10
117.7313703180039965
 20
82.5025838315661417
 30
0.0
 40
0.8661762435007018
 50
325.0678373891557271
 51
337.4925989520050962
  0
ARC
  5
1DD9
  8
0
 10
117.9985472414811056
 20
82.3107040661909934
 30
0.0
 40
0.5372822764716
 50
300.2019109697778845
 51
325.528713090246697
  0
ARC
  5
1DDA
  8
0
 10
117.9789495950937948
 20
82.375588731425097
 30
0.0
 40
0.6034222899674423
 50
273.5084766625564043
 51
298.7107469323963187
  0
ARC
  5
1DDB
  8
0
 10
117.8301943980955002
 20
84.0899731109830526
 30
0.0
 40
2.324105048314149
 50
269.569907518381001
 51
274.5824804137748743
  0
ARC
  5
1DDC
  8
0
 10
117.8130572186222054
 20
81.7452415937203938
 30
0.0
 40
0.0206942493794265
 50
90.8545040236897563
 51
168.6164629179037036
  0
LINE
  5
1DDD
  8
0
 10
117.792770068017802
 20
81.765923927686643
 30
0.0
 11
117.792770068017802
 21
80.7659498511866332
 31
0.0
  0
LINE
  5
1DDE
  8
0
 10
117.792770068017802
 20
81.765923927686643
 30
0.0
 11
103.4616700680177956
 21
81.765923927686643
 31
0.0
  0
LINE
  5
1DDF
  8
0
 10
103.4616700680177956
 20
81.765923927686643
 30
0.0
 11
101.3166701103178013
 21
81.7863839991866399
 31
0.0
  0
ARC
  5
1DE0
  8
0
 10
119.008243218750394
 20
82.1725884397153976
 30
0.0
 40
1.9309845109059689
 50
258.9664273778994925
 51
270.5710980518992983
  0
ARC
  5
1DE1
  8
0
 10
118.6677534251553965
 20
80.4249895832795687
 30
0.0
 40
0.1505255393645176
 50
205.2144358526483074
 51
258.8648692028032201
  0
ARC
  5
1DE2
  8
0
 10
117.7313703180039965
 20
80.0292899473071344
 30
0.0
 40
0.8661762435007018
 50
22.5074010479948505
 51
34.9321626108443297
  0
ARC
  5
1DE3
  8
0
 10
117.9985472414811056
 20
80.2211697126822969
 30
0.0
 40
0.5372822764716
 50
34.4712869097533101
 51
59.7980890302220729
  0
ARC
  5
1DE4
  8
0
 10
117.9789495950937948
 20
80.156285047448165
 30
0.0
 40
0.6034222899674423
 50
61.2892530676037168
 51
86.4915233374435672
  0
ARC
  5
1DE5
  8
0
 10
117.8301943980955002
 20
78.4419006678902235
 30
0.0
 40
2.324105048314149
 50
85.4175195862250973
 51
90.4300924816190417
  0
ARC
  5
1DE6
  8
0
 10
117.8130572186222054
 20
80.7866321851529108
 30
0.0
 40
0.0206942493794265
 50
191.3835370820962964
 51
269.1454959763102011
  0
LINE
  5
1DE7
  8
0
 10
117.792770068017802
 20
80.7659498511866332
 30
0.0
 11
103.4616700680177956
 21
80.7659498511866332
 31
0.0
  0
ARC
  5
1DE8
  8
0
 10
101.7630972339681961
 20
87.8775802272677709
 30
0.0
 40
0.0400000001188765
 50
359.3711785267084906
 51
89.9999999289151447
  0
ARC
  5
1DE9
  8
0
 10
99.8722266047178806
 20
87.8983333784866403
 30
0.0
 40
1.9309845134999679
 50
348.9136617342999216
 51
359.37117843359988
  0
ARC
  5
1DEA
  8
0
 10
101.6194998637773068
 20
87.5562336273437438
 30
0.0
 40
0.1505364834471787
 50
296.5961321818434158
 51
348.8131905078518002
  0
ARC
  5
1DEB
  8
0
 10
102.337633707205498
 20
86.0592708073118189
 30
0.0
 40
1.509792497689106
 50
115.5318084077864995
 51
127.6479161111348049
  0
ARC
  5
1DEC
  8
0
 10
102.1542658248171023
 20
86.2577843366816239
 30
0.0
 40
1.2408419818452221
 50
126.5427294566647021
 51
153.1524465650010995
  0
ARC
  5
1DED
  8
0
 10
101.9210185243755973
 20
86.3898214826527635
 30
0.0
 40
0.9731855755227732
 50
153.8864138258493881
 51
168.9001969852023137
  0
ARC
  5
1DEE
  8
0
 10
102.2714053629763953
 20
86.3421303130212863
 30
0.0
 40
1.326360145773825
 50
169.7925671108206132
 51
179.350125347293698
  0
ARC
  5
1DEF
  8
0
 10
100.9247191902190934
 20
86.3577583320851829
 30
0.0
 40
0.0204197025729605
 50
278.8224379123449239
 51
358.3606644387464257
  0
LINE
  5
1DF0
  8
0
 10
100.944766586517801
 20
86.3375802273866384
 30
0.0
 11
100.9104214051178019
 21
82.4053936071866246
 31
0.0
  0
ARC
  5
1DF1
  8
0
 10
103.5825874916939995
 20
82.3778483237867363
 30
0.0
 40
2.6723080542642239
 50
179.4094032570689023
 51
183.47185439338989
  0
ARC
  5
1DF2
  8
0
 10
101.6276539212988013
 20
82.2592433568506465
 30
0.0
 40
0.713779932730105
 50
183.4718543933894921
 51
203.412753252024288
  0
ARC
  5
1DF3
  8
0
 10
101.2661796865071011
 20
82.1120407335778424
 30
0.0
 40
0.3236888963230369
 50
204.9263005571542919
 51
249.9237022771409897
  0
ARC
  5
1DF4
  8
0
 10
101.308451896262099
 20
82.339333659787826
 30
0.0
 40
0.5530107288301344
 50
253.8970560450127891
 51
270.8514958014731064
  0
LINE
  5
1DF5
  8
0
 10
101.9096700680178031
 20
56.9354139273866409
 30
0.0
 11
102.0157502694177936
 21
56.9354139273866409
 31
0.0
  0
LINE
  5
1DF6
  8
0
 10
101.9096700680178031
 20
56.7964139273866309
 30
0.0
 11
102.0163585862178053
 21
56.7964139273866309
 31
0.0
  0
ARC
  5
1DF7
  8
0
 10
101.9096700680178031
 20
56.865913927386643
 30
0.0
 40
0.0695000000000015
 50
89.9999999999992042
 51
270.0000000000007958
  0
LINE
  5
1DF8
  8
0
 10
102.0157502694177936
 20
56.9354139273866409
 30
0.0
 11
102.0163585862178053
 21
56.7964139273866309
 31
0.0
  0
LINE
  5
1DF9
  8
0
 10
101.9096700680178031
 20
55.9354139273866409
 30
0.0
 11
102.0157502694177936
 21
55.9354139273866267
 31
0.0
  0
LINE
  5
1DFA
  8
0
 10
101.9096700680178031
 20
55.796413927386638
 30
0.0
 11
102.0163585862178053
 21
55.796413927386638
 31
0.0
  0
ARC
  5
1DFB
  8
0
 10
101.9096700680178031
 20
55.865913927386643
 30
0.0
 40
0.0695000000000015
 50
89.9999999999992042
 51
270.0000000000007958
  0
LINE
  5
1DFC
  8
0
 10
102.0157502694177936
 20
55.9354139273866409
 30
0.0
 11
102.0163585862178053
 21
55.796413927386638
 31
0.0
  0
ARC
  5
1DFD
  8
0
 10
103.3322562338383932
 20
80.2493826512990438
 30
0.0
 40
0.5136907362718847
 50
92.3032438227155154
 51
113.2085796237172985
  0
ARC
  5
1DFE
  8
0
 10
103.3167427671354943
 20
80.3675574362065674
 30
0.0
 40
0.4002718912005746
 50
117.8388563737905059
 51
161.0522241771483039
  0
ARC
  5
1DFF
  8
0
 10
103.6622535186317009
 20
80.2256426885995353
 30
0.0
 40
0.7734556759245561
 50
159.4196573307841902
 51
175.7001167230828003
  0
ARC
  5
1E00
  8
0
 10
107.363116755496506
 20
80.1461738986899235
 30
0.0
 40
4.4742539064865481
 50
178.2394575503633121
 51
180.6718000103774955
  0
LINE
  5
1E01
  8
0
 10
102.8891704023178022
 20
80.0937139273866165
 30
0.0
 11
102.8870851647139943
 21
79.5832609273866467
 31
0.0
  0
LINE
  5
1E02
  8
0
 10
102.8865173396117001
 20
79.4442609273866367
 30
0.0
 11
102.8838171065713993
 21
78.7832609273866353
 31
0.0
  0
LINE
  5
1E03
  8
0
 10
102.8832492814691051
 20
78.6442609273866395
 30
0.0
 11
102.7945670637130036
 21
56.9354139273866409
 31
0.0
  0
LINE
  5
1E04
  8
0
 10
102.7939992386106951
 20
56.7964139273866309
 30
0.0
 11
102.7904819910346959
 21
55.9354139273866409
 31
0.0
  0
LINE
  5
1E05
  8
0
 10
102.7899141659325011
 20
55.796413927386638
 30
0.0
 11
102.7873446552177938
 21
55.1674139273866402
 31
0.0
  0
ARC
  5
1E06
  8
0
 10
102.7654769429558002
 20
55.1465020501510068
 30
0.0
 40
0.0221637350263514
 50
3.2008600909320069
 51
70.6509646524469304
  0
ARC
  5
1E07
  8
0
 10
104.463256958703397
 20
55.1779358615734665
 30
0.0
 40
1.6759229134089639
 50
181.0323936856314049
 51
184.5613608655413884
  0
ARC
  5
1E08
  8
0
 10
103.5865736975080011
 20
55.1120783898912734
 30
0.0
 40
0.7967893111058509
 50
184.8540895059589104
 51
212.1524327176485087
  0
ARC
  5
1E09
  8
0
 10
103.5111876027650055
 20
55.0620841327519486
 30
0.0
 40
0.7063626138829461
 50
211.9732995260820871
 51
239.6481498128794101
  0
ARC
  5
1E0A
  8
0
 10
103.1097911584826932
 20
54.3689119224956698
 30
0.0
 40
0.0947113281147817
 50
9.8476766372612854
 51
61.9993437532682066
  0
ARC
  5
1E0B
  8
0
 10
101.2993624775727994
 20
54.0619107766159885
 30
0.0
 40
1.9309845100218559
 50
359.4289019489687007
 51
9.6352621241989098
  0
LINE
  5
1E0C
  8
0
 10
102.9816700680178059
 20
79.5832609273866467
 30
0.0
 11
102.7625898666178017
 21
79.5832609273866467
 31
0.0
  0
LINE
  5
1E0D
  8
0
 10
102.9816700680178059
 20
79.4442609273866367
 30
0.0
 11
102.7619815498178042
 21
79.4442609273866367
 31
0.0
  0
ARC
  5
1E0E
  8
0
 10
102.9816700680178059
 20
79.5137609273866417
 30
0.0
 40
0.0695000000000015
 50
269.9999999999992042
 51
90.00000000000081
  0
LINE
  5
1E0F
  8
0
 10
102.7625898666178017
 20
79.5832609273866467
 30
0.0
 11
102.7619815498178042
 21
79.4442609273866367
 31
0.0
  0
LINE
  5
1E10
  8
0
 10
102.9816700680178059
 20
78.7832609273866353
 30
0.0
 11
102.7625898666178017
 21
78.7832609273866353
 31
0.0
  0
LINE
  5
1E11
  8
0
 10
102.9816700680178059
 20
78.6442609273866395
 30
0.0
 11
102.7619815498178042
 21
78.6442609273866395
 31
0.0
  0
ARC
  5
1E12
  8
0
 10
102.9816700680178059
 20
78.7137609273866303
 30
0.0
 40
0.0695000000000015
 50
269.9999999999992042
 51
90.00000000000081
  0
LINE
  5
1E13
  8
0
 10
102.7625898666178017
 20
78.7832609273866353
 30
0.0
 11
102.7619815498178042
 21
78.6442609273866395
 31
0.0
  0
LINE
  5
1E14
  8
0
 10
102.8686700680178063
 20
56.9354139273866409
 30
0.0
 11
102.7625898666178017
 21
56.9354139273866409
 31
0.0
  0
LINE
  5
1E15
  8
0
 10
102.8686700680178063
 20
56.7964139273866309
 30
0.0
 11
102.7619815498178042
 21
56.7964139273866309
 31
0.0
  0
ARC
  5
1E16
  8
0
 10
102.8686700680178063
 20
56.865913927386643
 30
0.0
 40
0.0695000000000015
 50
269.9999999999992042
 51
90.00000000000081
  0
LINE
  5
1E17
  8
0
 10
102.7625898666178017
 20
56.9354139273866409
 30
0.0
 11
102.7619815498178042
 21
56.7964139273866309
 31
0.0
  0
LINE
  5
1E18
  8
0
 10
102.8686700680178063
 20
55.9354139273866409
 30
0.0
 11
102.7625898666178017
 21
55.9354139273866267
 31
0.0
  0
LINE
  5
1E19
  8
0
 10
102.8686700680178063
 20
55.796413927386638
 30
0.0
 11
102.7619815498178042
 21
55.796413927386638
 31
0.0
  0
ARC
  5
1E1A
  8
0
 10
102.8686700680178063
 20
55.865913927386643
 30
0.0
 40
0.0695000000000015
 50
269.9999999999992042
 51
90.00000000000081
  0
LINE
  5
1E1B
  8
0
 10
102.7625898666178017
 20
55.9354139273866409
 30
0.0
 11
102.7619815498178042
 21
55.796413927386638
 31
0.0
  0
ARC
  5
1E1C
  8
0
 10
103.4629880008591982
 20
77.2836328577300264
 30
0.0
 40
3.4823172428519009
 50
90.0216844089808319
 51
92.491429740293853
  0
LINE
  5
1E1E
  8
0
 10
99.1848575064094149
 20
87.4216204030866493
 30
0.0
 11
101.6868826296261972
 21
87.4216204030866493
 31
0.0
  0
LINE
  5
1E1F
  8
0
 10
118.531569997217801
 20
82.17100916698665
 30
0.0
 11
118.531569997217801
 21
80.3608646118866261
 31
0.0
  0
ENDSEC
  0
EOF
