  0
SECTION
  2
HEADER
  9
$ACADVER
  1
AC1009
  9
$INSBASE
 10
3961.5014061267052057
 20
64.2056617387880948
 30
0.0
  9
$EXTMIN
 10
3958.1264061267052057
 20
64.2004502415277045
 30
0.0
  9
$EXTMAX
 10
3962.7514061267052057
 20
67.9106617387880931
 30
0.0
  9
$LIMMIN
 10
0.0
 20
0.0
  9
$LIMMAX
 10
11.6929133858000007
 20
8.2677165353999982
  9
$ORTHOMODE
 70
     0
  9
$REGENMODE
 70
     1
  9
$FILLMODE
 70
     1
  9
$QTEXTMODE
 70
     0
  9
$MIRRTEXT
 70
     0
  9
$DRAGMODE
 70
     2
  9
$LTSCALE
 40
0.6431102362
  9
$OSMODE
 70
  4095
  9
$ATTMODE
 70
     1
  9
$TEXTSIZE
 40
0.2
  9
$TRACEWID
 40
0.05
  9
$TEXTSTYLE
  7
STANDARD
  9
$CLAYER
  8
0
  9
$CELTYPE
  6
BYLAYER
  9
$CECOLOR
 62
   256
  9
$DIMSCALE
 40
1.0
  9
$DIMASZ
 40
0.1875
  9
$DIMEXO
 40
0.0625
  9
$DIMDLI
 40
0.4443307087
  9
$DIMRND
 40
0.0
  9
$DIMDLE
 40
0.0
  9
$DIMEXE
 40
0.125
  9
$DIMTP
 40
0.01
  9
$DIMTM
 40
0.01
  9
$DIMTXT
 40
2.0
  9
$DIMCEN
 40
0.1052362205
  9
$DIMTSZ
 40
0.0
  9
$DIMTOL
 70
     1
  9
$DIMLIM
 70
     0
  9
$DIMTIH
 70
     1
  9
$DIMTOH
 70
     1
  9
$DIMSE1
 70
     0
  9
$DIMSE2
 70
     0
  9
$DIMTAD
 70
     0
  9
$DIMZIN
 70
     0
  9
$DIMBLK
  1

  9
$DIMASO
 70
     1
  9
$DIMSHO
 70
     1
  9
$DIMPOST
  1
\X
  9
$DIMAPOST
  1

  9
$DIMALT
 70
     1
  9
$DIMALTD
 70
     2
  9
$DIMALTF
 40
25.3999999999999986
  9
$DIMLFAC
 40
1.0
  9
$DIMTOFL
 70
     0
  9
$DIMTVP
 40
0.0
  9
$DIMTIX
 70
     0
  9
$DIMSOXD
 70
     0
  9
$DIMSAH
 70
     0
  9
$DIMBLK1
  1

  9
$DIMBLK2
  1

  9
$DIMSTYLE
  2
STANDARD
  9
$DIMCLRD
 70
     0
  9
$DIMCLRE
 70
     0
  9
$DIMCLRT
 70
     0
  9
$DIMTFAC
 40
1.0
  9
$DIMGAP
 40
0.09
  9
$LUNITS
 70
     2
  9
$LUPREC
 70
     4
  9
$SKETCHINC
 40
0.1
  9
$FILLETRAD
 40
0.0
  9
$AUNITS
 70
     0
  9
$AUPREC
 70
     0
  9
$MENU
  1
.
  9
$ELEVATION
 40
0.0
  9
$PELEVATION
 40
0.0
  9
$THICKNESS
 40
0.0
  9
$LIMCHECK
 70
     0
  9
$BLIPMODE
 70
     0
  9
$CHAMFERA
 40
0.0
  9
$CHAMFERB
 40
0.0
  9
$SKPOLY
 70
     0
  9
$TDCREATE
 40
2458060.468368056230247
  9
$TDUPDATE
 40
2460241.4355555549263954
  9
$TDINDWG
 40
0.4232478009
  9
$TDUSRTIMER
 40
0.4232478009
  9
$USRTIMER
 70
     1
  9
$ANGBASE
 50
0.0
  9
$ANGDIR
 70
     0
  9
$PDMODE
 70
     0
  9
$PDSIZE
 40
0.3125
  9
$PLINEWID
 40
0.0
  9
$COORDS
 70
     1
  9
$SPLFRAME
 70
     0
  9
$SPLINETYPE
 70
     6
  9
$SPLINESEGS
 70
     8
  9
$ATTDIA
 70
     1
  9
$ATTREQ
 70
     1
  9
$HANDLING
 70
     1
  9
$HANDSEED
  5
7BAB
  9
$SURFTAB1
 70
     6
  9
$SURFTAB2
 70
     6
  9
$SURFTYPE
 70
     6
  9
$SURFU
 70
     6
  9
$SURFV
 70
     6
  9
$UCSNAME
  2

  9
$UCSORG
 10
0.0
 20
0.0
 30
0.0
  9
$UCSXDIR
 10
1.0
 20
0.0
 30
0.0
  9
$UCSYDIR
 10
0.0
 20
1.0
 30
0.0
  9
$PUCSNAME
  2

  9
$PUCSORG
 10
0.0
 20
0.0
 30
0.0
  9
$PUCSXDIR
 10
1.0
 20
0.0
 30
0.0
  9
$PUCSYDIR
 10
0.0
 20
1.0
 30
0.0
  9
$USERI1
 70
     0
  9
$USERI2
 70
     0
  9
$USERI3
 70
     0
  9
$USERI4
 70
     0
  9
$USERI5
 70
     0
  9
$USERR1
 40
0.0
  9
$USERR2
 40
0.0
  9
$USERR3
 40
0.0
  9
$USERR4
 40
0.0
  9
$USERR5
 40
0.0
  9
$WORLDVIEW
 70
     1
  9
$SHADEDGE
 70
     3
  9
$SHADEDIF
 70
    70
  9
$TILEMODE
 70
     1
  9
$MAXACTVP
 70
    64
  9
$PLIMCHECK
 70
     0
  9
$PEXTMIN
 10
1.0000000000000000E+20
 20
1.0000000000000000E+20
 30
1.0000000000000000E+20
  9
$PEXTMAX
 10
-1.0000000000000000E+20
 20
-1.0000000000000000E+20
 30
-1.0000000000000000E+20
  9
$PLIMMIN
 10
0.0
 20
0.0
  9
$PLIMMAX
 10
12.0
 20
9.0
  9
$UNITMODE
 70
     0
  9
$VISRETAIN
 70
     1
  9
$PLINEGEN
 70
     0
  9
$PSLTSCALE
 70
     1
  0
ENDSEC
  0
SECTION
  2
TABLES
  0
TABLE
  2
VPORT
 70
     1
  0
VPORT
  2
*ACTIVE
 70
     0
 10
0.0
 20
0.0
 11
1.0
 21
1.0
 12
168.0809959704546941
 22
-54.1251004429475699
 13
0.0
 23
0.0
 14
1.0
 24
1.0
 15
0.0
 25
0.0
 16
0.0
 26
0.0
 36
5.1040778033513332
 17
3792.35791015625
 27
120.1806564331053977
 37
0.0
 40
3.7396187218093502
 41
2.5251322751322749
 42
50.0
 43
0.0
 44
0.0
 50
0.0
 51
0.0
 71
     0
 72
   100
 73
     1
 74
     1
 75
     0
 76
     0
 77
     0
 78
     0
  0
ENDTAB
  0
TABLE
  2
LTYPE
 70
     2
  0
LTYPE
  2
CONTINUOUS
 70
     0
  3
Solid line
 72
    65
 73
     0
 40
0.0
  0
LTYPE
  2
PHANTOM2
 70
     0
  3
___ _ _ ___ _ _ ___ _ _ ___ _ _
 72
    65
 73
     6
 40
1.25
 49
0.625
 49
-0.125
 49
0.125
 49
-0.125
 49
0.125
 49
-0.125
  0
ENDTAB
  0
TABLE
  2
LAYER
 70
     2
  0
LAYER
  2
0
 70
     0
 62
   255
  6
CONTINUOUS
  0
LAYER
  2
DEFPOINTS
 70
     0
 62
     7
  6
CONTINUOUS
  0
ENDTAB
  0
TABLE
  2
STYLE
 70
     1
  0
STYLE
  2
STANDARD
 70
     0
 40
0.0
 41
0.8
 50
0.0
 71
     0
 42
0.2
  3
txt
  4

  0
ENDTAB
  0
TABLE
  2
VIEW
 70
     0
  0
ENDTAB
  0
TABLE
  2
UCS
 70
     0
  0
ENDTAB
  0
TABLE
  2
APPID
 70
     9
  0
APPID
  2
ACAD
 70
     0
  0
APPID
  2
ACAD_MLEADERVER
 70
     0
  0
APPID
  2
ACAD_EXEMPT_FROM_CAD_STANDARDS
 70
     0
  0
APPID
  2
ACAD_NAV_VCDISPLAY
 70
     0
  0
APPID
  2
ACAECLAYERSTANDARD
 70
     0
  0
APPID
  2
ACCMTRANSPARENCY
 70
     0
  0
APPID
  2
ACAD_DSTYLE_DIMJAG
 70
     0
  0
APPID
  2
ACAD_DSTYLE_DIMTALN
 70
     0
  0
APPID
  2
ACDBATTR
 70
     0
  0
ENDTAB
  0
TABLE
  2
DIMSTYLE
 70
     1
  0
DIMSTYLE
  2
STANDARD
 70
     0
  3

  4

  5

  6

  7

 40
1.0
 41
0.1875
 42
0.0625
 43
0.38
 44
0.125
 45
0.0
 46
0.0
 47
0.01
 48
0.01
140
0.15625
141
0.09
142
0.0
143
25.3999999999999986
144
1.0
145
0.0
146
1.0
147
0.09
 71
     1
 72
     0
 73
     1
 74
     1
 75
     0
 76
     0
 77
     0
 78
     4
170
     0
171
     2
172
     0
173
     0
174
     0
175
     0
176
     0
177
     0
178
     0
  0
ENDTAB
  0
ENDSEC
  0
SECTION
  2
BLOCKS
  0
BLOCK
  8
0
  2
$MODEL_SPACE
 70
     0
 10
0.0
 20
0.0
 30
0.0
  3
$MODEL_SPACE
  1

  0
ENDBLK
  5
21
  8
0
  0
BLOCK
 67
     1
  8
0
  2
$PAPER_SPACE
 70
     0
 10
0.0
 20
0.0
 30
0.0
  3
$PAPER_SPACE
  1

  0
ENDBLK
  5
1D
 67
     1
  8
0
  0
BLOCK
  8
0
  2
_FILLED
 70
     0
 10
0.0
 20
0.0
 30
0.0
  3
_FILLED
  1

  0
SOLID
  5
69B4
  8
0
  6
BYBLOCK
 62
     0
 10
0.0
 20
0.0
 30
0.0
 11
-1.0
 21
0.1666666667
 31
0.0
 12
-1.0
 22
-0.1666666667
 32
0.0
 13
-1.0
 23
-0.1666666667
 33
0.0
  0
ENDBLK
  5
69B5
  8
0
  6
BYBLOCK
 62
     0
  0
BLOCK
  8
0
  2
A$CDFAF6206
 70
     0
 10
0.0
 20
0.0
 30
0.0
  3
A$CDFAF6206
  1

  0
LINE
  5
6A0E
  8
0
 10
7.4646650085734834
 20
10.9287685970688493
 30
0.0
 11
7.4646650085734896
 21
10.8905784766688498
 31
0.0
  0
ARC
  5
6A0F
  8
0
 10
7.7269027075262349
 20
10.8926811525838598
 30
0.0
 40
0.2622461286616791
 50
180.4593995232625048
 51
217.0214027758331099
  0
LINE
  5
6A10
  8
0
 10
9.767814609867095
 20
10.9287685970688493
 30
0.0
 11
9.767814609867095
 21
10.8905433757650094
 31
0.0
  0
ARC
  5
6A11
  8
0
 10
9.5068669568548287
 20
10.8922438613003703
 30
0.0
 40
0.2609531936261092
 50
322.8847083717149076
 51
359.6266329125650145
  0
LINE
  5
6A12
  8
0
 10
7.517522606271406
 20
10.7347792678688396
 30
0.0
 11
9.7149570120691777
 21
10.7347792678688396
 31
0.0
  0
LINE
  5
6A13
  8
0
 10
7.4646650085734834
 20
10.9287685970688493
 30
0.0
 11
9.7678146123202936
 21
10.9287685970688493
 31
0.0
  0
ARC
  5
6A14
  8
0
 10
4.0826771419203629
 20
8.527951346868889
 30
0.0
 40
4.0826771653999172
 50
13.3117747050523896
 51
32.7200330051415591
  0
ARC
  5
6A15
  8
0
 10
4.0826771460567306
 20
8.5279513475907933
 30
0.0
 40
4.0826771612084691
 50
359.6656501984817851
 51
13.3117747085593798
  0
ARC
  5
6A16
  8
0
 10
13.1498041284835097
 20
8.5279508235212234
 30
0.0
 40
4.0826788382043553
 50
147.2799733478981068
 51
166.6882233021349862
  0
ARC
  5
6A17
  8
0
 10
13.1498064934207992
 20
8.5279506557033251
 30
0.0
 40
4.0826811782395342
 50
166.688228652086309
 51
180.3343397625230011
  0
LINE
  5
6A18
  8
0
 10
8.1652847935202928
 20
8.504127000268852
 30
0.0
 11
9.0671948248202892
 21
8.5041270002687881
 31
0.0
  0
LINE
  5
6A19
  8
0
 10
8.1652847935202786
 20
8.5041270002667204
 30
0.0
 11
8.1652847935202928
 21
8.3607006934688481
 31
0.0
  0
ARC
  5
6A1A
  8
0
 10
5.6196779630382627
 20
8.3631022096452732
 30
0.0
 40
2.545607963272567
 50
342.0511668832173768
 51
359.945947387132378
  0
LINE
  5
6A1B
  8
0
 10
9.0671948248202892
 20
8.5041270002687881
 30
0.0
 11
9.0671948248202892
 21
8.2885990108688503
 31
0.0
  0
ARC
  5
6A1C
  8
0
 10
9.4521885297801163
 20
7.9614488056228501
 30
0.0
 40
0.5052201595850959
 50
139.6436242991769916
 51
174.6757930071850069
  0
ARC
  5
6A1D
  8
0
 10
9.9238413395551746
 20
8.1492417579399508
 30
0.0
 40
0.9848265662939324
 50
188.2263441834095943
 51
209.5593615864376034
  0
ARC
  5
6A1E
  8
0
 10
8.0788764238271256
 20
7.5665710856463297
 30
0.0
 40
0.0393715937169877
 50
162.1669117288323037
 51
227.2023190037006088
  0
ARC
  5
6A1F
  8
0
 10
8.7223682141740682
 20
8.2079667397440517
 30
0.0
 40
0.947895137885075
 50
225.0018610752970858
 51
261.4598823366255829
  0
ARC
  5
6A20
  8
0
 10
8.6645157662702701
 20
8.1695128573935332
 30
0.0
 40
0.9027466462812931
 50
264.7303071214498118
 51
281.8608311947915013
  0
ARC
  5
6A21
  8
0
 10
8.6645157662698935
 20
8.1695128573999671
 30
0.0
 40
0.9027466462876658
 50
299.1741886792128753
 51
299.1743179154552195
  0
ARC
  5
6A22
  8
0
 10
9.0843330931590316
 20
7.4150554710086141
 30
0.0
 40
0.0393703053609601
 50
251.9700352025496954
 51
252.4698971938937859
  0
ARC
  5
6A23
  8
0
 10
9.0843330931590316
 20
7.4150554710086141
 30
0.0
 40
0.0393703053609601
 50
297.2453716727138726
 51
6.8376113572703074
  0
LINE
  5
6A24
  8
0
 10
9.0671948248202892
 20
7.663402160468852
 30
0.0
 11
9.1234233799329516
 21
7.419742732911689
 31
0.0
  0
ARC
  5
6A25
  8
0
 10
8.8843741880892395
 20
9.8961379890094676
 30
0.0
 40
2.5255097382132701
 50
263.792800240752797
 51
274.9514951129821156
  0
ARC
  5
6A26
  8
0
 10
8.8258167405968848
 20
9.2763025889666508
 30
0.0
 40
1.9029970832759311
 50
246.0108363320686067
 51
263.5276935074397215
  0
ARC
  5
6A27
  8
0
 10
8.607491361665744
 20
8.3225444804829642
 30
0.0
 40
1.064510137163637
 50
283.1717405874071005
 51
297.7022170607311864
  0
LINE
  5
6A28
  8
0
 10
9.0671948248202892
 20
8.2885990108688503
 30
0.0
 11
26.2014378595979593
 21
8.2885990108689942
 31
0.0
  0
LINE
  5
6A29
  8
0
 10
26.2014378595979913
 20
7.6634021604689053
 30
0.0
 11
9.0671948248202892
 21
7.6634021604688618
 31
0.0
  0
LINE
  5
6A2A
  8
0
 10
27.8039676758446994
 20
10.9287685970690802
 30
0.0
 11
27.8039676758446888
 21
10.8905784766690807
 31
0.0
  0
ARC
  5
6A2B
  8
0
 10
27.5417299768919399
 20
10.8926811525840801
 30
0.0
 40
0.2622461286616791
 50
322.9785972241680838
 51
359.5406004767386889
  0
LINE
  5
6A2C
  8
0
 10
25.5008180745510913
 20
10.9287685970690305
 30
0.0
 11
25.5008180745510913
 21
10.8905433757651799
 31
0.0
  0
ARC
  5
6A2D
  8
0
 10
25.7617657275633505
 20
10.8922438613005497
 30
0.0
 40
0.2609531936261092
 50
180.3733670874362929
 51
217.1152916282862861
  0
LINE
  5
6A2E
  8
0
 10
27.7511100781467803
 20
10.7347792678690706
 30
0.0
 11
25.5536756723490015
 21
10.7347792678690208
 31
0.0
  0
LINE
  5
6A2F
  8
0
 10
27.8039676758446888
 20
10.9287685970686006
 30
0.0
 11
25.5008180745510806
 21
10.9287685970686006
 31
0.0
  0
ARC
  5
6A30
  8
0
 10
31.1859555424978616
 20
8.5279513468691981
 30
0.0
 40
4.0826771653999172
 50
147.2799669948597057
 51
166.6882252949490066
  0
ARC
  5
6A31
  8
0
 10
31.185955538361501
 20
8.5279513475911024
 30
0.0
 40
4.0826771612084691
 50
166.6882252914419098
 51
180.3343498015194086
  0
ARC
  5
6A32
  8
0
 10
22.1188285559344706
 20
8.5279508235212251
 30
0.0
 40
4.0826788382046102
 50
13.3117766978667795
 51
32.7200266521023977
  0
ARC
  5
6A33
  8
0
 10
22.1188261909974315
 20
8.5279506557034264
 30
0.0
 40
4.0826811782395342
 50
359.665660237478221
 51
13.31177134791497
  0
LINE
  5
6A34
  8
0
 10
27.1033478908979397
 20
8.5041270002690652
 30
0.0
 11
26.2014378595979416
 21
8.5041270002689835
 31
0.0
  0
LINE
  5
6A35
  8
0
 10
27.1033478908979504
 20
8.5041270002669354
 30
0.0
 11
27.1033478908979397
 21
8.3607006934690649
 31
0.0
  0
ARC
  5
6A36
  8
0
 10
29.6489547213799689
 20
8.3631022096455467
 30
0.0
 40
2.545607963272567
 50
180.0540526128687873
 51
197.9488331167837032
  0
LINE
  5
6A37
  8
0
 10
26.2014378595979416
 20
8.5041270002689835
 30
0.0
 11
26.2014378595979487
 21
8.2885990108690457
 31
0.0
  0
ARC
  5
6A38
  8
0
 10
25.8164441546381305
 20
7.9614488056230366
 30
0.0
 40
0.5052201595850959
 50
5.324206992816312
 51
40.3563757008241879
  0
ARC
  5
6A39
  8
0
 10
25.3447913448601803
 20
8.149241757940846
 30
0.0
 40
0.9848265662968968
 50
330.4406384136033807
 51
351.7736558165743759
  0
ARC
  5
6A3A
  8
0
 10
27.1897562605911212
 20
7.5665710856465473
 30
0.0
 40
0.0393715937169877
 50
312.7976809963004143
 51
17.8330882711689185
  0
ARC
  5
6A3B
  8
0
 10
26.5462644702441715
 20
8.2079667397442542
 30
0.0
 40
0.947895137885075
 50
278.5401176633754972
 51
314.9981389247041079
  0
ARC
  5
6A3C
  8
0
 10
26.6041169181479695
 20
8.1695128573937392
 30
0.0
 40
0.9027466462812931
 50
258.139168805210204
 51
275.2696928785518935
  0
ARC
  5
6A3D
  8
0
 10
26.6041169181483497
 20
8.1695128574001732
 30
0.0
 40
0.9027466462876658
 50
240.8256820845460027
 51
240.8258113207880058
  0
ARC
  5
6A3E
  8
0
 10
26.1842995912592293
 20
7.4150554710088086
 30
0.0
 40
0.0393703053609601
 50
287.5301028061073794
 51
288.0299647974517825
  0
ARC
  5
6A3F
  8
0
 10
26.1842995912592293
 20
7.4150554710088086
 30
0.0
 40
0.0393703053609601
 50
173.1623886427310026
 51
242.7546283272870085
  0
LINE
  5
6A40
  8
0
 10
26.2014378595981192
 20
7.6634021604690448
 30
0.0
 11
26.1452093044853093
 21
7.4197427329118826
 31
0.0
  0
ARC
  5
6A41
  8
0
 10
26.384258496328961
 20
9.8961379890096666
 30
0.0
 40
2.5255097382132701
 50
265.0485048870193054
 51
276.2071997592482262
  0
ARC
  5
6A42
  8
0
 10
26.4428159438213299
 20
9.2763025889668516
 30
0.0
 40
1.9029970832759311
 50
276.4723064925619838
 51
293.9891636679327007
  0
ARC
  5
6A43
  8
0
 10
26.6611413227524885
 20
8.3225444804831703
 30
0.0
 40
1.064510137163637
 50
242.2977829392704052
 51
256.8282594125943774
  0
LINE
  5
6A44
  8
0
 62
     4
 10
17.9031473532159602
 20
10.9287685970686006
 30
0.0
 11
24.6329820359843588
 21
20.0952817181593808
 31
0.0
  0
LINE
  5
6A45
  8
0
 62
     4
 10
17.9031473532159602
 20
-0.0000000300842942
 30
0.0
 11
22.3963351323106608
 21
4.993614497796286
 31
0.0
  0
ENDBLK
  5
6A49
  8
0
  0
ENDSEC
  0
SECTION
  2
ENTITIES
  0
ATTDEF
  5
3930
  8
DEFPOINTS
 10
3961.498553995443217
 20
64.2037835748610632
 30
0.0
 40
0.001
  1
P80237-LV
  3

  2
MODELNUMBER
 70
     0
1001
ACDBATTR
1070
     0
1070
     1
  0
ATTDEF
  5
3931
  8
DEFPOINTS
 10
3961.498553995443217
 20
64.2021169081943839
 30
0.0
 40
0.001
  1
VIR STIL
  3

  2
TRADENAME
 70
     0
1001
ACDBATTR
1070
     0
1070
     1
  0
ATTDEF
  5
3932
  8
DEFPOINTS
 10
3961.498553995443217
 20
64.2004502415277329
 30
0.0
 40
0.001
  1
DIVERTER
  3

  2
PRODUCT
 70
     0
1001
ACDBATTR
1070
     0
1070
     1
  0
LINE
  5
789A
  8
0
 10
3960.2514061267052057
 20
64.2056617387880948
 30
0.0
 11
3962.7514061267052057
 21
64.2056617387880948
 31
0.0
  0
LINE
  5
789B
  8
0
 10
3961.0846788805051801
 20
67.7385599774675171
 30
0.0
 11
3961.0846788805051801
 21
67.2466617387880916
 31
0.0
  0
LINE
  5
789C
  8
0
 10
3961.1453797514050166
 20
67.8016617386936105
 30
0.0
 11
3961.1453797514050166
 21
67.7686617387880972
 31
0.0
  0
LINE
  5
789D
  8
0
 10
3960.2514061267052057
 20
64.5206617387880925
 30
0.0
 11
3960.2514061267052057
 21
64.2056617387880948
 31
0.0
  0
LINE
  5
789E
  8
0
 10
3958.1264061267052057
 20
67.738661738788096
 30
0.0
 11
3958.1264061267052057
 21
67.1556643045880861
 31
0.0
  0
LINE
  5
789F
  8
0
 10
3958.294406126704871
 20
67.8016617387880842
 30
0.0
 11
3958.294406126704871
 21
67.7686617387880972
 31
0.0
  0
LINE
  5
78A0
  8
0
 10
3961.0901842429047974
 20
67.9106617387880931
 30
0.0
 11
3961.9126280105051592
 21
67.9106617387880931
 31
0.0
  0
LINE
  5
78A1
  8
0
 10
3961.0901842429047974
 20
67.8266617387880757
 30
0.0
 11
3961.9126280105051592
 21
67.8266617387880757
 31
0.0
  0
LINE
  5
78A2
  8
0
 10
3958.3094061267051984
 20
67.8166617387880848
 30
0.0
 11
3961.9544061267051802
 21
67.8166617387880848
 31
0.0
  0
LINE
  5
78A3
  8
0
 10
3961.0901842429047974
 20
67.9106617387880931
 30
0.0
 11
3961.0901842429047974
 21
67.8266617387880757
 31
0.0
  0
LINE
  5
78A4
  8
0
 10
3961.1564061267058605
 20
67.8266617387880757
 30
0.0
 11
3961.1564061267058605
 21
67.8166617387880848
 31
0.0
  0
LINE
  5
78A5
  8
0
 10
3961.1564061267058605
 20
67.8166617387880848
 30
0.0
 11
3961.1453797514050166
 21
67.8016617386936105
 31
0.0
  0
LINE
  5
78A6
  8
0
 10
3958.3094061267051984
 20
67.8166617387880848
 30
0.0
 11
3958.294406126704871
 21
67.8016617387880842
 31
0.0
  0
LINE
  5
78A7
  8
0
 10
3961.1046817878050206
 20
67.7686617387880972
 30
0.0
 11
3961.0846788805051801
 21
67.7385599774675171
 31
0.0
  0
LINE
  5
78A8
  8
0
 10
3958.1564061269050399
 20
67.7686617387880972
 30
0.0
 11
3962.0964061265049168
 21
67.7686617387880972
 31
0.0
  0
LINE
  5
78A9
  8
0
 10
3958.1564061269050399
 20
67.7686617387880972
 30
0.0
 11
3958.1264061267052057
 21
67.738661738788096
 31
0.0
  0
LINE
  5
78AA
  8
0
 10
3958.1414032161051182
 20
67.1406617387880829
 30
0.0
 11
3962.0486090373051411
 21
67.1406617387880829
 31
0.0
  0
LINE
  5
78AB
  8
0
 10
3958.1264061267052057
 20
67.2166617387880905
 30
0.0
 11
3962.0964061267050056
 21
67.2166617387880905
 31
0.0
  0
LINE
  5
78AC
  8
0
 10
3958.1264061267052057
 20
67.1556643045880861
 30
0.0
 11
3958.1414032161051182
 21
67.1406617387880829
 31
0.0
  0
LINE
  5
78AD
  8
0
 10
3961.0846788805051801
 20
67.2466617387880916
 30
0.0
 11
3961.104681787905065
 21
67.2166617387880905
 31
0.0
  0
LINE
  5
78AE
  8
0
 10
3961.0825459591119397
 20
67.21666229400536
 30
0.0
 11
3961.0825459591119397
 21
67.1556648598053556
 31
0.0
  0
LINE
  5
78AF
  8
0
 10
3961.0825459591119397
 20
67.1556648598053556
 30
0.0
 11
3961.0893014901048446
 21
67.1406604621880945
 31
0.0
  0
LINE
  5
78B0
  8
0
 10
3961.0514061267049328
 20
67.1226617387880822
 30
0.0
 11
3961.9514061267059333
 21
67.1226617387880822
 31
0.0
  0
LINE
  5
78B1
  8
0
 10
3961.1964061267049146
 20
67.1406617387880829
 30
0.0
 11
3961.1964061267049146
 21
67.1226617387880822
 31
0.0
  0
LINE
  5
78B2
  8
0
 10
3960.9239061267048783
 20
67.0536617387880938
 30
0.0
 11
3962.0789061267059878
 21
67.0536617387880938
 31
0.0
  0
LINE
  5
78B3
  8
0
 10
3961.0514061267049328
 20
67.1226617387880822
 30
0.0
 11
3961.0514061267049328
 21
67.0536617387880938
 31
0.0
  0
LINE
  5
78B4
  8
0
 10
3960.8769144668049194
 20
66.9636617387880904
 30
0.0
 11
3962.1258977866050373
 21
66.9636617387880904
 31
0.0
  0
LINE
  5
78B5
  8
0
 10
3960.9239061267048783
 20
67.0536617387880938
 30
0.0
 11
3960.9239061267048783
 21
66.9636617387880904
 31
0.0
  0
LINE
  5
78B6
  8
0
 10
3960.8769144668049194
 20
66.9636617387880904
 30
0.0
 11
3960.8769144668049194
 21
64.8456617387880954
 31
0.0
  0
LINE
  5
78B7
  8
0
 10
3960.8769144668049194
 20
64.8456617387880954
 30
0.0
 11
3962.1258977866050373
 21
64.8456617387880954
 31
0.0
  0
LINE
  5
78B8
  8
0
 10
3960.4709061267049037
 20
64.6606617387880931
 30
0.0
 11
3962.5319061267050529
 21
64.6606617387880931
 31
0.0
  0
LINE
  5
78B9
  8
0
 10
3960.4014061267048419
 20
64.5906617387880857
 30
0.0
 11
3962.6014061267051147
 21
64.5906617387880857
 31
0.0
  0
LINE
  5
78BA
  8
0
 10
3960.2514061267052057
 20
64.5206617387880925
 30
0.0
 11
3962.7514061267052057
 21
64.5206617387880925
 31
0.0
  0
LINE
  5
78BB
  8
0
 10
3960.9239061267048783
 20
64.8456617387880954
 30
0.0
 11
3960.9239061267048783
 21
64.6606617387880931
 31
0.0
  0
LINE
  5
78BC
  8
0
 10
3960.4709061267049037
 20
64.6606617387880931
 30
0.0
 11
3960.4709061267049037
 21
64.5906617387880857
 31
0.0
  0
LINE
  5
78BD
  8
0
 10
3960.4014061267048419
 20
64.5906617387880857
 30
0.0
 11
3960.4014061267048419
 21
64.5206617387880925
 31
0.0
  0
LINE
  5
78BE
  8
0
 10
3962.7514061267052057
 20
64.5206617387880925
 30
0.0
 11
3962.7514061267052057
 21
64.2056617387880948
 31
0.0
  0
LINE
  5
78BF
  8
0
 10
3962.1264061267052057
 20
67.738661738788096
 30
0.0
 11
3962.1264061267052057
 21
67.2466617387880916
 31
0.0
  0
LINE
  5
78C0
  8
0
 10
3961.9694061267050529
 20
67.8016617387880842
 30
0.0
 11
3961.9694061267050529
 21
67.7686617387880972
 31
0.0
  0
LINE
  5
78C1
  8
0
 10
3961.9126280105051592
 20
67.9106617387880931
 30
0.0
 11
3961.9126280105051592
 21
67.8266617387880757
 31
0.0
  0
LINE
  5
78C2
  8
0
 10
3961.8464061267050056
 20
67.8266617387880757
 30
0.0
 11
3961.8464061267050056
 21
67.8166617387880848
 31
0.0
  0
LINE
  5
78C3
  8
0
 10
3961.9544061267051802
 20
67.8166617387880848
 30
0.0
 11
3961.9694061267050529
 21
67.8016617387880842
 31
0.0
  0
LINE
  5
78C4
  8
0
 10
3962.0964061265049168
 20
67.7686617387880972
 30
0.0
 11
3962.1264061267052057
 21
67.738661738788096
 31
0.0
  0
LINE
  5
78C5
  8
0
 10
3962.1264061267052057
 20
67.2466617387880916
 30
0.0
 11
3962.0964061267050056
 21
67.2166617387880905
 31
0.0
  0
LINE
  5
78C6
  8
0
 10
3962.0636061267050536
 20
67.2166617387880905
 30
0.0
 11
3962.0636061267050536
 21
67.1556643045880861
 31
0.0
  0
LINE
  5
78C7
  8
0
 10
3962.0636061267050536
 20
67.1556643045880861
 30
0.0
 11
3962.0486090373051411
 21
67.1406617387880829
 31
0.0
  0
LINE
  5
78C8
  8
0
 10
3961.806406126705042
 20
67.1406617387880829
 30
0.0
 11
3961.806406126705042
 21
67.1226617387880822
 31
0.0
  0
LINE
  5
78C9
  8
0
 10
3961.9514061267059333
 20
67.1226617387880822
 30
0.0
 11
3961.9514061267059333
 21
67.0536617387880938
 31
0.0
  0
LINE
  5
78CA
  8
0
 10
3962.0789061267059878
 20
67.0536617387880938
 30
0.0
 11
3962.0789061267059878
 21
66.9636617387880904
 31
0.0
  0
LINE
  5
78CB
  8
0
 10
3962.1258977866050373
 20
66.9636617387880904
 30
0.0
 11
3962.1258977866050373
 21
64.8456617387880954
 31
0.0
  0
LINE
  5
78CC
  8
0
 10
3962.0789061267059878
 20
64.8456617387880954
 30
0.0
 11
3962.0789061267059878
 21
64.6606617387880931
 31
0.0
  0
LINE
  5
78CD
  8
0
 10
3962.5319061267050529
 20
64.6606617387880931
 30
0.0
 11
3962.5319061267050529
 21
64.5906617387880857
 31
0.0
  0
LINE
  5
78CE
  8
0
 10
3962.6014061267051147
 20
64.5906617387880857
 30
0.0
 11
3962.6014061267051147
 21
64.5206617387880925
 31
0.0
  0
LINE
  5
78CF
  8
0
 10
3960.88289392800516
 20
66.9636617387880904
 30
0.0
 11
3960.88289392800516
 21
64.8456617387880954
 31
0.0
  0
LINE
  5
78D0
  8
0
 10
3960.8955403762051901
 20
66.9636617387880904
 30
0.0
 11
3960.8955403762051901
 21
64.8456617387880954
 31
0.0
  0
LINE
  5
78D1
  8
0
 10
3960.899636083805035
 20
66.9636617387880904
 30
0.0
 11
3960.899636083805035
 21
64.8456617387880954
 31
0.0
  0
LINE
  5
78D2
  8
0
 10
3960.912354574505116
 20
66.9636617387880904
 30
0.0
 11
3960.912354574505116
 21
64.8456617387880954
 31
0.0
  0
LINE
  5
78D3
  8
0
 10
3960.9153381669048031
 20
66.9636617387880904
 30
0.0
 11
3960.9153381669048031
 21
64.8456617387880954
 31
0.0
  0
LINE
  5
78D4
  8
0
 10
3960.9205784024052264
 20
66.9636617387880904
 30
0.0
 11
3960.9205784024052264
 21
64.8456617387880954
 31
0.0
  0
LINE
  5
78D5
  8
0
 10
3960.9339390124050624
 20
66.9636617387880904
 30
0.0
 11
3960.9339390124050624
 21
64.8456617387880954
 31
0.0
  0
LINE
  5
78D6
  8
0
 10
3960.940208478104978
 20
66.9636617387880904
 30
0.0
 11
3960.940208478104978
 21
64.8456617387880954
 31
0.0
  0
LINE
  5
78D7
  8
0
 10
3960.9478843911051626
 20
66.9636617387880904
 30
0.0
 11
3960.9478843911051626
 21
64.8456617387880954
 31
0.0
  0
LINE
  5
78D8
  8
0
 10
3960.9617407388050196
 20
66.9636617387880904
 30
0.0
 11
3960.9617407388050196
 21
64.8456617387880954
 31
0.0
  0
LINE
  5
78D9
  8
0
 10
3960.9717407388047832
 20
66.9636617387880904
 30
0.0
 11
3960.9717407388047832
 21
64.8456617387880954
 31
0.0
  0
LINE
  5
78DA
  8
0
 10
3960.9812548797049203
 20
66.9636617387880904
 30
0.0
 11
3960.9812548797049203
 21
64.8456617387880954
 31
0.0
  0
LINE
  5
78DB
  8
0
 10
3960.9954551522050679
 20
66.9636617387880904
 30
0.0
 11
3960.9954551522050679
 21
64.8456617387880954
 31
0.0
  0
LINE
  5
78DC
  8
0
 10
3961.0039430833048755
 20
66.9636617387880904
 30
0.0
 11
3961.0039430833048755
 21
64.8456617387880954
 31
0.0
  0
LINE
  5
78DD
  8
0
 10
3961.0111220165049417
 20
66.9636617387880904
 30
0.0
 11
3961.0111220165049417
 21
64.8456617387880954
 31
0.0
  0
LINE
  5
78DE
  8
0
 10
3961.0203242542052067
 20
66.9636617387880904
 30
0.0
 11
3961.0203242542052067
 21
64.8456617387880954
 31
0.0
  0
LINE
  5
78DF
  8
0
 10
3961.0347128703051567
 20
66.9636617387880904
 30
0.0
 11
3961.0347128703051567
 21
64.8456617387880954
 31
0.0
  0
LINE
  5
78E0
  8
0
 10
3961.0425096930048312
 20
66.9636617387880904
 30
0.0
 11
3961.0425096930048312
 21
64.8456617387880954
 31
0.0
  0
LINE
  5
78E1
  8
0
 10
3961.054324793205069
 20
66.9636617387880904
 30
0.0
 11
3961.054324793205069
 21
64.8456617387880954
 31
0.0
  0
LINE
  5
78E2
  8
0
 10
3961.0646644625048793
 20
66.9636617387880904
 30
0.0
 11
3961.0646644625048793
 21
64.8456617387880954
 31
0.0
  0
LINE
  5
78E3
  8
0
 10
3961.0790837773051862
 20
66.9636617387880904
 30
0.0
 11
3961.0790837773051862
 21
64.8456617387880954
 31
0.0
  0
LINE
  5
78E4
  8
0
 10
3961.0861040680051701
 20
66.9636617387880904
 30
0.0
 11
3961.0861040680051701
 21
64.8456617387880954
 31
0.0
  0
LINE
  5
78E5
  8
0
 10
3961.0988095704051375
 20
66.9636617387880904
 30
0.0
 11
3961.0988095704051375
 21
64.8456617387880954
 31
0.0
  0
LINE
  5
78E6
  8
0
 10
3961.1024258865049887
 20
66.9636617387880904
 30
0.0
 11
3961.1024258865049887
 21
64.8456617387880954
 31
0.0
  0
LINE
  5
78E7
  8
0
 10
3961.1137897037051516
 20
66.9636617387880904
 30
0.0
 11
3961.1137897037051516
 21
64.8456617387880954
 31
0.0
  0
LINE
  5
78E8
  8
0
 10
3961.1280817364049653
 20
66.9636617387880904
 30
0.0
 11
3961.1280817364049653
 21
64.8456617387880954
 31
0.0
  0
LINE
  5
78E9
  8
0
 10
3961.1482166018049611
 20
66.9636617387880904
 30
0.0
 11
3961.1482166018049611
 21
64.8456617387880954
 31
0.0
  0
LINE
  5
78EA
  8
0
 10
3961.1548982908047947
 20
66.9636617387880904
 30
0.0
 11
3961.1548982908047947
 21
64.8456617387880954
 31
0.0
  0
LINE
  5
78EB
  8
0
 10
3961.1671617517049526
 20
66.9636617387880904
 30
0.0
 11
3961.1671617517049526
 21
64.8456617387880954
 31
0.0
  0
LINE
  5
78EC
  8
0
 10
3961.1811699157037765
 20
66.9636617387880904
 30
0.0
 11
3961.1811699157037765
 21
64.8456617387880954
 31
0.0
  0
LINE
  5
78ED
  8
0
 10
3961.2000759996049055
 20
66.9636617387880904
 30
0.0
 11
3961.2000759996049055
 21
64.8456617387880954
 31
0.0
  0
LINE
  5
78EE
  8
0
 10
3961.2111671075049344
 20
66.9636617387880904
 30
0.0
 11
3961.2111671075049344
 21
64.8456617387880954
 31
0.0
  0
LINE
  5
78EF
  8
0
 10
3961.2241958509048345
 20
66.9636617387880904
 30
0.0
 11
3961.2241958509048345
 21
64.8456617387880954
 31
0.0
  0
LINE
  5
78F0
  8
0
 10
3961.2377666699048859
 20
66.9636617387880904
 30
0.0
 11
3961.2377666699048859
 21
64.8456617387880954
 31
0.0
  0
LINE
  5
78F1
  8
0
 10
3961.2552368334049788
 20
66.9636617387880904
 30
0.0
 11
3961.2552368334049788
 21
64.8456617387880954
 31
0.0
  0
LINE
  5
78F2
  8
0
 10
3961.264308488205188
 20
66.9636617387880904
 30
0.0
 11
3961.264308488205188
 21
64.8456617387880954
 31
0.0
  0
LINE
  5
78F3
  8
0
 10
3961.2706158437049453
 20
66.9636617387880904
 30
0.0
 11
3961.2706158437049453
 21
64.8456617387880954
 31
0.0
  0
LINE
  5
78F4
  8
0
 10
3961.2842671239050105
 20
66.9636617387880904
 30
0.0
 11
3961.2842671239050105
 21
64.8456617387880954
 31
0.0
  0
LINE
  5
78F5
  8
0
 10
3961.2972519131049012
 20
66.9636617387880904
 30
0.0
 11
3961.2972519131049012
 21
64.8456617387880954
 31
0.0
  0
LINE
  5
78F6
  8
0
 10
3961.3130947494050815
 20
66.9636617387880904
 30
0.0
 11
3961.3130947494050815
 21
64.8456617387880954
 31
0.0
  0
LINE
  5
78F7
  8
0
 10
3961.3226053146049708
 20
66.9636617387880904
 30
0.0
 11
3961.3226053146049708
 21
64.8456617387880954
 31
0.0
  0
LINE
  5
78F8
  8
0
 10
3961.3325931664048767
 20
66.9636617387880904
 30
0.0
 11
3961.3325931664048767
 21
64.8456617387880954
 31
0.0
  0
LINE
  5
78F9
  8
0
 10
3961.3467174173051717
 20
66.9636617387880904
 30
0.0
 11
3961.3467174173051717
 21
64.8456617387880954
 31
0.0
  0
LINE
  5
78FA
  8
0
 10
3961.3589739127050962
 20
66.9636617387880904
 30
0.0
 11
3961.3589739127050962
 21
64.8456617387880954
 31
0.0
  0
LINE
  5
78FB
  8
0
 10
3961.3730158443049731
 20
66.9636617387880904
 30
0.0
 11
3961.3730158443049731
 21
64.8456617387880954
 31
0.0
  0
LINE
  5
78FC
  8
0
 10
3961.3827973203051442
 20
66.9636617387880904
 30
0.0
 11
3961.3827973203051442
 21
64.8456617387880954
 31
0.0
  0
LINE
  5
78FD
  8
0
 10
3961.3964200393052124
 20
66.9636617387880904
 30
0.0
 11
3961.3964200393052124
 21
64.8456617387880954
 31
0.0
  0
LINE
  5
78FE
  8
0
 10
3961.4108625126050356
 20
66.9636617387880904
 30
0.0
 11
3961.4108625126050356
 21
64.8456617387880954
 31
0.0
  0
LINE
  5
78FF
  8
0
 10
3961.42225642930498
 20
66.9636617387880904
 30
0.0
 11
3961.42225642930498
 21
64.8456617387880954
 31
0.0
  0
LINE
  5
7900
  8
0
 10
3961.4343436100048166
 20
66.9636617387880904
 30
0.0
 11
3961.4343436100048166
 21
64.8456617387880954
 31
0.0
  0
LINE
  5
7901
  8
0
 10
3961.4442888290050178
 20
66.9636617387880904
 30
0.0
 11
3961.4442888290050178
 21
64.8456617387880954
 31
0.0
  0
LINE
  5
7902
  8
0
 10
3961.4613971617059178
 20
66.9636617387880904
 30
0.0
 11
3961.4613971617059178
 21
64.8456617387880954
 31
0.0
  0
LINE
  5
7903
  8
0
 10
3961.4759996226048315
 20
66.9636617387880904
 30
0.0
 11
3961.4759996226048315
 21
64.8456617387880954
 31
0.0
  0
LINE
  5
7904
  8
0
 10
3961.4864061267048783
 20
66.9636617387880904
 30
0.0
 11
3961.4864061267048783
 21
64.8456617387880954
 31
0.0
  0
LINE
  5
7905
  8
0
 10
3961.4964061267050965
 20
66.9636617387880904
 30
0.0
 11
3961.4964061267050965
 21
64.8456617387880954
 31
0.0
  0
LINE
  5
7906
  8
0
 10
3962.1199183254047966
 20
66.9636617387880904
 30
0.0
 11
3962.1199183254047966
 21
64.8456617387880954
 31
0.0
  0
LINE
  5
7907
  8
0
 10
3962.1072718772052212
 20
66.9636617387880904
 30
0.0
 11
3962.1072718772052212
 21
64.8456617387880954
 31
0.0
  0
LINE
  5
7908
  8
0
 10
3962.1031761696049216
 20
66.9636617387880904
 30
0.0
 11
3962.1031761696049216
 21
64.8456617387880954
 31
0.0
  0
LINE
  5
7909
  8
0
 10
3962.0904576789048406
 20
66.9636617387880904
 30
0.0
 11
3962.0904576789048406
 21
64.8456617387880954
 31
0.0
  0
LINE
  5
790A
  8
0
 10
3962.0874740865051535
 20
66.9636617387880904
 30
0.0
 11
3962.0874740865051535
 21
64.8456617387880954
 31
0.0
  0
LINE
  5
790B
  8
0
 10
3962.082233851005185
 20
66.9636617387880904
 30
0.0
 11
3962.082233851005185
 21
64.8456617387880954
 31
0.0
  0
LINE
  5
790C
  8
0
 10
3962.0688732410048942
 20
66.9636617387880904
 30
0.0
 11
3962.0688732410048942
 21
64.8456617387880954
 31
0.0
  0
LINE
  5
790D
  8
0
 10
3962.0626037753049786
 20
66.9636617387880904
 30
0.0
 11
3962.0626037753049786
 21
64.8456617387880954
 31
0.0
  0
LINE
  5
790E
  8
0
 10
3962.054927862304794
 20
66.9636617387880904
 30
0.0
 11
3962.054927862304794
 21
64.8456617387880954
 31
0.0
  0
LINE
  5
790F
  8
0
 10
3962.041071514604937
 20
66.9636617387880904
 30
0.0
 11
3962.041071514604937
 21
64.8456617387880954
 31
0.0
  0
LINE
  5
7910
  8
0
 10
3962.0310715146051734
 20
66.9636617387880904
 30
0.0
 11
3962.0310715146051734
 21
64.8456617387880954
 31
0.0
  0
LINE
  5
7911
  8
0
 10
3962.0215573737050363
 20
66.9636617387880904
 30
0.0
 11
3962.0215573737050363
 21
64.8456617387880954
 31
0.0
  0
LINE
  5
7912
  8
0
 10
3962.0073571012048887
 20
66.9636617387880904
 30
0.0
 11
3962.0073571012048887
 21
64.8456617387880954
 31
0.0
  0
LINE
  5
7913
  8
0
 10
3961.9988691701059906
 20
66.9636617387880904
 30
0.0
 11
3961.9988691701059906
 21
64.8456617387880954
 31
0.0
  0
LINE
  5
7914
  8
0
 10
3961.9916902369050149
 20
66.9636617387880904
 30
0.0
 11
3961.9916902369050149
 21
64.8456617387880954
 31
0.0
  0
LINE
  5
7915
  8
0
 10
3961.9824879992038404
 20
66.9636617387880904
 30
0.0
 11
3961.9824879992038404
 21
64.8456617387880954
 31
0.0
  0
LINE
  5
7916
  8
0
 10
3961.9680993831047999
 20
66.9636617387880904
 30
0.0
 11
3961.9680993831047999
 21
64.8456617387880954
 31
0.0
  0
LINE
  5
7917
  8
0
 10
3961.9603025604051254
 20
66.9636617387880904
 30
0.0
 11
3961.9603025604051254
 21
64.8456617387880954
 31
0.0
  0
LINE
  5
7918
  8
0
 10
3961.9484874602048876
 20
66.9636617387880904
 30
0.0
 11
3961.9484874602048876
 21
64.8456617387880954
 31
0.0
  0
LINE
  5
7919
  8
0
 10
3961.9381477909050773
 20
66.9636617387880904
 30
0.0
 11
3961.9381477909050773
 21
64.8456617387880954
 31
0.0
  0
LINE
  5
791A
  8
0
 10
3961.9237284761052251
 20
66.9636617387880904
 30
0.0
 11
3961.9237284761052251
 21
64.8456617387880954
 31
0.0
  0
LINE
  5
791B
  8
0
 10
3961.9167081854047865
 20
66.9636617387880904
 30
0.0
 11
3961.9167081854047865
 21
64.8456617387880954
 31
0.0
  0
LINE
  5
791C
  8
0
 10
3961.9040026830048191
 20
66.9636617387880904
 30
0.0
 11
3961.9040026830048191
 21
64.8456617387880954
 31
0.0
  0
LINE
  5
791D
  8
0
 10
3961.9003863669049679
 20
66.9636617387880904
 30
0.0
 11
3961.9003863669049679
 21
64.8456617387880954
 31
0.0
  0
LINE
  5
791E
  8
0
 10
3961.889022549704805
 20
66.9636617387880904
 30
0.0
 11
3961.889022549704805
 21
64.8456617387880954
 31
0.0
  0
LINE
  5
791F
  8
0
 10
3961.8747305170049913
 20
66.9636617387880904
 30
0.0
 11
3961.8747305170049913
 21
64.8456617387880954
 31
0.0
  0
LINE
  5
7920
  8
0
 10
3961.8545956516049955
 20
66.9636617387880904
 30
0.0
 11
3961.8545956516049955
 21
64.8456617387880954
 31
0.0
  0
LINE
  5
7921
  8
0
 10
3961.8479139626051619
 20
66.9636617387880904
 30
0.0
 11
3961.8479139626051619
 21
64.8456617387880954
 31
0.0
  0
LINE
  5
7922
  8
0
 10
3961.8356505017059135
 20
66.9636617387880904
 30
0.0
 11
3961.8356505017059135
 21
64.8456617387880954
 31
0.0
  0
LINE
  5
7923
  8
0
 10
3961.8216423377048159
 20
66.9636617387880904
 30
0.0
 11
3961.8216423377048159
 21
64.8456617387880954
 31
0.0
  0
LINE
  5
7924
  8
0
 10
3961.8027362538050511
 20
66.9636617387880904
 30
0.0
 11
3961.8027362538050511
 21
64.8456617387880954
 31
0.0
  0
LINE
  5
7925
  8
0
 10
3961.7916451459050222
 20
66.9636617387880904
 30
0.0
 11
3961.7916451459050222
 21
64.8456617387880954
 31
0.0
  0
LINE
  5
7926
  8
0
 10
3961.7786164025051221
 20
66.9636617387880904
 30
0.0
 11
3961.7786164025051221
 21
64.8456617387880954
 31
0.0
  0
LINE
  5
7927
  8
0
 10
3961.7650455835059802
 20
66.9636617387880904
 30
0.0
 11
3961.7650455835059802
 21
64.8456617387880954
 31
0.0
  0
LINE
  5
7928
  8
0
 10
3961.7475754200049778
 20
66.9636617387880904
 30
0.0
 11
3961.7475754200049778
 21
64.8456617387880954
 31
0.0
  0
LINE
  5
7929
  8
0
 10
3961.7385037652052233
 20
66.9636617387880904
 30
0.0
 11
3961.7385037652052233
 21
64.8456617387880954
 31
0.0
  0
LINE
  5
792A
  8
0
 10
3961.7321964097050113
 20
66.9636617387880904
 30
0.0
 11
3961.7321964097050113
 21
64.8456617387880954
 31
0.0
  0
LINE
  5
792B
  8
0
 10
3961.7185451295049461
 20
66.9636617387880904
 30
0.0
 11
3961.7185451295049461
 21
64.8456617387880954
 31
0.0
  0
LINE
  5
792C
  8
0
 10
3961.7055603403050554
 20
66.9636617387880904
 30
0.0
 11
3961.7055603403050554
 21
64.8456617387880954
 31
0.0
  0
LINE
  5
792D
  8
0
 10
3961.6897175040048751
 20
66.9636617387880904
 30
0.0
 11
3961.6897175040048751
 21
64.8456617387880954
 31
0.0
  0
LINE
  5
792E
  8
0
 10
3961.6802069388049858
 20
66.9636617387880904
 30
0.0
 11
3961.6802069388049858
 21
64.8456617387880954
 31
0.0
  0
LINE
  5
792F
  8
0
 10
3961.6702190870050799
 20
66.9636617387880904
 30
0.0
 11
3961.6702190870050799
 21
64.8456617387880954
 31
0.0
  0
LINE
  5
7930
  8
0
 10
3961.6560948361047849
 20
66.9636617387880904
 30
0.0
 11
3961.6560948361047849
 21
64.8456617387880954
 31
0.0
  0
LINE
  5
7931
  8
0
 10
3961.6438383407048605
 20
66.9636617387880904
 30
0.0
 11
3961.6438383407048605
 21
64.8456617387880954
 31
0.0
  0
LINE
  5
7932
  8
0
 10
3961.629796409105893
 20
66.9636617387880904
 30
0.0
 11
3961.629796409105893
 21
64.8456617387880954
 31
0.0
  0
LINE
  5
7933
  8
0
 10
3961.6200149331048124
 20
66.9636617387880904
 30
0.0
 11
3961.6200149331048124
 21
64.8456617387880954
 31
0.0
  0
LINE
  5
7934
  8
0
 10
3961.6063922141038347
 20
66.9636617387880904
 30
0.0
 11
3961.6063922141038347
 21
64.8456617387880954
 31
0.0
  0
LINE
  5
7935
  8
0
 10
3961.591949740804921
 20
66.9636617387880904
 30
0.0
 11
3961.591949740804921
 21
64.8456617387880954
 31
0.0
  0
LINE
  5
7936
  8
0
 10
3961.5805558241049766
 20
66.9636617387880904
 30
0.0
 11
3961.5805558241049766
 21
64.8456617387880954
 31
0.0
  0
LINE
  5
7937
  8
0
 10
3961.56846864340514
 20
66.9636617387880904
 30
0.0
 11
3961.56846864340514
 21
64.8456617387880954
 31
0.0
  0
LINE
  5
7938
  8
0
 10
3961.5585234244049389
 20
66.9636617387880904
 30
0.0
 11
3961.5585234244049389
 21
64.8456617387880954
 31
0.0
  0
LINE
  5
7939
  8
0
 10
3961.5414150917049483
 20
66.9636617387880904
 30
0.0
 11
3961.5414150917049483
 21
64.8456617387880954
 31
0.0
  0
LINE
  5
793A
  8
0
 10
3961.5268126308042156
 20
66.9636617387880904
 30
0.0
 11
3961.5268126308042156
 21
64.8456617387880954
 31
0.0
  0
LINE
  5
793B
  8
0
 10
3961.5164061267050783
 20
66.9636617387880904
 30
0.0
 11
3961.5164061267050783
 21
64.8456617387880954
 31
0.0
  0
LINE
  5
793C
  8
0
 10
3961.5064061267048601
 20
66.9636617387880904
 30
0.0
 11
3961.5064061267048601
 21
64.8456617387880954
 31
0.0
  0
LINE
  5
793D
  8
0
 10
3961.0912580378048915
 20
67.9106617387880931
 30
0.0
 11
3961.0912580378048915
 21
67.8266617387880757
 31
0.0
  0
LINE
  5
793E
  8
0
 10
3961.0990348117052235
 20
67.9106617387880931
 30
0.0
 11
3961.0990348117052235
 21
67.8266617387880757
 31
0.0
  0
LINE
  5
793F
  8
0
 10
3961.1024116836051689
 20
67.9106617387880931
 30
0.0
 11
3961.1024116836051689
 21
67.8266617387880757
 31
0.0
  0
LINE
  5
7940
  8
0
 10
3961.1151861847051805
 20
67.9106617387880931
 30
0.0
 11
3961.1151861847051805
 21
67.8266617387880757
 31
0.0
  0
LINE
  5
7941
  8
0
 10
3961.1175468645051296
 20
67.9106617387880931
 30
0.0
 11
3961.1175468645051296
 21
67.8266617387880757
 31
0.0
  0
LINE
  5
7942
  8
0
 10
3961.1182468829051686
 20
67.9106617387880931
 30
0.0
 11
3961.1182468829051686
 21
67.8266617387880757
 31
0.0
  0
LINE
  5
7943
  8
0
 10
3961.1233898969048823
 20
67.9106617387880931
 30
0.0
 11
3961.1233898969048823
 21
67.8266617387880757
 31
0.0
  0
LINE
  5
7944
  8
0
 10
3961.1371049531048811
 20
67.9106617387880931
 30
0.0
 11
3961.1371049531048811
 21
67.8266617387880757
 31
0.0
  0
LINE
  5
7945
  8
0
 10
3961.1452645731051234
 20
67.9106617387880931
 30
0.0
 11
3961.1452645731051234
 21
67.8266617387880757
 31
0.0
  0
LINE
  5
7946
  8
0
 10
3961.1540769388698209
 20
67.9106617387880931
 30
0.0
 11
3961.1540769388698209
 21
67.8266617387880757
 31
0.0
  0
LINE
  5
7947
  8
0
 10
3961.1679940254048233
 20
67.9106617387880931
 30
0.0
 11
3961.1679940254048233
 21
67.8266617387880757
 31
0.0
  0
LINE
  5
7948
  8
0
 10
3961.1762637031051781
 20
67.9106617387880931
 30
0.0
 11
3961.1762637031051781
 21
67.8266617387880757
 31
0.0
  0
LINE
  5
7949
  8
0
 10
3961.1815054355051871
 20
67.9106617387880931
 30
0.0
 11
3961.1815054355051871
 21
67.8266617387880757
 31
0.0
  0
LINE
  5
794A
  8
0
 10
3961.1837964631049545
 20
67.9106617387880931
 30
0.0
 11
3961.1837964631049545
 21
67.8266617387880757
 31
0.0
  0
LINE
  5
794B
  8
0
 10
3961.1925246184050593
 20
67.9106617387880931
 30
0.0
 11
3961.1925246184050593
 21
67.8266617387880757
 31
0.0
  0
LINE
  5
794C
  8
0
 10
3961.2070928102048128
 20
67.9106617387880931
 30
0.0
 11
3961.2070928102048128
 21
67.8266617387880757
 31
0.0
  0
LINE
  5
794D
  8
0
 10
3961.2143207735048236
 20
67.9106617387880931
 30
0.0
 11
3961.2143207735048236
 21
67.8266617387880757
 31
0.0
  0
LINE
  5
794E
  8
0
 10
3961.2253770814049858
 20
67.9106617387880931
 30
0.0
 11
3961.2253770814049858
 21
67.8266617387880757
 31
0.0
  0
LINE
  5
794F
  8
0
 10
3961.2287594435051687
 20
67.9106617387880931
 30
0.0
 11
3961.2287594435051687
 21
67.8266617387880757
 31
0.0
  0
LINE
  5
7950
  8
0
 10
3961.2389788003051763
 20
67.9106617387880931
 30
0.0
 11
3961.2389788003051763
 21
67.8266617387880757
 31
0.0
  0
LINE
  5
7951
  8
0
 10
3961.253438565604938
 20
67.9106617387880931
 30
0.0
 11
3961.253438565604938
 21
67.8266617387880757
 31
0.0
  0
LINE
  5
7952
  8
0
 10
3961.25944683810485
 20
67.9106617387880931
 30
0.0
 11
3961.25944683810485
 21
67.8266617387880757
 31
0.0
  0
LINE
  5
7953
  8
0
 10
3961.2734148606050439
 20
67.9106617387880931
 30
0.0
 11
3961.2734148606050439
 21
67.8266617387880757
 31
0.0
  0
LINE
  5
7954
  8
0
 10
3961.275799245404869
 20
67.9106617387880931
 30
0.0
 11
3961.275799245404869
 21
67.8266617387880757
 31
0.0
  0
LINE
  5
7955
  8
0
 10
3961.2804358901048545
 20
67.9106617387880931
 30
0.0
 11
3961.2804358901048545
 21
67.8266617387880757
 31
0.0
  0
LINE
  5
7956
  8
0
 10
3961.2918948140049906
 20
67.9106617387880931
 30
0.0
 11
3961.2918948140049906
 21
67.8266617387880757
 31
0.0
  0
LINE
  5
7957
  8
0
 10
3961.3058901053050249
 20
67.9106617387880931
 30
0.0
 11
3961.3058901053050249
 21
67.8266617387880757
 31
0.0
  0
LINE
  5
7958
  8
0
 10
3961.3105307434047972
 20
67.9106617387880931
 30
0.0
 11
3961.3105307434047972
 21
67.8266617387880757
 31
0.0
  0
LINE
  5
7959
  8
0
 10
3961.323980713605124
 20
67.9106617387880931
 30
0.0
 11
3961.323980713605124
 21
67.8266617387880757
 31
0.0
  0
LINE
  5
795A
  8
0
 10
3961.3315303663048326
 20
67.9106617387880931
 30
0.0
 11
3961.3315303663048326
 21
67.8266617387880757
 31
0.0
  0
LINE
  5
795B
  8
0
 10
3961.3375533573048415
 20
67.9106617387880931
 30
0.0
 11
3961.3375533573048415
 21
67.8266617387880757
 31
0.0
  0
LINE
  5
795C
  8
0
 10
3961.3499696915050663
 20
67.9106617387880931
 30
0.0
 11
3961.3499696915050663
 21
67.8266617387880757
 31
0.0
  0
LINE
  5
795D
  8
0
 10
3961.3631558983051946
 20
67.9106617387880931
 30
0.0
 11
3961.3631558983051946
 21
67.8266617387880757
 31
0.0
  0
LINE
  5
795E
  8
0
 10
3961.3663146341050378
 20
67.9106617387880931
 30
0.0
 11
3961.3663146341050378
 21
67.8266617387880757
 31
0.0
  0
LINE
  5
795F
  8
0
 10
3961.3789153692059699
 20
67.9106617387880931
 30
0.0
 11
3961.3789153692059699
 21
67.8266617387880757
 31
0.0
  0
LINE
  5
7960
  8
0
 10
3961.3884259344049497
 20
67.9106617387880931
 30
0.0
 11
3961.3884259344049497
 21
67.8266617387880757
 31
0.0
  0
LINE
  5
7961
  8
0
 10
3961.3911981590049436
 20
67.9106617387880931
 30
0.0
 11
3961.3911981590049436
 21
67.8266617387880757
 31
0.0
  0
LINE
  5
7962
  8
0
 10
3961.3987054235049072
 20
67.9106617387880931
 30
0.0
 11
3961.3987054235049072
 21
67.8266617387880757
 31
0.0
  0
LINE
  5
7963
  8
0
 10
3961.4117734367050616
 20
67.9106617387880931
 30
0.0
 11
3961.4117734367050616
 21
67.8266617387880757
 31
0.0
  0
LINE
  5
7964
  8
0
 10
3961.4238258708051035
 20
67.9106617387880931
 30
0.0
 11
3961.4238258708051035
 21
67.8266617387880757
 31
0.0
  0
LINE
  5
7965
  8
0
 10
3961.4368661538051128
 20
67.9106617387880931
 30
0.0
 11
3961.4368661538051128
 21
67.8266617387880757
 31
0.0
  0
LINE
  5
7966
  8
0
 10
3961.446743037205124
 20
67.9106617387880931
 30
0.0
 11
3961.446743037205124
 21
67.8266617387880757
 31
0.0
  0
LINE
  5
7967
  8
0
 10
3961.4533334044049298
 20
67.9106617387880931
 30
0.0
 11
3961.4533334044049298
 21
67.8266617387880757
 31
0.0
  0
LINE
  5
7968
  8
0
 10
3961.4623863218048427
 20
67.9106617387880931
 30
0.0
 11
3961.4623863218048427
 21
67.8266617387880757
 31
0.0
  0
LINE
  5
7969
  8
0
 10
3961.475784236105028
 20
67.9106617387880931
 30
0.0
 11
3961.475784236105028
 21
67.8266617387880757
 31
0.0
  0
LINE
  5
796A
  8
0
 10
3961.4864061267048783
 20
67.9106617387880931
 30
0.0
 11
3961.4864061267048783
 21
67.8266617387880757
 31
0.0
  0
LINE
  5
796B
  8
0
 10
3961.4964061267050965
 20
67.9106617387880931
 30
0.0
 11
3961.4964061267050965
 21
67.8266617387880757
 31
0.0
  0
LINE
  5
796C
  8
0
 10
3961.9115542156050651
 20
67.9106617387880931
 30
0.0
 11
3961.9115542156050651
 21
67.8266617387880757
 31
0.0
  0
LINE
  5
796D
  8
0
 10
3961.9037774417051878
 20
67.9106617387880931
 30
0.0
 11
3961.9037774417051878
 21
67.8266617387880757
 31
0.0
  0
LINE
  5
796E
  8
0
 10
3961.9004005698047877
 20
67.9106617387880931
 30
0.0
 11
3961.9004005698047877
 21
67.8266617387880757
 31
0.0
  0
LINE
  5
796F
  8
0
 10
3961.8876260687047761
 20
67.9106617387880931
 30
0.0
 11
3961.8876260687047761
 21
67.8266617387880757
 31
0.0
  0
LINE
  5
7970
  8
0
 10
3961.885265388904827
 20
67.9106617387880931
 30
0.0
 11
3961.885265388904827
 21
67.8266617387880757
 31
0.0
  0
LINE
  5
7971
  8
0
 10
3961.884565370504788
 20
67.9106617387880931
 30
0.0
 11
3961.884565370504788
 21
67.8266617387880757
 31
0.0
  0
LINE
  5
7972
  8
0
 10
3961.8794223565050743
 20
67.9106617387880931
 30
0.0
 11
3961.8794223565050743
 21
67.8266617387880757
 31
0.0
  0
LINE
  5
7973
  8
0
 10
3961.8657073003050755
 20
67.9106617387880931
 30
0.0
 11
3961.8657073003050755
 21
67.8266617387880757
 31
0.0
  0
LINE
  5
7974
  8
0
 10
3961.8575476803048332
 20
67.9106617387880931
 30
0.0
 11
3961.8575476803048332
 21
67.8266617387880757
 31
0.0
  0
LINE
  5
7975
  8
0
 10
3961.8487353145392262
 20
67.9106617387880931
 30
0.0
 11
3961.8487353145392262
 21
67.8266617387880757
 31
0.0
  0
LINE
  5
7976
  8
0
 10
3961.8348182280042238
 20
67.9106617387880931
 30
0.0
 11
3961.8348182280042238
 21
67.8266617387880757
 31
0.0
  0
LINE
  5
7977
  8
0
 10
3961.8265485503047785
 20
67.9106617387880931
 30
0.0
 11
3961.8265485503047785
 21
67.8266617387880757
 31
0.0
  0
LINE
  5
7978
  8
0
 10
3961.8213068179052243
 20
67.9106617387880931
 30
0.0
 11
3961.8213068179052243
 21
67.8266617387880757
 31
0.0
  0
LINE
  5
7979
  8
0
 10
3961.8190157903050022
 20
67.9106617387880931
 30
0.0
 11
3961.8190157903050022
 21
67.8266617387880757
 31
0.0
  0
LINE
  5
797A
  8
0
 10
3961.8102876350048973
 20
67.9106617387880931
 30
0.0
 11
3961.8102876350048973
 21
67.8266617387880757
 31
0.0
  0
LINE
  5
797B
  8
0
 10
3961.7957194432037795
 20
67.9106617387880931
 30
0.0
 11
3961.7957194432037795
 21
67.8266617387880757
 31
0.0
  0
LINE
  5
797C
  8
0
 10
3961.788491479905133
 20
67.9106617387880931
 30
0.0
 11
3961.788491479905133
 21
67.8266617387880757
 31
0.0
  0
LINE
  5
797D
  8
0
 10
3961.7774351720049708
 20
67.9106617387880931
 30
0.0
 11
3961.7774351720049708
 21
67.8266617387880757
 31
0.0
  0
LINE
  5
797E
  8
0
 10
3961.7740528099047879
 20
67.9106617387880931
 30
0.0
 11
3961.7740528099047879
 21
67.8266617387880757
 31
0.0
  0
LINE
  5
797F
  8
0
 10
3961.7638334531047803
 20
67.9106617387880931
 30
0.0
 11
3961.7638334531047803
 21
67.8266617387880757
 31
0.0
  0
LINE
  5
7980
  8
0
 10
3961.7493736878050186
 20
67.9106617387880931
 30
0.0
 11
3961.7493736878050186
 21
67.8266617387880757
 31
0.0
  0
LINE
  5
7981
  8
0
 10
3961.7433654153051066
 20
67.9106617387880931
 30
0.0
 11
3961.7433654153051066
 21
67.8266617387880757
 31
0.0
  0
LINE
  5
7982
  8
0
 10
3961.7293973928049127
 20
67.9106617387880931
 30
0.0
 11
3961.7293973928049127
 21
67.8266617387880757
 31
0.0
  0
LINE
  5
7983
  8
0
 10
3961.7270130080050876
 20
67.9106617387880931
 30
0.0
 11
3961.7270130080050876
 21
67.8266617387880757
 31
0.0
  0
LINE
  5
7984
  8
0
 10
3961.7223763633051021
 20
67.9106617387880931
 30
0.0
 11
3961.7223763633051021
 21
67.8266617387880757
 31
0.0
  0
LINE
  5
7985
  8
0
 10
3961.710917439404966
 20
67.9106617387880931
 30
0.0
 11
3961.710917439404966
 21
67.8266617387880757
 31
0.0
  0
LINE
  5
7986
  8
0
 10
3961.6969221481049317
 20
67.9106617387880931
 30
0.0
 11
3961.6969221481049317
 21
67.8266617387880757
 31
0.0
  0
LINE
  5
7987
  8
0
 10
3961.6922815100051594
 20
67.9106617387880931
 30
0.0
 11
3961.6922815100051594
 21
67.8266617387880757
 31
0.0
  0
LINE
  5
7988
  8
0
 10
3961.6788315398048326
 20
67.9106617387880931
 30
0.0
 11
3961.6788315398048326
 21
67.8266617387880757
 31
0.0
  0
LINE
  5
7989
  8
0
 10
3961.671281887105124
 20
67.9106617387880931
 30
0.0
 11
3961.671281887105124
 21
67.8266617387880757
 31
0.0
  0
LINE
  5
798A
  8
0
 10
3961.6652588961042056
 20
67.9106617387880931
 30
0.0
 11
3961.6652588961042056
 21
67.8266617387880757
 31
0.0
  0
LINE
  5
798B
  8
0
 10
3961.6528425619048903
 20
67.9106617387880931
 30
0.0
 11
3961.6528425619048903
 21
67.8266617387880757
 31
0.0
  0
LINE
  5
798C
  8
0
 10
3961.6396563551052168
 20
67.9106617387880931
 30
0.0
 11
3961.6396563551052168
 21
67.8266617387880757
 31
0.0
  0
LINE
  5
798D
  8
0
 10
3961.6364976193049188
 20
67.9106617387880931
 30
0.0
 11
3961.6364976193049188
 21
67.8266617387880757
 31
0.0
  0
LINE
  5
798E
  8
0
 10
3961.6238968842048962
 20
67.9106617387880931
 30
0.0
 11
3961.6238968842048962
 21
67.8266617387880757
 31
0.0
  0
LINE
  5
798F
  8
0
 10
3961.6143863190059164
 20
67.9106617387880931
 30
0.0
 11
3961.6143863190059164
 21
67.8266617387880757
 31
0.0
  0
LINE
  5
7990
  8
0
 10
3961.611614094405013
 20
67.9106617387880931
 30
0.0
 11
3961.611614094405013
 21
67.8266617387880757
 31
0.0
  0
LINE
  5
7991
  8
0
 10
3961.6041068299059589
 20
67.9106617387880931
 30
0.0
 11
3961.6041068299059589
 21
67.8266617387880757
 31
0.0
  0
LINE
  5
7992
  8
0
 10
3961.591038816704895
 20
67.9106617387880931
 30
0.0
 11
3961.591038816704895
 21
67.8266617387880757
 31
0.0
  0
LINE
  5
7993
  8
0
 10
3961.5789863826048531
 20
67.9106617387880931
 30
0.0
 11
3961.5789863826048531
 21
67.8266617387880757
 31
0.0
  0
LINE
  5
7994
  8
0
 10
3961.5659460996048438
 20
67.9106617387880931
 30
0.0
 11
3961.5659460996048438
 21
67.8266617387880757
 31
0.0
  0
LINE
  5
7995
  8
0
 10
3961.5560692162048326
 20
67.9106617387880931
 30
0.0
 11
3961.5560692162048326
 21
67.8266617387880757
 31
0.0
  0
LINE
  5
7996
  8
0
 10
3961.5494788490059364
 20
67.9106617387880931
 30
0.0
 11
3961.5494788490059364
 21
67.8266617387880757
 31
0.0
  0
LINE
  5
7997
  8
0
 10
3961.5404259316042044
 20
67.9106617387880931
 30
0.0
 11
3961.5404259316042044
 21
67.8266617387880757
 31
0.0
  0
LINE
  5
7998
  8
0
 10
3961.5270280173049287
 20
67.9106617387880931
 30
0.0
 11
3961.5270280173049287
 21
67.8266617387880757
 31
0.0
  0
LINE
  5
7999
  8
0
 10
3961.5164061267050783
 20
67.9106617387880931
 30
0.0
 11
3961.5164061267050783
 21
67.8266617387880757
 31
0.0
  0
LINE
  5
799A
  8
0
 10
3961.5064061267048601
 20
67.9106617387880931
 30
0.0
 11
3961.5064061267048601
 21
67.8266617387880757
 31
0.0
  0
LINE
  5
799B
  8
0
 10
3958.294406126704871
 20
67.8016617387880842
 30
0.0
 11
3961.9694061267050529
 21
67.8016617387880842
 31
0.0
  0
LINE
  5
799C
  8
0
 10
3958.1264061267052057
 20
67.738661738788096
 30
0.0
 11
3962.1264061267052057
 21
67.738661738788096
 31
0.0
  0
LINE
  5
799D
  8
0
 10
3958.1264061267052057
 20
67.2466617387880916
 30
0.0
 11
3962.1264061267052057
 21
67.2466617387880916
 31
0.0
  0
LINE
  5
799E
  8
0
 10
3958.1264061267052057
 20
67.1556643045880861
 30
0.0
 11
3962.0636061267050536
 21
67.1556643045880861
 31
0.0
  0
ENDSEC
  0
EOF
