  0
SECTION
  2
HEADER
  9
$ACADVER
  1
AC1009
  9
$INSBASE
 10
4506.4742520485024215
 20
140.9849250804979022
 30
0.0
  9
$EXTMIN
 10
4498.6473049111973523
 20
138.8365900615139878
 30
-0.0000000349181948
  9
$EXTMAX
 10
4506.5555884973427965
 20
142.5561262814370025
 30
0.0000000814935746
  9
$LIMMIN
 10
0.0
 20
0.0
  9
$LIMMAX
 10
11.6929133858000007
 20
8.2677165353999982
  9
$ORTHOMODE
 70
     0
  9
$REGENMODE
 70
     1
  9
$FILLMODE
 70
     1
  9
$QTEXTMODE
 70
     0
  9
$MIRRTEXT
 70
     0
  9
$DRAGMODE
 70
     2
  9
$LTSCALE
 40
0.6431102362
  9
$OSMODE
 70
  4095
  9
$ATTMODE
 70
     1
  9
$TEXTSIZE
 40
0.2
  9
$TRACEWID
 40
0.05
  9
$TEXTSTYLE
  7
STANDARD
  9
$CLAYER
  8
0
  9
$CELTYPE
  6
BYLAYER
  9
$CECOLOR
 62
   256
  9
$DIMSCALE
 40
1.0
  9
$DIMASZ
 40
0.1875
  9
$DIMEXO
 40
0.0625
  9
$DIMDLI
 40
0.4443307087
  9
$DIMRND
 40
0.0
  9
$DIMDLE
 40
0.0
  9
$DIMEXE
 40
0.125
  9
$DIMTP
 40
0.01
  9
$DIMTM
 40
0.01
  9
$DIMTXT
 40
2.0
  9
$DIMCEN
 40
0.1052362205
  9
$DIMTSZ
 40
0.0
  9
$DIMTOL
 70
     1
  9
$DIMLIM
 70
     0
  9
$DIMTIH
 70
     1
  9
$DIMTOH
 70
     1
  9
$DIMSE1
 70
     0
  9
$DIMSE2
 70
     0
  9
$DIMTAD
 70
     0
  9
$DIMZIN
 70
     0
  9
$DIMBLK
  1

  9
$DIMASO
 70
     1
  9
$DIMSHO
 70
     1
  9
$DIMPOST
  1
\X
  9
$DIMAPOST
  1

  9
$DIMALT
 70
     1
  9
$DIMALTD
 70
     2
  9
$DIMALTF
 40
25.3999999999999986
  9
$DIMLFAC
 40
1.0
  9
$DIMTOFL
 70
     0
  9
$DIMTVP
 40
0.0
  9
$DIMTIX
 70
     0
  9
$DIMSOXD
 70
     0
  9
$DIMSAH
 70
     0
  9
$DIMBLK1
  1

  9
$DIMBLK2
  1

  9
$DIMSTYLE
  2
STANDARD
  9
$DIMCLRD
 70
     0
  9
$DIMCLRE
 70
     0
  9
$DIMCLRT
 70
     0
  9
$DIMTFAC
 40
1.0
  9
$DIMGAP
 40
0.09
  9
$LUNITS
 70
     2
  9
$LUPREC
 70
     4
  9
$SKETCHINC
 40
0.1
  9
$FILLETRAD
 40
0.0
  9
$AUNITS
 70
     0
  9
$AUPREC
 70
     0
  9
$MENU
  1
.
  9
$ELEVATION
 40
0.0
  9
$PELEVATION
 40
0.0
  9
$THICKNESS
 40
0.0
  9
$LIMCHECK
 70
     0
  9
$BLIPMODE
 70
     0
  9
$CHAMFERA
 40
0.0
  9
$CHAMFERB
 40
0.0
  9
$SKPOLY
 70
     0
  9
$TDCREATE
 40
2458060.468368056230247
  9
$TDUPDATE
 40
2460235.7627083328552544
  9
$TDINDWG
 40
0.5150649306
  9
$TDUSRTIMER
 40
0.5150649306
  9
$USRTIMER
 70
     1
  9
$ANGBASE
 50
0.0
  9
$ANGDIR
 70
     0
  9
$PDMODE
 70
     0
  9
$PDSIZE
 40
0.3125
  9
$PLINEWID
 40
0.0
  9
$COORDS
 70
     1
  9
$SPLFRAME
 70
     0
  9
$SPLINETYPE
 70
     6
  9
$SPLINESEGS
 70
     8
  9
$ATTDIA
 70
     1
  9
$ATTREQ
 70
     1
  9
$HANDLING
 70
     1
  9
$HANDSEED
  5
11DA3
  9
$SURFTAB1
 70
     6
  9
$SURFTAB2
 70
     6
  9
$SURFTYPE
 70
     6
  9
$SURFU
 70
     6
  9
$SURFV
 70
     6
  9
$UCSNAME
  2

  9
$UCSORG
 10
0.0
 20
0.0
 30
0.0
  9
$UCSXDIR
 10
1.0
 20
0.0
 30
0.0
  9
$UCSYDIR
 10
0.0
 20
1.0
 30
0.0
  9
$PUCSNAME
  2

  9
$PUCSORG
 10
0.0
 20
0.0
 30
0.0
  9
$PUCSXDIR
 10
1.0
 20
0.0
 30
0.0
  9
$PUCSYDIR
 10
0.0
 20
1.0
 30
0.0
  9
$USERI1
 70
     0
  9
$USERI2
 70
     0
  9
$USERI3
 70
     0
  9
$USERI4
 70
     0
  9
$USERI5
 70
     0
  9
$USERR1
 40
0.0
  9
$USERR2
 40
0.0
  9
$USERR3
 40
0.0
  9
$USERR4
 40
0.0
  9
$USERR5
 40
0.0
  9
$WORLDVIEW
 70
     1
  9
$SHADEDGE
 70
     3
  9
$SHADEDIF
 70
    70
  9
$TILEMODE
 70
     1
  9
$MAXACTVP
 70
    64
  9
$PLIMCHECK
 70
     0
  9
$PEXTMIN
 10
1.0000000000000000E+20
 20
1.0000000000000000E+20
 30
1.0000000000000000E+20
  9
$PEXTMAX
 10
-1.0000000000000000E+20
 20
-1.0000000000000000E+20
 30
-1.0000000000000000E+20
  9
$PLIMMIN
 10
0.0
 20
0.0
  9
$PLIMMAX
 10
12.0
 20
9.0
  9
$UNITMODE
 70
     0
  9
$VISRETAIN
 70
     1
  9
$PLINEGEN
 70
     0
  9
$PSLTSCALE
 70
     1
  0
ENDSEC
  0
SECTION
  2
TABLES
  0
TABLE
  2
VPORT
 70
     1
  0
VPORT
  2
*ACTIVE
 70
     0
 10
0.0
 20
0.0
 11
1.0
 21
1.0
 12
699.0573793214580292
 22
14.7010959747256198
 13
0.0
 23
0.0
 14
1.0
 24
1.0
 15
0.0
 25
0.0
 16
0.0
 26
0.0
 36
17.1152628219792007
 17
3803.5440673828129547
 27
125.9952621967499056
 37
0.0
 40
3.748862392484738
 41
2.1302631578947362
 42
50.0
 43
0.0
 44
0.0
 50
0.0
 51
0.0
 71
     0
 72
   100
 73
     1
 74
     1
 75
     0
 76
     0
 77
     0
 78
     0
  0
ENDTAB
  0
TABLE
  2
LTYPE
 70
     2
  0
LTYPE
  2
CONTINUOUS
 70
     0
  3
Solid line
 72
    65
 73
     0
 40
0.0
  0
LTYPE
  2
PHANTOM2
 70
     0
  3
___ _ _ ___ _ _ ___ _ _ ___ _ _
 72
    65
 73
     6
 40
1.25
 49
0.625
 49
-0.125
 49
0.125
 49
-0.125
 49
0.125
 49
-0.125
  0
ENDTAB
  0
TABLE
  2
LAYER
 70
     2
  0
LAYER
  2
0
 70
     0
 62
   255
  6
CONTINUOUS
  0
LAYER
  2
DEFPOINTS
 70
     0
 62
     7
  6
CONTINUOUS
  0
ENDTAB
  0
TABLE
  2
STYLE
 70
     1
  0
STYLE
  2
STANDARD
 70
     0
 40
0.0
 41
0.8
 50
0.0
 71
     0
 42
0.2
  3
txt
  4

  0
ENDTAB
  0
TABLE
  2
VIEW
 70
     0
  0
ENDTAB
  0
TABLE
  2
UCS
 70
     0
  0
ENDTAB
  0
TABLE
  2
APPID
 70
     9
  0
APPID
  2
ACAD
 70
     0
  0
APPID
  2
ACAD_MLEADERVER
 70
     0
  0
APPID
  2
ACAD_EXEMPT_FROM_CAD_STANDARDS
 70
     0
  0
APPID
  2
ACAD_NAV_VCDISPLAY
 70
     0
  0
APPID
  2
ACAECLAYERSTANDARD
 70
     0
  0
APPID
  2
ACCMTRANSPARENCY
 70
     0
  0
APPID
  2
ACAD_DSTYLE_DIMJAG
 70
     0
  0
APPID
  2
ACAD_DSTYLE_DIMTALN
 70
     0
  0
APPID
  2
ACDBATTR
 70
     0
  0
ENDTAB
  0
TABLE
  2
DIMSTYLE
 70
     1
  0
DIMSTYLE
  2
STANDARD
 70
     0
  3

  4

  5

  6

  7

 40
1.0
 41
0.1875
 42
0.0625
 43
0.38
 44
0.125
 45
0.0
 46
0.0
 47
0.01
 48
0.01
140
0.15625
141
0.09
142
0.0
143
25.3999999999999986
144
1.0
145
0.0
146
1.0
147
0.09
 71
     1
 72
     0
 73
     1
 74
     1
 75
     0
 76
     0
 77
     0
 78
     4
170
     0
171
     2
172
     0
173
     0
174
     0
175
     0
176
     0
177
     0
178
     0
  0
ENDTAB
  0
ENDSEC
  0
SECTION
  2
BLOCKS
  0
BLOCK
  8
0
  2
$MODEL_SPACE
 70
     0
 10
0.0
 20
0.0
 30
0.0
  3
$MODEL_SPACE
  1

  0
ENDBLK
  5
21
  8
0
  0
BLOCK
 67
     1
  8
0
  2
$PAPER_SPACE
 70
     0
 10
0.0
 20
0.0
 30
0.0
  3
$PAPER_SPACE
  1

  0
ENDBLK
  5
1D
 67
     1
  8
0
  0
BLOCK
  8
0
  2
_FILLED
 70
     0
 10
0.0
 20
0.0
 30
0.0
  3
_FILLED
  1

  0
SOLID
  5
10CA9
  8
0
  6
BYBLOCK
 62
     0
 10
0.0
 20
0.0
 30
0.0
 11
-1.0
 21
0.1666666667
 31
0.0
 12
-1.0
 22
-0.1666666667
 32
0.0
 13
-1.0
 23
-0.1666666667
 33
0.0
  0
ENDBLK
  5
10CAA
  8
0
  6
BYBLOCK
 62
     0
  0
ENDSEC
  0
SECTION
  2
ENTITIES
  0
ATTDEF
  5
11313
  8
DEFPOINTS
 10
4506.4752723199408138
 20
140.9850782802928961
 30
0.0
 40
0.001
  1
P80238-00
  3

  2
MODELNUMBER
 70
     0
1001
ACDBATTR
1070
     0
1070
     1
  0
ATTDEF
  5
11314
  8
DEFPOINTS
 10
4506.4752723199408138
 20
140.9834116136262026
 30
0.0
 40
0.001
  1
VIR STIL
  3

  2
TRADENAME
 70
     0
1001
ACDBATTR
1070
     0
1070
     1
  0
ATTDEF
  5
11315
  8
DEFPOINTS
 10
4506.4752723199408138
 20
140.981744946959509
 30
0.0
 40
0.001
  1
BATH SPOUT
  3

  2
PRODUCT
 70
     0
1001
ACDBATTR
1070
     0
1070
     1
  0
LINE
  5
11BB6
  8
0
 10
4506.4742520485024215
 20
142.5474250804979022
 30
0.0
 11
4506.1742520485022396
 21
142.5474250804979022
 31
0.0
  0
LINE
  5
11BB7
  8
0
 10
4506.1142520485018395
 20
142.3599230047886124
 30
0.0
 11
4506.1742520485022396
 21
142.3599230047886124
 31
0.0
  0
LINE
  5
11BB8
  8
0
 10
4506.0542520485023488
 20
142.2874250804979965
 30
0.0
 11
4506.1142520485018395
 21
142.2874250804979965
 31
0.0
  0
LINE
  5
11BB9
  8
0
 10
4506.4742520485024215
 20
142.5474250804979022
 30
0.0
 11
4506.4742520485024215
 21
139.4224250804979874
 31
0.0
  0
LINE
  5
11BBA
  8
0
 10
4506.4742520485024215
 20
139.4224250804979874
 30
0.0
 11
4506.1742520485022396
 21
139.4224250804979874
 31
0.0
  0
LINE
  5
11BBB
  8
0
 10
4506.1742520485022396
 20
139.4224250804979874
 30
0.0
 11
4506.1742520485022396
 21
142.5474250804979022
 31
0.0
  0
LINE
  5
11BBC
  8
0
 10
4506.1142520485018395
 20
142.3599230047886124
 30
0.0
 11
4506.1142520485018395
 21
139.6099250804979874
 31
0.0
  0
LINE
  5
11BBD
  8
0
 10
4506.0542520485023488
 20
142.2874250804979965
 30
0.0
 11
4506.0542520485023488
 21
139.6824250804978931
 31
0.0
  0
LINE
  5
11BBE
  8
0
 10
4506.0542520485023488
 20
141.6249250804980022
 30
0.0
 11
4505.9292520485023488
 21
141.6249250804980022
 31
0.0
  0
LINE
  5
11BBF
  8
0
 10
4505.9292520485023488
 20
140.2974250804979874
 30
0.0
 11
4505.9292520485023488
 21
141.6724250804979874
 31
0.0
  0
LINE
  5
11BC0
  8
0
 10
4505.9292520485023488
 20
141.6724250804979874
 30
0.0
 11
4503.8042520485023488
 21
141.6724250804979874
 31
0.0
  0
LINE
  5
11BC1
  8
0
 10
4503.8042520485023488
 20
141.6724250804979874
 30
0.0
 11
4503.8042520485023488
 21
140.2974250804979874
 31
0.0
  0
LINE
  5
11BC2
  8
0
 10
4503.7412520485013374
 20
140.2974250804979874
 30
0.0
 11
4503.7412520485013374
 21
141.6724250804979874
 31
0.0
  0
LINE
  5
11BC3
  8
0
 10
4503.7412520485013374
 20
141.6724250804979874
 30
0.0
 11
4501.3662520485022469
 21
141.6724250804979874
 31
0.0
  0
ARC
  5
11BC4
  8
0
 10
4501.3662520485022469
 20
139.1749250804980136
 30
0.0
 40
2.4975000000000041
 50
90.0
 51
159.0000000000040927
  0
LINE
  5
11BC5
  8
0
 10
4499.0346349333258331
 20
140.0699490344873084
 30
0.0
 11
4500.3183080198023163
 21
139.5771931038979972
 31
0.0
  0
ARC
  5
11BC6
  8
0
 10
4501.3662520481857428
 20
139.1749250808275917
 30
0.0
 40
1.122499999559688
 50
118.5222124110583053
 51
159.0000000074587092
  0
ARC
  5
11BC7
  8
0
 10
4501.3662520486213907
 20
139.1749250800262985
 30
0.0
 40
1.122500000471675
 50
90.0000000060969114
 51
118.5222124110583053
  0
LINE
  5
11BC8
  8
0
 10
4501.3662520485022469
 20
140.2974250804979874
 30
0.0
 11
4503.7412520485013374
 21
140.2974250804979874
 31
0.0
  0
LINE
  5
11BC9
  8
0
 10
4503.8042520485023488
 20
140.2974250804979874
 30
0.0
 11
4505.9292520485023488
 21
140.2974250804979874
 31
0.0
  0
LINE
  5
11BCA
  8
0
 10
4506.0542520485023488
 20
140.3449250804980011
 30
0.0
 11
4505.9292520485023488
 21
140.3449250804980011
 31
0.0
  0
LINE
  5
11BCB
  8
0
 10
4503.8042520485023488
 20
140.3449250804980011
 30
0.0
 11
4503.7412520485013374
 21
140.3449250804980011
 31
0.0
  0
LINE
  5
11BCC
  8
0
 10
4503.8042520485023488
 20
141.6249250804980022
 30
0.0
 11
4503.7412520485013374
 21
141.6249250804980022
 31
0.0
  0
LINE
  5
11BCD
  8
0
 10
4500.0341240412553816
 20
138.8368685290637927
 30
0.0
 11
4500.2957308389413811
 21
139.518377536982797
 31
0.0
  0
LINE
  5
11BCE
  8
0
 10
4500.2957308389413811
 20
139.518377536982797
 30
0.0
 11
4499.0120577525358385
 21
140.011133467687813
 31
0.0
  0
LINE
  5
11BCF
  8
0
 10
4499.0120577525358385
 20
140.011133467687813
 30
0.0
 11
4498.7504509547397902
 21
139.3296244596230054
 31
0.0
  0
LINE
  5
11BD0
  8
0
 10
4498.7504509547397902
 20
139.3296244596230054
 30
0.0
 11
4500.0341240412553816
 21
138.8368685290637927
 31
0.0
  0
LINE
  5
11BD1
  8
0
 10
4500.2599592431015481
 20
139.5995911006978929
 30
0.0
 11
4500.237382062301549
 21
139.5407755338979996
 31
0.0
  0
LINE
  5
11BD2
  8
0
 10
4499.0704065291811276
 20
139.9887354707431086
 30
0.0
 11
4499.0929837099811266
 21
140.0475510376431885
 31
0.0
  0
LINE
  5
11BD3
  8
0
 10
4506.1742520485022396
 20
139.6099250804979874
 30
0.0
 11
4506.1142520485018395
 21
139.6099250804979874
 31
0.0
  0
LINE
  5
11BD4
  8
0
 10
4506.1142520485018395
 20
139.6824250804978931
 30
0.0
 11
4506.0542520485023488
 21
139.6824250804978931
 31
0.0
  0
LINE
  5
11BD5
  8
0
 10
4503.8042520485023488
 20
141.671267548098001
 30
0.0
 11
4505.9292520485023488
 21
141.6719568581980013
 31
0.0
  0
LINE
  5
11BD6
  8
0
 10
4503.8042520485023488
 20
141.6664574163980035
 30
0.0
 11
4505.9292520485023488
 21
141.6664574163980035
 31
0.0
  0
LINE
  5
11BD7
  8
0
 10
4505.9292520485023488
 20
141.6548079582979938
 30
0.0
 11
4503.8042520485023488
 21
141.6548079582979938
 31
0.0
  0
LINE
  5
11BD8
  8
0
 10
4505.9292520485023488
 20
141.6508102316979887
 30
0.0
 11
4503.8042520485023488
 21
141.6508102316979887
 31
0.0
  0
LINE
  5
11BD9
  8
0
 10
4505.9292520485023488
 20
141.6382811292978943
 30
0.0
 11
4503.8042520485023488
 21
141.6382811292978943
 31
0.0
  0
LINE
  5
11BDA
  8
0
 10
4505.9292520485023488
 20
141.6311880121980096
 30
0.0
 11
4503.8042520485023488
 21
141.6311880121980096
 31
0.0
  0
LINE
  5
11BDB
  8
0
 10
4505.9292520485023488
 20
141.6180320507978934
 30
0.0
 11
4503.8042520485023488
 21
141.6180320507978934
 31
0.0
  0
LINE
  5
11BDC
  8
0
 10
4505.9292520485023488
 20
141.6055284597979949
 30
0.0
 11
4503.8042520485023488
 21
141.6055284597979949
 31
0.0
  0
LINE
  5
11BDD
  8
0
 10
4505.9292520485023488
 20
141.5918685411980107
 30
0.0
 11
4503.8042520485023488
 21
141.5918685411980107
 31
0.0
  0
LINE
  5
11BDE
  8
0
 10
4505.9292520485023488
 20
141.5740712837979913
 30
0.0
 11
4503.8042520485023488
 21
141.5740712837979913
 31
0.0
  0
LINE
  5
11BDF
  8
0
 10
4505.9292520485023488
 20
141.5512106651979991
 30
0.0
 11
4503.8042520485023488
 21
141.5512106651979991
 31
0.0
  0
LINE
  5
11BE0
  8
0
 10
4505.9292520485023488
 20
141.5371103544979974
 30
0.0
 11
4503.8042520485023488
 21
141.5371103544979974
 31
0.0
  0
LINE
  5
11BE1
  8
0
 10
4505.9292520485023488
 20
141.5228288666980063
 30
0.0
 11
4503.8042520485023488
 21
141.5228288666980063
 31
0.0
  0
LINE
  5
11BE2
  8
0
 10
4505.9292520485023488
 20
141.5054006119979988
 30
0.0
 11
4503.8042520485023488
 21
141.5054006119979988
 31
0.0
  0
LINE
  5
11BE3
  8
0
 10
4505.9292520485023488
 20
141.4805976644979921
 30
0.0
 11
4503.8042520485023488
 21
141.4805976644979921
 31
0.0
  0
LINE
  5
11BE4
  8
0
 10
4505.9292520485023488
 20
141.4596054944979926
 30
0.0
 11
4503.8042520485023488
 21
141.4596054944979926
 31
0.0
  0
LINE
  5
11BE5
  8
0
 10
4505.9292520485023488
 20
141.4481065690980017
 30
0.0
 11
4503.8042520485023488
 21
141.4481065690980017
 31
0.0
  0
LINE
  5
11BE6
  8
0
 10
4505.9292520485023488
 20
141.4269281008980101
 30
0.0
 11
4503.8042520485023488
 21
141.4269281008980101
 31
0.0
  0
LINE
  5
11BE7
  8
0
 10
4505.9292520485023488
 20
141.3968951786980028
 30
0.0
 11
4503.8042520485023488
 21
141.3968951786980028
 31
0.0
  0
LINE
  5
11BE8
  8
0
 10
4505.9292520485023488
 20
141.3826814459980028
 30
0.0
 11
4503.8042520485023488
 21
141.3826814459980028
 31
0.0
  0
LINE
  5
11BE9
  8
0
 10
4505.9292520485023488
 20
141.3627678077978942
 30
0.0
 11
4503.8042520485023488
 21
141.3627678077978942
 31
0.0
  0
LINE
  5
11BEA
  8
0
 10
4505.9292520485023488
 20
141.3418351989980124
 30
0.0
 11
4503.8042520485023488
 21
141.3418351989980124
 31
0.0
  0
LINE
  5
11BEB
  8
0
 10
4505.9292520485023488
 20
141.3091711002979878
 30
0.0
 11
4503.8042520485023488
 21
141.3091711002979878
 31
0.0
  0
LINE
  5
11BEC
  8
0
 10
4505.9292520485023488
 20
141.2975276020980004
 30
0.0
 11
4503.8042520485023488
 21
141.2975276020980004
 31
0.0
  0
LINE
  5
11BED
  8
0
 10
4505.9292520485023488
 20
141.2699367165980107
 30
0.0
 11
4503.8042520485023488
 21
141.2699367165980107
 31
0.0
  0
LINE
  5
11BEE
  8
0
 10
4505.9292520485023488
 20
141.2525453141979881
 30
0.0
 11
4503.8042520485023488
 21
141.2525453141979881
 31
0.0
  0
LINE
  5
11BEF
  8
0
 10
4505.9292520485023488
 20
141.2222580819980067
 30
0.0
 11
4503.8042520485023488
 21
141.2222580819980067
 31
0.0
  0
LINE
  5
11BF0
  8
0
 10
4505.9292520485023488
 20
141.206029130297992
 30
0.0
 11
4503.8042520485023488
 21
141.206029130297992
 31
0.0
  0
LINE
  5
11BF1
  8
0
 10
4505.9292520485023488
 20
141.1839132016980045
 30
0.0
 11
4503.8042520485023488
 21
141.1839132016980045
 31
0.0
  0
LINE
  5
11BF2
  8
0
 10
4505.9292520485023488
 20
141.1588580238980057
 30
0.0
 11
4503.8042520485023488
 21
141.1588580238980057
 31
0.0
  0
LINE
  5
11BF3
  8
0
 10
4505.9292520485023488
 20
141.1323458350979934
 30
0.0
 11
4503.8042520485023488
 21
141.1323458350979934
 31
0.0
  0
LINE
  5
11BF4
  8
0
 10
4505.9292520485023488
 20
141.1093303885980106
 30
0.0
 11
4503.8042520485023488
 21
141.1093303885980106
 31
0.0
  0
LINE
  5
11BF5
  8
0
 10
4505.9292520485023488
 20
141.0938330990979921
 30
0.0
 11
4503.8042520485023488
 21
141.0938330990979921
 31
0.0
  0
LINE
  5
11BF6
  8
0
 10
4505.9292520485023488
 20
141.0810391900978971
 30
0.0
 11
4503.8042520485023488
 21
141.0810391900978971
 31
0.0
  0
LINE
  5
11BF7
  8
0
 10
4505.9292520485023488
 20
141.0698950351979875
 30
0.0
 11
4503.8042520485023488
 21
141.0698950351979875
 31
0.0
  0
LINE
  5
11BF8
  8
0
 10
4505.9292520485023488
 20
141.0434732851979902
 30
0.0
 11
4503.8042520485023488
 21
141.0434732851979902
 31
0.0
  0
LINE
  5
11BF9
  8
0
 10
4505.9292520485023488
 20
141.0277907649980023
 30
0.0
 11
4503.8042520485023488
 21
141.0277907649980023
 31
0.0
  0
LINE
  5
11BFA
  8
0
 10
4505.9292520485023488
 20
141.0066504532979934
 30
0.0
 11
4503.8042520485023488
 21
141.0066504532979934
 31
0.0
  0
LINE
  5
11BFB
  8
0
 10
4505.9292520485023488
 20
140.9966536996979869
 30
0.0
 11
4503.8042520485023488
 21
140.9966536996979869
 31
0.0
  0
LINE
  5
11BFC
  8
0
 10
4505.9292520485023488
 20
141.1225843883979962
 30
0.0
 11
4503.8042520485023488
 21
141.1225843883979962
 31
0.0
  0
LINE
  5
11BFD
  8
0
 10
4505.9292520485023488
 20
141.1465666434980051
 30
0.0
 11
4503.8042520485023488
 21
141.1465666434980051
 31
0.0
  0
LINE
  5
11BFE
  8
0
 10
4505.9292520485023488
 20
141.0599695736979982
 30
0.0
 11
4503.8042520485023488
 21
141.0599695736979982
 31
0.0
  0
LINE
  5
11BFF
  8
0
 10
4505.9292520485023488
 20
141.2369536699980017
 30
0.0
 11
4503.8042520485023488
 21
141.2369536699980017
 31
0.0
  0
LINE
  5
11C00
  8
0
 10
4505.9292520485023488
 20
141.2834409955979993
 30
0.0
 11
4503.8042520485023488
 21
141.2834409955979993
 31
0.0
  0
LINE
  5
11C01
  8
0
 10
4505.9292520485023488
 20
141.3227762260980001
 30
0.0
 11
4503.8042520485023488
 21
141.3227762260980001
 31
0.0
  0
LINE
  5
11C02
  8
0
 10
4505.9292520485023488
 20
141.4132021223979905
 30
0.0
 11
4503.8042520485023488
 21
141.4132021223979905
 31
0.0
  0
LINE
  5
11C03
  8
0
 10
4505.9292520485023488
 20
141.4949909575979916
 30
0.0
 11
4503.8042520485023488
 21
141.4949909575979916
 31
0.0
  0
LINE
  5
11C04
  8
0
 10
4505.9292520485023488
 20
141.5600350177979863
 30
0.0
 11
4503.8042520485023488
 21
141.5600350177979863
 31
0.0
  0
LINE
  5
11C05
  8
0
 10
4503.8042520485023488
 20
140.2985826128980023
 30
0.0
 11
4505.9292520485023488
 21
140.297893302798002
 31
0.0
  0
LINE
  5
11C06
  8
0
 10
4503.8042520485023488
 20
140.3033927445979998
 30
0.0
 11
4505.9292520485023488
 21
140.3033927445979998
 31
0.0
  0
LINE
  5
11C07
  8
0
 10
4505.9292520485023488
 20
140.3150422026980095
 30
0.0
 11
4503.8042520485023488
 21
140.3150422026980095
 31
0.0
  0
LINE
  5
11C08
  8
0
 10
4505.9292520485023488
 20
140.3190399292979862
 30
0.0
 11
4503.8042520485023488
 21
140.3190399292979862
 31
0.0
  0
LINE
  5
11C09
  8
0
 10
4505.9292520485023488
 20
140.3315690316979953
 30
0.0
 11
4503.8042520485023488
 21
140.3315690316979953
 31
0.0
  0
LINE
  5
11C0A
  8
0
 10
4505.9292520485023488
 20
140.3386621487979937
 30
0.0
 11
4503.8042520485023488
 21
140.3386621487979937
 31
0.0
  0
LINE
  5
11C0B
  8
0
 10
4505.9292520485023488
 20
140.3518181101979962
 30
0.0
 11
4503.8042520485023488
 21
140.3518181101979962
 31
0.0
  0
LINE
  5
11C0C
  8
0
 10
4505.9292520485023488
 20
140.3643217011980084
 30
0.0
 11
4503.8042520485023488
 21
140.3643217011980084
 31
0.0
  0
LINE
  5
11C0D
  8
0
 10
4505.9292520485023488
 20
140.3779816197979926
 30
0.0
 11
4503.8042520485023488
 21
140.3779816197979926
 31
0.0
  0
LINE
  5
11C0E
  8
0
 10
4505.9292520485023488
 20
140.395778877198012
 30
0.0
 11
4503.8042520485023488
 21
140.395778877198012
 31
0.0
  0
LINE
  5
11C0F
  8
0
 10
4505.9292520485023488
 20
140.4186394957980042
 30
0.0
 11
4503.8042520485023488
 21
140.4186394957980042
 31
0.0
  0
LINE
  5
11C10
  8
0
 10
4505.9292520485023488
 20
140.4327398064980059
 30
0.0
 11
4503.8042520485023488
 21
140.4327398064980059
 31
0.0
  0
LINE
  5
11C11
  8
0
 10
4505.9292520485023488
 20
140.447021294297997
 30
0.0
 11
4503.8042520485023488
 21
140.447021294297997
 31
0.0
  0
LINE
  5
11C12
  8
0
 10
4505.9292520485023488
 20
140.4644495489980045
 30
0.0
 11
4503.8042520485023488
 21
140.4644495489980045
 31
0.0
  0
LINE
  5
11C13
  8
0
 10
4505.9292520485023488
 20
140.4892524964980112
 30
0.0
 11
4503.8042520485023488
 21
140.4892524964980112
 31
0.0
  0
LINE
  5
11C14
  8
0
 10
4505.9292520485023488
 20
140.510244666497897
 30
0.0
 11
4503.8042520485023488
 21
140.510244666497897
 31
0.0
  0
LINE
  5
11C15
  8
0
 10
4505.9292520485023488
 20
140.5217435918980016
 30
0.0
 11
4503.8042520485023488
 21
140.5217435918980016
 31
0.0
  0
LINE
  5
11C16
  8
0
 10
4505.9292520485023488
 20
140.5429220600979932
 30
0.0
 11
4503.8042520485023488
 21
140.5429220600979932
 31
0.0
  0
LINE
  5
11C17
  8
0
 10
4505.9292520485023488
 20
140.5729549822980005
 30
0.0
 11
4503.8042520485023488
 21
140.5729549822980005
 31
0.0
  0
LINE
  5
11C18
  8
0
 10
4505.9292520485023488
 20
140.5871687149980005
 30
0.0
 11
4503.8042520485023488
 21
140.5871687149980005
 31
0.0
  0
LINE
  5
11C19
  8
0
 10
4505.9292520485023488
 20
140.6070823531979954
 30
0.0
 11
4503.8042520485023488
 21
140.6070823531979954
 31
0.0
  0
LINE
  5
11C1A
  8
0
 10
4505.9292520485023488
 20
140.6280149619979909
 30
0.0
 11
4503.8042520485023488
 21
140.6280149619979909
 31
0.0
  0
LINE
  5
11C1B
  8
0
 10
4505.9292520485023488
 20
140.6606790606979871
 30
0.0
 11
4503.8042520485023488
 21
140.6606790606979871
 31
0.0
  0
LINE
  5
11C1C
  8
0
 10
4505.9292520485023488
 20
140.6723225588980029
 30
0.0
 11
4503.8042520485023488
 21
140.6723225588980029
 31
0.0
  0
LINE
  5
11C1D
  8
0
 10
4505.9292520485023488
 20
140.6999134443979926
 30
0.0
 11
4503.8042520485023488
 21
140.6999134443979926
 31
0.0
  0
LINE
  5
11C1E
  8
0
 10
4505.9292520485023488
 20
140.7173048467979868
 30
0.0
 11
4503.8042520485023488
 21
140.7173048467979868
 31
0.0
  0
LINE
  5
11C1F
  8
0
 10
4505.9292520485023488
 20
140.7475920789979966
 30
0.0
 11
4503.8042520485023488
 21
140.7475920789979966
 31
0.0
  0
LINE
  5
11C20
  8
0
 10
4505.9292520485023488
 20
140.7638210306980113
 30
0.0
 11
4503.8042520485023488
 21
140.7638210306980113
 31
0.0
  0
LINE
  5
11C21
  8
0
 10
4505.9292520485023488
 20
140.7859369592979988
 30
0.0
 11
4503.8042520485023488
 21
140.7859369592979988
 31
0.0
  0
LINE
  5
11C22
  8
0
 10
4505.9292520485023488
 20
140.8109921370979976
 30
0.0
 11
4503.8042520485023488
 21
140.8109921370979976
 31
0.0
  0
LINE
  5
11C23
  8
0
 10
4505.9292520485023488
 20
140.8375043258980099
 30
0.0
 11
4503.8042520485023488
 21
140.8375043258980099
 31
0.0
  0
LINE
  5
11C24
  8
0
 10
4505.9292520485023488
 20
140.8605197723979927
 30
0.0
 11
4503.8042520485023488
 21
140.8605197723979927
 31
0.0
  0
LINE
  5
11C25
  8
0
 10
4505.9292520485023488
 20
140.8760170618980112
 30
0.0
 11
4503.8042520485023488
 21
140.8760170618980112
 31
0.0
  0
LINE
  5
11C26
  8
0
 10
4505.9292520485023488
 20
140.8888109708979925
 30
0.0
 11
4503.8042520485023488
 21
140.8888109708979925
 31
0.0
  0
LINE
  5
11C27
  8
0
 10
4505.9292520485023488
 20
140.8999551257979874
 30
0.0
 11
4503.8042520485023488
 21
140.8999551257979874
 31
0.0
  0
LINE
  5
11C28
  8
0
 10
4505.9292520485023488
 20
140.9263768757980131
 30
0.0
 11
4503.8042520485023488
 21
140.9263768757980131
 31
0.0
  0
LINE
  5
11C29
  8
0
 10
4505.9292520485023488
 20
140.942059395998001
 30
0.0
 11
4503.8042520485023488
 21
140.942059395998001
 31
0.0
  0
LINE
  5
11C2A
  8
0
 10
4505.9292520485023488
 20
140.9631997076980099
 30
0.0
 11
4503.8042520485023488
 21
140.9631997076980099
 31
0.0
  0
LINE
  5
11C2B
  8
0
 10
4505.9292520485023488
 20
140.973196461297988
 30
0.0
 11
4503.8042520485023488
 21
140.973196461297988
 31
0.0
  0
LINE
  5
11C2C
  8
0
 10
4505.9292520485023488
 20
140.8472657725980071
 30
0.0
 11
4503.8042520485023488
 21
140.8472657725980071
 31
0.0
  0
LINE
  5
11C2D
  8
0
 10
4505.9292520485023488
 20
140.8232835174979982
 30
0.0
 11
4503.8042520485023488
 21
140.8232835174979982
 31
0.0
  0
LINE
  5
11C2E
  8
0
 10
4505.9292520485023488
 20
140.9098805872980051
 30
0.0
 11
4503.8042520485023488
 21
140.9098805872980051
 31
0.0
  0
LINE
  5
11C2F
  8
0
 10
4505.9292520485023488
 20
140.7328964909980016
 30
0.0
 11
4503.8042520485023488
 21
140.7328964909980016
 31
0.0
  0
LINE
  5
11C30
  8
0
 10
4505.9292520485023488
 20
140.686409165398004
 30
0.0
 11
4503.8042520485023488
 21
140.686409165398004
 31
0.0
  0
LINE
  5
11C31
  8
0
 10
4505.9292520485023488
 20
140.6470739348980032
 30
0.0
 11
4503.8042520485023488
 21
140.6470739348980032
 31
0.0
  0
LINE
  5
11C32
  8
0
 10
4505.9292520485023488
 20
140.5566480385980128
 30
0.0
 11
4503.8042520485023488
 21
140.5566480385980128
 31
0.0
  0
LINE
  5
11C33
  8
0
 10
4505.9292520485023488
 20
140.4748592033980117
 30
0.0
 11
4503.8042520485023488
 21
140.4748592033980117
 31
0.0
  0
LINE
  5
11C34
  8
0
 10
4505.9292520485023488
 20
140.4098151431979886
 30
0.0
 11
4503.8042520485023488
 21
140.4098151431979886
 31
0.0
  0
LINE
  5
11C35
  8
0
 10
4498.7509460424898862
 20
139.3294344132413016
 30
0.0
 11
4499.012474681346248
 21
140.0109734237117891
 31
0.0
  0
LINE
  5
11C36
  8
0
 10
4498.7558591451042957
 20
139.3275484498479102
 30
0.0
 11
4499.0176088526814056
 21
140.0090025999872125
 31
0.0
  0
LINE
  5
11C37
  8
0
 10
4499.0284832695642763
 20
140.0048244505431114
 30
0.0
 11
4498.76673485140509
 21
139.3233736573442059
 31
0.0
  0
LINE
  5
11C38
  8
0
 10
4499.0322151683649281
 20
140.0033910108622877
 30
0.0
 11
4498.7704670507910123
 21
139.3219410002284917
 31
0.0
  0
LINE
  5
11C39
  8
0
 10
4499.0439111513278476
 20
139.9988985294241104
 30
0.0
 11
4498.7821639758103629
 21
139.3174509713938107
 31
0.0
  0
LINE
  5
11C3A
  8
0
 10
4499.0505326134325514
 20
139.996355195042014
 30
0.0
 11
4498.7887859712427598
 21
139.3149090255072906
 31
0.0
  0
LINE
  5
11C3B
  8
0
 10
4499.0628137725689157
 20
139.991637944715194
 30
0.0
 11
4498.8010681195692086
 21
139.310194350493191
 31
0.0
  0
LINE
  5
11C3C
  8
0
 10
4499.0744859405058378
 20
139.9871546107393101
 30
0.0
 11
4498.8127412276444375
 21
139.3057134641269101
 31
0.0
  0
LINE
  5
11C3D
  8
0
 10
4499.0872375463368371
 20
139.9822566596492095
 30
0.0
 11
4498.8254938605568896
 21
139.3008181870004876
 31
0.0
  0
LINE
  5
11C3E
  8
0
 10
4499.1038513796911502
 20
139.9758752090100131
 30
0.0
 11
4498.8421090320771327
 21
139.2944402202192862
 31
0.0
  0
LINE
  5
11C3F
  8
0
 10
4499.1251918873458635
 20
139.967678220794312
 30
0.0
 11
4498.8634512586104393
 21
139.2862477070275986
 31
0.0
  0
LINE
  5
11C40
  8
0
 10
4499.1383546015185857
 20
139.9626223610790987
 30
0.0
 11
4498.8766150329756783
 21
139.2811946074839113
 31
0.0
  0
LINE
  5
11C41
  8
0
 10
4499.1516864454652023
 20
139.9575015378306944
 30
0.0
 11
4498.8899479507417709
 21
139.2760765798728926
 31
0.0
  0
LINE
  5
11C42
  8
0
 10
4499.1679558128580538
 20
139.9512523981686059
 30
0.0
 11
4498.9062186285545977
 21
139.2698308518357067
 31
0.0
  0
LINE
  5
11C43
  8
0
 10
4499.1911094947536185
 20
139.9423589612966907
 30
0.0
 11
4498.9293741753708673
 21
139.2609422702034863
 31
0.0
  0
LINE
  5
11C44
  8
0
 10
4499.2107057958173755
 20
139.9348319309428064
 30
0.0
 11
4498.9489720548226614
 21
139.2534193491200085
 31
0.0
  0
LINE
  5
11C45
  8
0
 10
4499.2214401031333182
 20
139.9307088335916092
 30
0.0
 11
4498.959707226737919
 21
139.2492985027124917
 31
0.0
  0
LINE
  5
11C46
  8
0
 10
4499.2412103145461515
 20
139.9231150034638915
 30
0.0
 11
4498.9794790305486458
 21
139.2417088183235876
 31
0.0
  0
LINE
  5
11C47
  8
0
 10
4499.2692462053209965
 20
139.9123462874609913
 30
0.0
 11
4499.00751717948242
 21
139.2309459813411934
 31
0.0
  0
LINE
  5
11C48
  8
0
 10
4499.2825147995263251
 20
139.9072497587326893
 30
0.0
 11
4499.0207868424113258
 21
139.225852234987002
 31
0.0
  0
LINE
  5
11C49
  8
0
 10
4499.3011042854841435
 20
139.9001094507422067
 30
0.0
 11
4499.0393778256629957
 21
139.2187158251416008
 31
0.0
  0
LINE
  5
11C4A
  8
0
 10
4499.3206449858544147
 20
139.8926037768731874
 30
0.0
 11
4499.0589200999456807
 21
139.2112142488836071
 31
0.0
  0
LINE
  5
11C4B
  8
0
 10
4499.3511370937239917
 20
139.8808916164630034
 30
0.0
 11
4499.0894146638120219
 21
139.1995084825533979
 31
0.0
  0
LINE
  5
11C4C
  8
0
 10
4499.3620063605112591
 20
139.8767166805523061
 30
0.0
 11
4499.1002848060670658
 21
139.1953358258869002
 31
0.0
  0
LINE
  5
11C4D
  8
0
 10
4499.3877625971872476
 20
139.8668235902881918
 30
0.0
 11
4499.1260431172868266
 21
139.185448136608386
 31
0.0
  0
LINE
  5
11C4E
  8
0
 10
4499.4039975627638341
 20
139.8605876645233934
 30
0.0
 11
4499.142279390513977
 21
139.1792156152546909
 31
0.0
  0
LINE
  5
11C4F
  8
0
 10
4499.4322708532608885
 20
139.8497277621833916
 30
0.0
 11
4499.1705549582911772
 21
139.1683616417170128
 31
0.0
  0
LINE
  5
11C50
  8
0
 10
4499.4474206649983898
 20
139.8439086490542138
 30
0.0
 11
4499.185705990274073
 21
139.1625457054460924
 31
0.0
  0
LINE
  5
11C51
  8
0
 10
4499.4680660006215476
 20
139.8359786796476101
 30
0.0
 11
4499.2063529887836921
 21
139.1546200652886114
 31
0.0
  0
LINE
  5
11C52
  8
0
 10
4499.4914551408292027
 20
139.8269948021437017
 30
0.0
 11
4499.2297440128750168
 21
139.1456410923989893
 31
0.0
  0
LINE
  5
11C53
  8
0
 10
4499.5162044084636364
 20
139.817488493370206
 30
0.0
 11
4499.2544952739472137
 21
139.1361399734535098
 31
0.0
  0
LINE
  5
11C54
  8
0
 10
4499.5376894487772006
 20
139.8092359894882861
 30
0.0
 11
4499.2759820447790844
 21
139.1278919749034912
 31
0.0
  0
LINE
  5
11C55
  8
0
 10
4499.5521562500043729
 20
139.8036792238719102
 30
0.0
 11
4499.2904500112390451
 21
139.1223382429207902
 31
0.0
  0
LINE
  5
11C56
  8
0
 10
4499.5640994313198462
 20
139.7990917923968084
 30
0.0
 11
4499.3023941545216076
 21
139.1177533158858068
 31
0.0
  0
LINE
  5
11C57
  8
0
 10
4499.5745025585110852
 20
139.7950959028723048
 30
0.0
 11
4499.3127981196348628
 21
139.1137596078577019
 31
0.0
  0
LINE
  5
11C58
  8
0
 10
4499.5991674010510906
 20
139.7856220221704007
 30
0.0
 11
4499.3374649488123396
 21
139.104290899280187
 31
0.0
  0
LINE
  5
11C59
  8
0
 10
4499.6138071161103653
 20
139.7799988395470052
 30
0.0
 11
4499.3521058430324047
 21
139.0986707865498886
 31
0.0
  0
LINE
  5
11C5A
  8
0
 10
4499.6335417082291315
 20
139.7724186909555897
 30
0.0
 11
4499.3718420246796086
 21
139.0910947762278909
 31
0.0
  0
LINE
  5
11C5B
  8
0
 10
4499.642924505920746
 20
139.7689664101193898
 30
0.0
 11
4499.381174798374559
 21
139.0875122600600093
 31
0.0
  0
LINE
  5
11C5C
  8
0
 10
4499.5253167702803694
 20
139.8139883928274969
 30
0.0
 11
4499.2636083697198046
 21
139.1326417837387055
 31
0.0
  0
LINE
  5
11C5D
  8
0
 10
4499.5029292090557647
 20
139.8225875591878093
 30
0.0
 11
4499.2412190052828009
 21
139.1412362555118989
 31
0.0
  0
LINE
  5
11C5E
  8
0
 10
4499.5837680290051139
 20
139.7915369925744073
 30
0.0
 11
4499.322064336420226
 21
139.1102026404940091
 31
0.0
  0
LINE
  5
11C5F
  8
0
 10
4499.4185524445992996
 20
139.8549970667357059
 30
0.0
 11
4499.1568354446762896
 21
139.1736280695708103
 31
0.0
  0
LINE
  5
11C60
  8
0
 10
4499.3751562817406011
 20
139.8716657346658963
 30
0.0
 11
4499.1134357864602862
 21
139.1902876374892912
 31
0.0
  0
LINE
  5
11C61
  8
0
 10
4499.3384366372602017
 20
139.8857699208433871
 30
0.0
 11
4499.0767131843849711
 21
139.204384123696002
 31
0.0
  0
LINE
  5
11C62
  8
0
 10
4499.254023587642223
 20
139.9181933656911099
 30
0.0
 11
4498.9922933356920112
 21
139.2367898674457933
 31
0.0
  0
LINE
  5
11C63
  8
0
 10
4499.1776732799698948
 20
139.9475198738682025
 30
0.0
 11
4498.9159368783639366
 21
139.2661003652515035
 31
0.0
  0
LINE
  5
11C64
  8
0
 10
4499.1169543077985509
 20
139.9708423133999986
 30
0.0
 11
4498.8552130155649138
 21
139.2894100722438964
 31
0.0
  0
LINE
  5
11C65
  8
0
 10
4500.033302860598269
 20
138.8371837507843054
 30
0.0
 11
4500.295273636861566
 21
139.5185530404176859
 31
0.0
  0
LINE
  5
11C66
  8
0
 10
4500.0283896707569511
 20
138.839069747661398
 30
0.0
 11
4500.2901393782713058
 21
139.520523897637986
 31
0.0
  0
LINE
  5
11C67
  8
0
 10
4500.279263671969602
 20
139.5246986901431114
 30
0.0
 11
4500.0175139644561568
 21
138.8432445401651023
 31
0.0
  0
LINE
  5
11C68
  8
0
 10
4500.2755314725836797
 20
139.5261313472593088
 30
0.0
 11
4500.013781765069325
 21
138.8446771972807881
 31
0.0
  0
LINE
  5
11C69
  8
0
 10
4500.2638345475652386
 20
139.5306213760954961
 30
0.0
 11
4500.0020848400499744
 21
138.8491672261154974
 31
0.0
  0
LINE
  5
11C6A
  8
0
 10
4500.2572125521328417
 20
139.5331633219824994
 30
0.0
 11
4499.995462844616668
 21
138.8517091720019891
 31
0.0
  0
LINE
  5
11C6B
  8
0
 10
4500.2449304038082118
 20
139.5378779969983896
 30
0.0
 11
4499.9831806962911287
 21
138.8564238470160035
 31
0.0
  0
LINE
  5
11C6C
  8
0
 10
4500.2332572957320735
 20
139.5423588833662905
 30
0.0
 11
4499.9715075882158999
 21
138.860904733382398
 31
0.0
  0
LINE
  5
11C6D
  8
0
 10
4500.2205046628196214
 20
139.5472541604943899
 30
0.0
 11
4499.9587549553034478
 21
138.8658000105087922
 31
0.0
  0
LINE
  5
11C6E
  8
0
 10
4500.2038894913011973
 20
139.5536321272776092
 30
0.0
 11
4499.9421397837832046
 21
138.8721779772899083
 31
0.0
  0
LINE
  5
11C6F
  8
0
 10
4500.1825472647697097
 20
139.5618246404719969
 30
0.0
 11
4499.9207975572498981
 21
138.8803704904815959
 31
0.0
  0
LINE
  5
11C70
  8
0
 10
4500.1693834904035612
 20
139.5668777400175031
 30
0.0
 11
4499.9076337828837495
 21
138.8854235900253968
 31
0.0
  0
LINE
  5
11C71
  8
0
 10
4500.1560505726401971
 20
139.5719957676301135
 30
0.0
 11
4499.8943008651176569
 21
138.8905416176363872
 31
0.0
  0
LINE
  5
11C72
  8
0
 10
4500.1397798948255513
 20
139.5782414956694879
 30
0.0
 11
4499.8780301873039207
 21
138.8967873456736015
 31
0.0
  0
LINE
  5
11C73
  8
0
 10
4500.1166243480120102
 20
139.5871300773046073
 30
0.0
 11
4499.8548746404885605
 21
138.9056759273057935
 31
0.0
  0
LINE
  5
11C74
  8
0
 10
4500.097026468560216
 20
139.5946529983905862
 30
0.0
 11
4499.8352767610367664
 21
138.9131988483892997
 31
0.0
  0
LINE
  5
11C75
  8
0
 10
4500.0862912966449585
 20
139.5987738447994104
 30
0.0
 11
4499.8245415891224184
 21
138.9173196947967881
 31
0.0
  0
LINE
  5
11C76
  8
0
 10
4500.0665194928369601
 20
139.6063635291909009
 30
0.0
 11
4499.8047697853116915
 21
138.9249093791856922
 31
0.0
  0
LINE
  5
11C77
  8
0
 10
4500.0384813439040954
 20
139.6171263661769046
 30
0.0
 11
4499.7767316363770078
 21
138.9356722161680864
 31
0.0
  0
LINE
  5
11C78
  8
0
 10
4500.0252116809760992
 20
139.6222201125328013
 30
0.0
 11
4499.7634619734490116
 21
138.9407659625223062
 31
0.0
  0
LINE
  5
11C79
  8
0
 10
4500.0066206977244292
 20
139.6293565223805899
 30
0.0
 11
4499.7448709901973416
 21
138.9479023723677074
 31
0.0
  0
LINE
  5
11C7A
  8
0
 10
4499.9870784234435632
 20
139.6368580986409995
 30
0.0
 11
4499.7253287159137471
 21
138.9554039486255874
 31
0.0
  0
LINE
  5
11C7B
  8
0
 10
4499.956583859579041
 20
139.6485638649751877
 30
0.0
 11
4499.6948341520483154
 21
138.9671097149559102
 31
0.0
  0
LINE
  5
11C7C
  8
0
 10
4499.9457137173249066
 20
139.6527365216429928
 30
0.0
 11
4499.683964009792362
 21
138.9712823716222942
 31
0.0
  0
LINE
  5
11C7D
  8
0
 10
4499.9199554061060553
 20
139.6626242109248039
 30
0.0
 11
4499.6582056985744202
 21
138.9811700609008085
 31
0.0
  0
LINE
  5
11C7E
  8
0
 10
4499.9037191328798144
 20
139.6688567322806023
 30
0.0
 11
4499.6419694253463604
 21
138.9874025822545889
 31
0.0
  0
LINE
  5
11C7F
  8
0
 10
4499.8754435651044332
 20
139.6797107058218899
 30
0.0
 11
4499.6136938575691602
 21
138.9982565557922953
 31
0.0
  0
LINE
  5
11C80
  8
0
 10
4499.8602925331224469
 20
139.6855266420946862
 30
0.0
 11
4499.5985428255862644
 21
139.0040724920631874
 31
0.0
  0
LINE
  5
11C81
  8
0
 10
4499.8396455346128278
 20
139.6934522822550093
 30
0.0
 11
4499.5778958270766452
 21
139.0119981322206968
 31
0.0
  0
LINE
  5
11C82
  8
0
 10
4499.8162545105224126
 20
139.702431255147502
 30
0.0
 11
4499.5545048029853206
 21
139.0209771051102905
 31
0.0
  0
LINE
  5
11C83
  8
0
 10
4499.7915032494511252
 20
139.7119323740961079
 30
0.0
 11
4499.5297535419140331
 21
139.0304782240557131
 31
0.0
  0
LINE
  5
11C84
  8
0
 10
4499.770016478620164
 20
139.7201803726489118
 30
0.0
 11
4499.508266771081253
 21
139.0387262226057032
 31
0.0
  0
LINE
  5
11C85
  8
0
 10
4499.7555485121620222
 20
139.7257341046334886
 30
0.0
 11
4499.4937988046222017
 21
139.0442799545884895
 31
0.0
  0
LINE
  5
11C86
  8
0
 10
4499.7436043688785503
 20
139.7303190316700068
 30
0.0
 11
4499.4818546613378203
 21
139.0488648816235013
 31
0.0
  0
LINE
  5
11C87
  8
0
 10
4499.7332004037662045
 20
139.7343127396993907
 30
0.0
 11
4499.471450696224565
 21
139.0528585896516063
 31
0.0
  0
LINE
  5
11C88
  8
0
 10
4499.7085335745896373
 20
139.7437814482800036
 30
0.0
 11
4499.4467838670479978
 21
139.0623272982290075
 31
0.0
  0
LINE
  5
11C89
  8
0
 10
4499.6938926803723007
 20
139.7494015610122915
 30
0.0
 11
4499.4321429728279327
 21
139.0679474109593912
 31
0.0
  0
LINE
  5
11C8A
  8
0
 10
4499.6741564987260062
 20
139.7569775713367903
 30
0.0
 11
4499.4124067911798193
 21
139.0755234212813889
 31
0.0
  0
LINE
  5
11C8B
  8
0
 10
4499.6648237250310558
 20
139.7605600875058087
 30
0.0
 11
4499.4030740174848688
 21
139.0791059374492136
 31
0.0
  0
LINE
  5
11C8C
  8
0
 10
4499.7823901536776248
 20
139.7154305638121059
 30
0.0
 11
4499.5206404461396232
 21
139.033976413770489
 31
0.0
  0
LINE
  5
11C8D
  8
0
 10
4499.8047795181146284
 20
139.7068360920360988
 30
0.0
 11
4499.5430298105766269
 21
139.0253819419974093
 31
0.0
  0
LINE
  5
11C8E
  8
0
 10
4499.7239341869826603
 20
139.737869707064192
 30
0.0
 11
4499.4621844794401113
 21
139.0564155570152138
 31
0.0
  0
LINE
  5
11C8F
  8
0
 10
4499.8891630787193208
 20
139.6744442779663871
 30
0.0
 11
4499.6274133711840477
 21
138.9929901279384978
 31
0.0
  0
LINE
  5
11C90
  8
0
 10
4499.9325627369307767
 20
139.6577847100423071
 30
0.0
 11
4499.6708130294000512
 21
138.9763305600199033
 31
0.0
  0
LINE
  5
11C91
  8
0
 10
4499.9692853390042728
 20
139.6436882238309067
 30
0.0
 11
4499.7075356314753662
 21
138.9622340738131925
 31
0.0
  0
LINE
  5
11C92
  8
0
 10
4500.0537051876917758
 20
139.6112824800704004
 30
0.0
 11
4499.7919554801674167
 21
138.9298283300634864
 31
0.0
  0
LINE
  5
11C93
  8
0
 10
4500.1300616450189409
 20
139.5819719822549132
 30
0.0
 11
4499.8683119374964008
 21
138.9005178322578047
 31
0.0
  0
LINE
  5
11C94
  8
0
 10
4500.1907855078152352
 20
139.5586622752547044
 30
0.0
 11
4499.9290358002954235
 21
138.8772081252652981
 31
0.0
  0
ENDSEC
  0
EOF
