  0
SECTION
  2
HEADER
  9
$ACADVER
  1
AC1009
  9
$INSBASE
 10
4003.6760646114271367
 20
70.045641000114415
 30
0.0
  9
$EXTMIN
 10
4001.5776390595160592
 20
63.8737615815868693
 30
0.0
  9
$EXTMAX
 10
4003.6875058796208577
 20
71.1283229101617991
 30
0.0
  9
$LIMMIN
 10
0.0
 20
0.0
  9
$LIMMAX
 10
11.6929133858000007
 20
8.2677165353999982
  9
$ORTHOMODE
 70
     0
  9
$REGENMODE
 70
     1
  9
$FILLMODE
 70
     1
  9
$QTEXTMODE
 70
     0
  9
$MIRRTEXT
 70
     0
  9
$DRAGMODE
 70
     2
  9
$LTSCALE
 40
0.6431102362
  9
$OSMODE
 70
  4095
  9
$ATTMODE
 70
     1
  9
$TEXTSIZE
 40
0.2
  9
$TRACEWID
 40
0.05
  9
$TEXTSTYLE
  7
STANDARD
  9
$CLAYER
  8
0
  9
$CELTYPE
  6
BYLAYER
  9
$CECOLOR
 62
   256
  9
$DIMSCALE
 40
1.0
  9
$DIMASZ
 40
0.1875
  9
$DIMEXO
 40
0.0625
  9
$DIMDLI
 40
0.4443307087
  9
$DIMRND
 40
0.0
  9
$DIMDLE
 40
0.0
  9
$DIMEXE
 40
0.125
  9
$DIMTP
 40
0.01
  9
$DIMTM
 40
0.01
  9
$DIMTXT
 40
2.0
  9
$DIMCEN
 40
0.1052362205
  9
$DIMTSZ
 40
0.0
  9
$DIMTOL
 70
     1
  9
$DIMLIM
 70
     0
  9
$DIMTIH
 70
     1
  9
$DIMTOH
 70
     1
  9
$DIMSE1
 70
     0
  9
$DIMSE2
 70
     0
  9
$DIMTAD
 70
     0
  9
$DIMZIN
 70
     0
  9
$DIMBLK
  1

  9
$DIMASO
 70
     1
  9
$DIMSHO
 70
     1
  9
$DIMPOST
  1
\X
  9
$DIMAPOST
  1

  9
$DIMALT
 70
     1
  9
$DIMALTD
 70
     2
  9
$DIMALTF
 40
25.3999999999999986
  9
$DIMLFAC
 40
1.0
  9
$DIMTOFL
 70
     0
  9
$DIMTVP
 40
0.0
  9
$DIMTIX
 70
     0
  9
$DIMSOXD
 70
     0
  9
$DIMSAH
 70
     0
  9
$DIMBLK1
  1

  9
$DIMBLK2
  1

  9
$DIMSTYLE
  2
STANDARD
  9
$DIMCLRD
 70
     0
  9
$DIMCLRE
 70
     0
  9
$DIMCLRT
 70
     0
  9
$DIMTFAC
 40
1.0
  9
$DIMGAP
 40
0.09
  9
$LUNITS
 70
     2
  9
$LUPREC
 70
     4
  9
$SKETCHINC
 40
0.1
  9
$FILLETRAD
 40
0.0
  9
$AUNITS
 70
     0
  9
$AUPREC
 70
     0
  9
$MENU
  1
.
  9
$ELEVATION
 40
0.0
  9
$PELEVATION
 40
0.0
  9
$THICKNESS
 40
0.0
  9
$LIMCHECK
 70
     0
  9
$BLIPMODE
 70
     0
  9
$CHAMFERA
 40
0.0
  9
$CHAMFERB
 40
0.0
  9
$SKPOLY
 70
     0
  9
$TDCREATE
 40
2458060.468368056230247
  9
$TDUPDATE
 40
2460243.6045949067920446
  9
$TDINDWG
 40
0.4302269676
  9
$TDUSRTIMER
 40
0.4302269676
  9
$USRTIMER
 70
     1
  9
$ANGBASE
 50
0.0
  9
$ANGDIR
 70
     0
  9
$PDMODE
 70
     0
  9
$PDSIZE
 40
0.3125
  9
$PLINEWID
 40
0.0
  9
$COORDS
 70
     1
  9
$SPLFRAME
 70
     0
  9
$SPLINETYPE
 70
     6
  9
$SPLINESEGS
 70
     8
  9
$ATTDIA
 70
     1
  9
$ATTREQ
 70
     1
  9
$HANDLING
 70
     1
  9
$HANDSEED
  5
8138
  9
$SURFTAB1
 70
     6
  9
$SURFTAB2
 70
     6
  9
$SURFTYPE
 70
     6
  9
$SURFU
 70
     6
  9
$SURFV
 70
     6
  9
$UCSNAME
  2

  9
$UCSORG
 10
0.0
 20
0.0
 30
0.0
  9
$UCSXDIR
 10
1.0
 20
0.0
 30
0.0
  9
$UCSYDIR
 10
0.0
 20
1.0
 30
0.0
  9
$PUCSNAME
  2

  9
$PUCSORG
 10
0.0
 20
0.0
 30
0.0
  9
$PUCSXDIR
 10
1.0
 20
0.0
 30
0.0
  9
$PUCSYDIR
 10
0.0
 20
1.0
 30
0.0
  9
$USERI1
 70
     0
  9
$USERI2
 70
     0
  9
$USERI3
 70
     0
  9
$USERI4
 70
     0
  9
$USERI5
 70
     0
  9
$USERR1
 40
0.0
  9
$USERR2
 40
0.0
  9
$USERR3
 40
0.0
  9
$USERR4
 40
0.0
  9
$USERR5
 40
0.0
  9
$WORLDVIEW
 70
     1
  9
$SHADEDGE
 70
     3
  9
$SHADEDIF
 70
    70
  9
$TILEMODE
 70
     1
  9
$MAXACTVP
 70
    64
  9
$PLIMCHECK
 70
     0
  9
$PEXTMIN
 10
1.0000000000000000E+20
 20
1.0000000000000000E+20
 30
1.0000000000000000E+20
  9
$PEXTMAX
 10
-1.0000000000000000E+20
 20
-1.0000000000000000E+20
 30
-1.0000000000000000E+20
  9
$PLIMMIN
 10
0.0
 20
0.0
  9
$PLIMMAX
 10
12.0
 20
9.0
  9
$UNITMODE
 70
     0
  9
$VISRETAIN
 70
     1
  9
$PLINEGEN
 70
     0
  9
$PSLTSCALE
 70
     1
  0
ENDSEC
  0
SECTION
  2
TABLES
  0
TABLE
  2
VPORT
 70
     1
  0
VPORT
  2
*ACTIVE
 70
     0
 10
0.0
 20
0.0
 11
1.0
 21
1.0
 12
210.2746623133184869
 22
-52.6796141872311381
 13
0.0
 23
0.0
 14
1.0
 24
1.0
 15
0.0
 25
0.0
 16
0.0
 26
0.0
 36
5.1040778033513332
 17
3792.35791015625
 27
120.1806564331053977
 37
0.0
 40
7.3117589211786722
 41
2.498684210526315
 42
50.0
 43
0.0
 44
0.0
 50
0.0
 51
0.0
 71
     0
 72
   100
 73
     1
 74
     1
 75
     0
 76
     0
 77
     0
 78
     0
  0
ENDTAB
  0
TABLE
  2
LTYPE
 70
     3
  0
LTYPE
  2
CONTINUOUS
 70
     0
  3
Solid line
 72
    65
 73
     0
 40
0.0
  0
LTYPE
  2
PHANTOM2
 70
     0
  3
___ _ _ ___ _ _ ___ _ _ ___ _ _
 72
    65
 73
     6
 40
1.25
 49
0.625
 49
-0.125
 49
0.125
 49
-0.125
 49
0.125
 49
-0.125
  0
ENDTAB
  0
TABLE
  2
LAYER
 70
     2
  0
LAYER
  2
0
 70
     0
 62
   255
  6
CONTINUOUS
  0
LAYER
  2
DEFPOINTS
 70
     0
 62
     7
  6
CONTINUOUS
  0
ENDTAB
  0
TABLE
  2
STYLE
 70
     1
  0
STYLE
  2
STANDARD
 70
     0
 40
0.0
 41
0.8
 50
0.0
 71
     0
 42
0.2
  3
txt
  4

  0
ENDTAB
  0
TABLE
  2
VIEW
 70
     0
  0
ENDTAB
  0
TABLE
  2
UCS
 70
     0
  0
ENDTAB
  0
TABLE
  2
APPID
 70
     9
  0
APPID
  2
ACAD
 70
     0
  0
APPID
  2
ACAD_MLEADERVER
 70
     0
  0
APPID
  2
ACAD_EXEMPT_FROM_CAD_STANDARDS
 70
     0
  0
APPID
  2
ACAD_NAV_VCDISPLAY
 70
     0
  0
APPID
  2
ACAECLAYERSTANDARD
 70
     0
  0
APPID
  2
ACCMTRANSPARENCY
 70
     0
  0
APPID
  2
ACAD_DSTYLE_DIMJAG
 70
     0
  0
APPID
  2
ACAD_DSTYLE_DIMTALN
 70
     0
  0
APPID
  2
ACDBATTR
 70
     0
  0
ENDTAB
  0
TABLE
  2
DIMSTYLE
 70
     2
  0
DIMSTYLE
  2
STANDARD
 70
     0
  3

  4

  5

  6

  7

 40
1.0
 41
0.1875
 42
0.0625
 43
0.38
 44
0.125
 45
0.0
 46
0.0
 47
0.01
 48
0.01
140
0.15625
141
0.09
142
0.0
143
25.3999999999999986
144
1.0
145
0.0
146
1.0
147
0.09
 71
     1
 72
     0
 73
     1
 74
     1
 75
     0
 76
     0
 77
     0
 78
     4
170
     0
171
     2
172
     0
173
     0
174
     0
175
     0
176
     0
177
     0
178
     0
  0
ENDTAB
  0
ENDSEC
  0
SECTION
  2
BLOCKS
  0
BLOCK
  8
0
  2
$MODEL_SPACE
 70
     0
 10
0.0
 20
0.0
 30
0.0
  3
$MODEL_SPACE
  1

  0
ENDBLK
  5
21
  8
0
  0
BLOCK
 67
     1
  8
0
  2
$PAPER_SPACE
 70
     0
 10
0.0
 20
0.0
 30
0.0
  3
$PAPER_SPACE
  1

  0
ENDBLK
  5
1D
 67
     1
  8
0
  0
BLOCK
  8
0
  2
_FILLED
 70
     0
 10
0.0
 20
0.0
 30
0.0
  3
_FILLED
  1

  0
SOLID
  5
69B4
  8
0
  6
BYBLOCK
 62
     0
 10
0.0
 20
0.0
 30
0.0
 11
-1.0
 21
0.1666666667
 31
0.0
 12
-1.0
 22
-0.1666666667
 32
0.0
 13
-1.0
 23
-0.1666666667
 33
0.0
  0
ENDBLK
  5
69B5
  8
0
  6
BYBLOCK
 62
     0
  0
BLOCK
  8
0
  2
A$CDFAF6206
 70
     0
 10
0.0
 20
0.0
 30
0.0
  3
A$CDFAF6206
  1

  0
LINE
  5
6A0E
  8
0
 10
7.4646650085734834
 20
10.9287685970688493
 30
0.0
 11
7.4646650085734896
 21
10.8905784766688498
 31
0.0
  0
ARC
  5
6A0F
  8
0
 10
7.7269027075262349
 20
10.8926811525838598
 30
0.0
 40
0.2622461286616791
 50
180.4593995232625048
 51
217.0214027758331099
  0
LINE
  5
6A10
  8
0
 10
9.767814609867095
 20
10.9287685970688493
 30
0.0
 11
9.767814609867095
 21
10.8905433757650094
 31
0.0
  0
ARC
  5
6A11
  8
0
 10
9.5068669568548287
 20
10.8922438613003703
 30
0.0
 40
0.2609531936261092
 50
322.8847083717149076
 51
359.6266329125650145
  0
LINE
  5
6A12
  8
0
 10
7.517522606271406
 20
10.7347792678688396
 30
0.0
 11
9.7149570120691777
 21
10.7347792678688396
 31
0.0
  0
LINE
  5
6A13
  8
0
 10
7.4646650085734834
 20
10.9287685970688493
 30
0.0
 11
9.7678146123202936
 21
10.9287685970688493
 31
0.0
  0
ARC
  5
6A14
  8
0
 10
4.0826771419203629
 20
8.527951346868889
 30
0.0
 40
4.0826771653999172
 50
13.3117747050523896
 51
32.7200330051415591
  0
ARC
  5
6A15
  8
0
 10
4.0826771460567306
 20
8.5279513475907933
 30
0.0
 40
4.0826771612084691
 50
359.6656501984817851
 51
13.3117747085593798
  0
ARC
  5
6A16
  8
0
 10
13.1498041284835097
 20
8.5279508235212234
 30
0.0
 40
4.0826788382043553
 50
147.2799733478981068
 51
166.6882233021349862
  0
ARC
  5
6A17
  8
0
 10
13.1498064934207992
 20
8.5279506557033251
 30
0.0
 40
4.0826811782395342
 50
166.688228652086309
 51
180.3343397625230011
  0
LINE
  5
6A18
  8
0
 10
8.1652847935202928
 20
8.504127000268852
 30
0.0
 11
9.0671948248202892
 21
8.5041270002687881
 31
0.0
  0
LINE
  5
6A19
  8
0
 10
8.1652847935202786
 20
8.5041270002667204
 30
0.0
 11
8.1652847935202928
 21
8.3607006934688481
 31
0.0
  0
ARC
  5
6A1A
  8
0
 10
5.6196779630382627
 20
8.3631022096452732
 30
0.0
 40
2.545607963272567
 50
342.0511668832173768
 51
359.945947387132378
  0
LINE
  5
6A1B
  8
0
 10
9.0671948248202892
 20
8.5041270002687881
 30
0.0
 11
9.0671948248202892
 21
8.2885990108688503
 31
0.0
  0
ARC
  5
6A1C
  8
0
 10
9.4521885297801163
 20
7.9614488056228501
 30
0.0
 40
0.5052201595850959
 50
139.6436242991769916
 51
174.6757930071850069
  0
ARC
  5
6A1D
  8
0
 10
9.9238413395551746
 20
8.1492417579399508
 30
0.0
 40
0.9848265662939324
 50
188.2263441834095943
 51
209.5593615864376034
  0
ARC
  5
6A1E
  8
0
 10
8.0788764238271256
 20
7.5665710856463297
 30
0.0
 40
0.0393715937169877
 50
162.1669117288323037
 51
227.2023190037006088
  0
ARC
  5
6A1F
  8
0
 10
8.7223682141740682
 20
8.2079667397440517
 30
0.0
 40
0.947895137885075
 50
225.0018610752970858
 51
261.4598823366255829
  0
ARC
  5
6A20
  8
0
 10
8.6645157662702701
 20
8.1695128573935332
 30
0.0
 40
0.9027466462812931
 50
264.7303071214498118
 51
281.8608311947915013
  0
ARC
  5
6A21
  8
0
 10
8.6645157662698935
 20
8.1695128573999671
 30
0.0
 40
0.9027466462876658
 50
299.1741886792128753
 51
299.1743179154552195
  0
ARC
  5
6A22
  8
0
 10
9.0843330931590316
 20
7.4150554710086141
 30
0.0
 40
0.0393703053609601
 50
251.9700352025496954
 51
252.4698971938937859
  0
ARC
  5
6A23
  8
0
 10
9.0843330931590316
 20
7.4150554710086141
 30
0.0
 40
0.0393703053609601
 50
297.2453716727138726
 51
6.8376113572703074
  0
LINE
  5
6A24
  8
0
 10
9.0671948248202892
 20
7.663402160468852
 30
0.0
 11
9.1234233799329516
 21
7.419742732911689
 31
0.0
  0
ARC
  5
6A25
  8
0
 10
8.8843741880892395
 20
9.8961379890094676
 30
0.0
 40
2.5255097382132701
 50
263.792800240752797
 51
274.9514951129821156
  0
ARC
  5
6A26
  8
0
 10
8.8258167405968848
 20
9.2763025889666508
 30
0.0
 40
1.9029970832759311
 50
246.0108363320686067
 51
263.5276935074397215
  0
ARC
  5
6A27
  8
0
 10
8.607491361665744
 20
8.3225444804829642
 30
0.0
 40
1.064510137163637
 50
283.1717405874071005
 51
297.7022170607311864
  0
LINE
  5
6A28
  8
0
 10
9.0671948248202892
 20
8.2885990108688503
 30
0.0
 11
26.2014378595979593
 21
8.2885990108689942
 31
0.0
  0
LINE
  5
6A29
  8
0
 10
26.2014378595979913
 20
7.6634021604689053
 30
0.0
 11
9.0671948248202892
 21
7.6634021604688618
 31
0.0
  0
LINE
  5
6A2A
  8
0
 10
27.8039676758446994
 20
10.9287685970690802
 30
0.0
 11
27.8039676758446888
 21
10.8905784766690807
 31
0.0
  0
ARC
  5
6A2B
  8
0
 10
27.5417299768919399
 20
10.8926811525840801
 30
0.0
 40
0.2622461286616791
 50
322.9785972241680838
 51
359.5406004767386889
  0
LINE
  5
6A2C
  8
0
 10
25.5008180745510913
 20
10.9287685970690305
 30
0.0
 11
25.5008180745510913
 21
10.8905433757651799
 31
0.0
  0
ARC
  5
6A2D
  8
0
 10
25.7617657275633505
 20
10.8922438613005497
 30
0.0
 40
0.2609531936261092
 50
180.3733670874362929
 51
217.1152916282862861
  0
LINE
  5
6A2E
  8
0
 10
27.7511100781467803
 20
10.7347792678690706
 30
0.0
 11
25.5536756723490015
 21
10.7347792678690208
 31
0.0
  0
LINE
  5
6A2F
  8
0
 10
27.8039676758446888
 20
10.9287685970686006
 30
0.0
 11
25.5008180745510806
 21
10.9287685970686006
 31
0.0
  0
ARC
  5
6A30
  8
0
 10
31.1859555424978616
 20
8.5279513468691981
 30
0.0
 40
4.0826771653999172
 50
147.2799669948597057
 51
166.6882252949490066
  0
ARC
  5
6A31
  8
0
 10
31.185955538361501
 20
8.5279513475911024
 30
0.0
 40
4.0826771612084691
 50
166.6882252914419098
 51
180.3343498015194086
  0
ARC
  5
6A32
  8
0
 10
22.1188285559344706
 20
8.5279508235212251
 30
0.0
 40
4.0826788382046102
 50
13.3117766978667795
 51
32.7200266521023977
  0
ARC
  5
6A33
  8
0
 10
22.1188261909974315
 20
8.5279506557034264
 30
0.0
 40
4.0826811782395342
 50
359.665660237478221
 51
13.31177134791497
  0
LINE
  5
6A34
  8
0
 10
27.1033478908979397
 20
8.5041270002690652
 30
0.0
 11
26.2014378595979416
 21
8.5041270002689835
 31
0.0
  0
LINE
  5
6A35
  8
0
 10
27.1033478908979504
 20
8.5041270002669354
 30
0.0
 11
27.1033478908979397
 21
8.3607006934690649
 31
0.0
  0
ARC
  5
6A36
  8
0
 10
29.6489547213799689
 20
8.3631022096455467
 30
0.0
 40
2.545607963272567
 50
180.0540526128687873
 51
197.9488331167837032
  0
LINE
  5
6A37
  8
0
 10
26.2014378595979416
 20
8.5041270002689835
 30
0.0
 11
26.2014378595979487
 21
8.2885990108690457
 31
0.0
  0
ARC
  5
6A38
  8
0
 10
25.8164441546381305
 20
7.9614488056230366
 30
0.0
 40
0.5052201595850959
 50
5.324206992816312
 51
40.3563757008241879
  0
ARC
  5
6A39
  8
0
 10
25.3447913448601803
 20
8.149241757940846
 30
0.0
 40
0.9848265662968968
 50
330.4406384136033807
 51
351.7736558165743759
  0
ARC
  5
6A3A
  8
0
 10
27.1897562605911212
 20
7.5665710856465473
 30
0.0
 40
0.0393715937169877
 50
312.7976809963004143
 51
17.8330882711689185
  0
ARC
  5
6A3B
  8
0
 10
26.5462644702441715
 20
8.2079667397442542
 30
0.0
 40
0.947895137885075
 50
278.5401176633754972
 51
314.9981389247041079
  0
ARC
  5
6A3C
  8
0
 10
26.6041169181479695
 20
8.1695128573937392
 30
0.0
 40
0.9027466462812931
 50
258.139168805210204
 51
275.2696928785518935
  0
ARC
  5
6A3D
  8
0
 10
26.6041169181483497
 20
8.1695128574001732
 30
0.0
 40
0.9027466462876658
 50
240.8256820845460027
 51
240.8258113207880058
  0
ARC
  5
6A3E
  8
0
 10
26.1842995912592293
 20
7.4150554710088086
 30
0.0
 40
0.0393703053609601
 50
287.5301028061073794
 51
288.0299647974517825
  0
ARC
  5
6A3F
  8
0
 10
26.1842995912592293
 20
7.4150554710088086
 30
0.0
 40
0.0393703053609601
 50
173.1623886427310026
 51
242.7546283272870085
  0
LINE
  5
6A40
  8
0
 10
26.2014378595981192
 20
7.6634021604690448
 30
0.0
 11
26.1452093044853093
 21
7.4197427329118826
 31
0.0
  0
ARC
  5
6A41
  8
0
 10
26.384258496328961
 20
9.8961379890096666
 30
0.0
 40
2.5255097382132701
 50
265.0485048870193054
 51
276.2071997592482262
  0
ARC
  5
6A42
  8
0
 10
26.4428159438213299
 20
9.2763025889668516
 30
0.0
 40
1.9029970832759311
 50
276.4723064925619838
 51
293.9891636679327007
  0
ARC
  5
6A43
  8
0
 10
26.6611413227524885
 20
8.3225444804831703
 30
0.0
 40
1.064510137163637
 50
242.2977829392704052
 51
256.8282594125943774
  0
LINE
  5
6A44
  8
0
 62
     4
 10
17.9031473532159602
 20
10.9287685970686006
 30
0.0
 11
24.6329820359843588
 21
20.0952817181593808
 31
0.0
  0
LINE
  5
6A45
  8
0
 62
     4
 10
17.9031473532159602
 20
-0.0000000300842942
 30
0.0
 11
22.3963351323106608
 21
4.993614497796286
 31
0.0
  0
ENDBLK
  5
6A49
  8
0
  0
ENDSEC
  0
SECTION
  2
ENTITIES
  0
ATTDEF
  5
3930
  8
DEFPOINTS
 10
4003.676839212952018
 20
70.0476570522960316
 30
0.0
 40
0.001
  1
P80246-00
  3

  2
MODELNUMBER
 70
     0
1001
ACDBATTR
1070
     0
1070
     1
  0
ATTDEF
  5
3931
  8
DEFPOINTS
 10
4003.676839212952018
 20
70.0459903856293664
 30
0.0
 40
0.001
  1
VIR STIL
  3

  2
TRADENAME
 70
     0
1001
ACDBATTR
1070
     0
1070
     1
  0
ATTDEF
  5
3932
  8
DEFPOINTS
 10
4003.676839212952018
 20
70.0443237189627013
 30
0.0
 40
0.001
  1
TOWEL RING
  3

  2
PRODUCT
 70
     0
1001
ACDBATTR
1070
     0
1070
     1
  0
LINE
  5
7EE1
  8
0
 10
4001.6721276036269046
 20
69.5535197605117901
 30
0.0
 11
4001.6721276036269046
 21
70.537771729111796
 31
0.0
  0
LINE
  5
7EE2
  8
0
 10
4002.2626787847270862
 20
69.5535197605117901
 30
0.0
 11
4002.2626787847270862
 21
70.537771729111796
 31
0.0
  0
LINE
  5
7EE3
  8
0
 10
4002.2626787847270862
 20
70.537771729111796
 30
0.0
 11
4001.6721276036269046
 21
70.537771729111796
 31
0.0
  0
LINE
  5
7EE4
  8
0
 10
4002.2626787847270862
 20
69.5535197605117901
 30
0.0
 11
4002.1645301445259975
 21
69.5535197605117901
 31
0.0
  0
LINE
  5
7EE5
  8
0
 10
4001.7708274249271199
 20
69.5535197605117901
 30
0.0
 11
4001.6721276036269046
 21
69.5535197605117901
 31
0.0
  0
LINE
  5
7EE6
  8
0
 10
4003.6760646114271367
 20
71.1283229101617991
 30
0.0
 11
4003.3611039815268668
 21
71.1283229101617991
 31
0.0
  0
LINE
  5
7EE7
  8
0
 10
4003.3611039815268668
 20
71.0062756660617964
 30
0.0
 11
4003.3138598870259557
 21
71.0062756660617964
 31
0.0
  0
LINE
  5
7EE8
  8
0
 10
4003.3138598870259557
 20
70.9472205479618054
 30
0.0
 11
4003.2626787847270862
 21
70.9472205479618054
 31
0.0
  0
LINE
  5
7EE9
  8
0
 10
4003.6760646114271367
 20
71.1283229101617991
 30
0.0
 11
4003.6760646114271367
 21
68.9629685794618013
 31
0.0
  0
LINE
  5
7EEA
  8
0
 10
4003.3611039815268668
 20
71.1283229101617991
 30
0.0
 11
4003.3611039815268668
 21
68.9629685794618013
 31
0.0
  0
LINE
  5
7EEB
  8
0
 10
4003.3138598870259557
 20
71.0062756660617964
 30
0.0
 11
4003.3138598870259557
 21
69.0850158235618039
 31
0.0
  0
LINE
  5
7EEC
  8
0
 10
4003.2626787847270862
 20
70.9472205479618054
 30
0.0
 11
4003.2626787847270862
 21
69.1440709416617949
 31
0.0
  0
LINE
  5
7EED
  8
0
 10
4003.1445685485268768
 20
70.566530728261796
 30
0.0
 11
4003.1445685485268768
 21
69.5247492639617946
 31
0.0
  0
ARC
  5
7EEE
  8
0
 10
4003.1345685485271133
 20
69.5247492639617946
 30
0.0
 40
0.01
 50
270.0
 51
0.0
  0
LINE
  5
7EEF
  8
0
 10
4003.1445685484268324
 20
70.5406457447618038
 30
0.0
 11
4003.2626787847270862
 21
70.5406457447618038
 31
0.0
  0
LINE
  5
7EF0
  8
0
 10
4002.3356709107270035
 20
70.5765307282618011
 30
0.0
 11
4003.1345685485271133
 21
70.5765307282618011
 31
0.0
  0
ARC
  5
7EF1
  8
0
 10
4003.1345685485271133
 20
70.566530728261796
 30
0.0
 40
0.01
 50
0.0
 51
90.0
  0
ARC
  5
7EF2
  8
0
 10
4002.3356709107270035
 20
70.566530728261796
 30
0.0
 40
0.01
 50
90.0
 51
180.0
  0
LINE
  5
7EF3
  8
0
 10
4002.3256709107258757
 20
69.5247492639617946
 30
0.0
 11
4002.3256709107258757
 21
70.566530728261796
 31
0.0
  0
ARC
  5
7EF4
  8
0
 10
4002.3356709107270035
 20
69.5247492639617946
 30
0.0
 40
0.01
 50
180.0
 51
270.0
  0
LINE
  5
7EF5
  8
0
 10
4002.2626787847270862
 20
70.5106457447117947
 30
0.0
 11
4002.3256709107258757
 21
70.5106457447117947
 31
0.0
  0
LINE
  5
7EF6
  8
0
 10
4003.6760646114271367
 20
68.9629685794618013
 30
0.0
 11
4003.3611039815268668
 21
68.9629685794618013
 31
0.0
  0
LINE
  5
7EF7
  8
0
 10
4003.3611039815268668
 20
69.0850158235618039
 30
0.0
 11
4003.3138598870259557
 21
69.0850158235618039
 31
0.0
  0
LINE
  5
7EF8
  8
0
 10
4003.3138598870259557
 20
69.1440709416617949
 30
0.0
 11
4003.2626787847270862
 21
69.1440709416617949
 31
0.0
  0
LINE
  5
7EF9
  8
0
 10
4003.1445685484268324
 20
69.5506457447617947
 30
0.0
 11
4003.2626787847270862
 21
69.5506457447617947
 31
0.0
  0
LINE
  5
7EFA
  8
0
 10
4002.3356709107270035
 20
69.5147492639617894
 30
0.0
 11
4003.1345685485271133
 21
69.5147492639617894
 31
0.0
  0
LINE
  5
7EFB
  8
0
 10
4002.2626787847270862
 20
69.5806457447117879
 30
0.0
 11
4002.3256709107258757
 21
69.5806457447117879
 31
0.0
  0
LINE
  5
7EFC
  8
0
 10
4002.3356709107270035
 20
69.521990019161791
 30
0.0
 11
4003.1345685484270689
 21
69.521990019161791
 31
0.0
  0
ARC
  5
7EFD
  8
0
 10
4003.1345685483570378
 20
69.5319900193325111
 30
0.0
 40
0.0100000001707086
 50
270.0000004051569249
 51
359.9999990235950804
  0
ARC
  5
7EFE
  8
0
 10
4002.335913666820943
 20
69.5322327752559772
 30
0.0
 40
0.0102456323829199
 50
181.3576713312075981
 51
268.6423286688049075
  0
LINE
  5
7EFF
  8
0
 10
4002.3356709107270035
 20
69.6242302988617894
 30
0.0
 11
4003.1345685485271133
 21
69.6242302988617894
 31
0.0
  0
LINE
  5
7F00
  8
0
 10
4002.3356709107270035
 20
69.5912245209617737
 30
0.0
 11
4003.1345685485271133
 21
69.5912245209617737
 31
0.0
  0
LINE
  5
7F01
  8
0
 10
4002.3356709107270035
 20
69.5605315591618023
 30
0.0
 11
4003.1345685485271133
 21
69.5605315591618023
 31
0.0
  0
LINE
  5
7F02
  8
0
 10
4002.3356709107270035
 20
69.5373314319618032
 30
0.0
 11
4003.1345685485271133
 21
69.5373314319618032
 31
0.0
  0
LINE
  5
7F03
  8
0
 10
4002.3356709107270035
 20
69.6730422298618066
 30
0.0
 11
4003.1345685485271133
 21
69.6730422298618066
 31
0.0
  0
LINE
  5
7F04
  8
0
 10
4002.3356709107270035
 20
69.7090018113617873
 30
0.0
 11
4003.1345685485248396
 21
69.7090018113617873
 31
0.0
  0
ARC
  5
7F05
  8
0
 10
4002.3346564781068082
 20
69.6999766314112037
 30
0.0
 40
0.0090820122595623
 50
83.5868562911479245
 51
171.6425987804101965
  0
ARC
  5
7F06
  8
0
 10
4002.3356709107270035
 20
69.6830422298617975
 30
0.0
 40
0.0100000000000016
 50
180.0000000044680064
 51
270.0
  0
ARC
  5
7F07
  8
0
 10
4002.3360510759498538
 20
69.6121380887833112
 30
0.0
 40
0.012098184581966
 50
91.8007205067738425
 51
149.0920479309608879
  0
ARC
  5
7F08
  8
0
 10
4002.3356709107270035
 20
69.6012245209618072
 30
0.0
 40
0.0100000000000025
 50
180.0000000012973942
 51
270.0
  0
ARC
  5
7F09
  8
0
 10
4002.3356709107270035
 20
69.5705315591617932
 30
0.0
 40
0.0100000000000007
 50
180.000000001073488
 51
270.0
  0
ARC
  5
7F0A
  8
0
 10
4002.3358550124908106
 20
69.5477758929384891
 30
0.0
 40
0.01044608340736
 50
192.8590289150428134
 51
268.9901669526199157
  0
ARC
  5
7F0B
  8
0
 10
4002.3334692659950633
 20
69.5818058143990896
 30
0.0
 40
0.0096104484505863
 50
88.3763758865803339
 51
144.237403274870104
  0
ARC
  5
7F0C
  8
0
 10
4003.1345685485271133
 20
69.5247492639617946
 30
0.0
 40
0.01
 50
270.0
 51
0.0
  0
ARC
  5
7F0D
  8
0
 10
4003.1355829811468539
 20
69.6999766314112037
 30
0.0
 40
0.0090820122595623
 50
8.3574012195897769
 51
96.4131437088521039
  0
ARC
  5
7F0E
  8
0
 10
4003.1345685485271133
 20
69.6830422298617975
 30
0.0
 40
0.0100000000000016
 50
270.0
 51
359.9999999955318799
  0
ARC
  5
7F0F
  8
0
 10
4003.1341883833028987
 20
69.6121380887833112
 30
0.0
 40
0.012098184581966
 50
30.9079520690390588
 51
88.1992794932261575
  0
ARC
  5
7F10
  8
0
 10
4003.1345685485271133
 20
69.6012245209618072
 30
0.0
 40
0.0100000000000025
 50
270.0
 51
359.9999999987022079
  0
ARC
  5
7F11
  8
0
 10
4003.1345685485271133
 20
69.5705315591617932
 30
0.0
 40
0.0100000000000007
 50
270.0
 51
359.9999999989261141
  0
ARC
  5
7F12
  8
0
 10
4003.1343844467619419
 20
69.5477758929384891
 30
0.0
 40
0.01044608340736
 50
271.0098330473800843
 51
347.1409710849570729
  0
ARC
  5
7F13
  8
0
 10
4003.136770193258144
 20
69.5818058143990896
 30
0.0
 40
0.0096104484505863
 50
35.7625967251298675
 51
91.6236241134196945
  0
LINE
  5
7F14
  8
0
 10
4002.3356709107270035
 20
69.6276439567618013
 30
0.0
 11
4003.1345685485271133
 21
69.6276439567618013
 31
0.0
  0
LINE
  5
7F15
  8
0
 10
4002.3356709107270035
 20
69.6636035382617962
 30
0.0
 11
4003.1345685485248396
 21
69.6636035382617962
 31
0.0
  0
ARC
  5
7F16
  8
0
 10
4002.3346564781068082
 20
69.6545783583111984
 30
0.0
 40
0.0090820122595623
 50
83.5868562911479245
 51
171.6425987804101965
  0
ARC
  5
7F17
  8
0
 10
4002.3356709107270035
 20
69.6376439567617922
 30
0.0
 40
0.0100000000000016
 50
180.0000000044680064
 51
270.0
  0
ARC
  5
7F18
  8
0
 10
4003.1355829811468539
 20
69.6545783583111984
 30
0.0
 40
0.0090820122595623
 50
8.3574012195897769
 51
96.4131437088521039
  0
ARC
  5
7F19
  8
0
 10
4003.1345685485271133
 20
69.6376439567617922
 30
0.0
 40
0.0100000000000016
 50
270.0
 51
359.9999999955318799
  0
LINE
  5
7F1A
  8
0
 10
4002.3356709107270035
 20
69.7237495789618009
 30
0.0
 11
4003.1345685485271133
 21
69.7237495789618009
 31
0.0
  0
LINE
  5
7F1B
  8
0
 10
4002.3356709107270035
 20
69.7597091604617958
 30
0.0
 11
4003.1345685485248396
 21
69.7597091604617958
 31
0.0
  0
ARC
  5
7F1C
  8
0
 10
4002.3346564781068082
 20
69.750683980511198
 30
0.0
 40
0.0090820122595623
 50
83.5868562911479245
 51
171.6425987804101965
  0
ARC
  5
7F1D
  8
0
 10
4002.3356709107270035
 20
69.733749578961806
 30
0.0
 40
0.0100000000000016
 50
180.0000000044680064
 51
270.0
  0
ARC
  5
7F1E
  8
0
 10
4003.1355829811468539
 20
69.750683980511198
 30
0.0
 40
0.0090820122595623
 50
8.3574012195897769
 51
96.4131437088521039
  0
ARC
  5
7F1F
  8
0
 10
4003.1345685485271133
 20
69.733749578961806
 30
0.0
 40
0.0100000000000016
 50
270.0
 51
359.9999999955318799
  0
LINE
  5
7F20
  8
0
 10
4002.3356709107270035
 20
69.7789663188617908
 30
0.0
 11
4003.1345685485271133
 21
69.7789663188617908
 31
0.0
  0
LINE
  5
7F21
  8
0
 10
4002.3356709107270035
 20
69.8149259003617999
 30
0.0
 11
4003.1345685485248396
 21
69.8149259003617999
 31
0.0
  0
ARC
  5
7F22
  8
0
 10
4002.3346564781068082
 20
69.8059007204111879
 30
0.0
 40
0.0090820122595623
 50
83.5868562911479245
 51
171.6425987804101965
  0
ARC
  5
7F23
  8
0
 10
4002.3356709107270035
 20
69.7889663188618101
 30
0.0
 40
0.0100000000000016
 50
180.0000000044680064
 51
270.0
  0
ARC
  5
7F24
  8
0
 10
4003.1355829811468539
 20
69.8059007204111879
 30
0.0
 40
0.0090820122595623
 50
8.3574012195897769
 51
96.4131437088521039
  0
ARC
  5
7F25
  8
0
 10
4003.1345685485271133
 20
69.7889663188618101
 30
0.0
 40
0.0100000000000016
 50
270.0
 51
359.9999999955318799
  0
LINE
  5
7F26
  8
0
 10
4002.3356709107270035
 20
69.8378216484617838
 30
0.0
 11
4003.1345685485271133
 21
69.8378216484617838
 31
0.0
  0
LINE
  5
7F27
  8
0
 10
4002.3356709107270035
 20
69.8737812299617929
 30
0.0
 11
4003.1345685485248396
 21
69.8737812299617929
 31
0.0
  0
ARC
  5
7F28
  8
0
 10
4002.3346564781068082
 20
69.864756050011195
 30
0.0
 40
0.0090820122595623
 50
83.5868562911479245
 51
171.6425987804101965
  0
ARC
  5
7F29
  8
0
 10
4002.3356709107270035
 20
69.8478216484618031
 30
0.0
 40
0.0100000000000016
 50
180.0000000044680064
 51
270.0
  0
ARC
  5
7F2A
  8
0
 10
4003.1355829811468539
 20
69.864756050011195
 30
0.0
 40
0.0090820122595623
 50
8.3574012195897769
 51
96.4131437088521039
  0
ARC
  5
7F2B
  8
0
 10
4003.1345685485271133
 20
69.8478216484618031
 30
0.0
 40
0.0100000000000016
 50
270.0
 51
359.9999999955318799
  0
LINE
  5
7F2C
  8
0
 10
4002.3356709107270035
 20
69.8993873840617965
 30
0.0
 11
4003.1345685485271133
 21
69.8993873840617965
 31
0.0
  0
LINE
  5
7F2D
  8
0
 10
4002.3356709107270035
 20
69.9353469655617914
 30
0.0
 11
4003.1345685485248396
 21
69.9353469655617914
 31
0.0
  0
ARC
  5
7F2E
  8
0
 10
4002.3346564781068082
 20
69.9263217856111936
 30
0.0
 40
0.0090820122595623
 50
83.5868562911479245
 51
171.6425987804101965
  0
ARC
  5
7F2F
  8
0
 10
4002.3356709107270035
 20
69.9093873840618016
 30
0.0
 40
0.0100000000000016
 50
180.0000000044680064
 51
270.0
  0
ARC
  5
7F30
  8
0
 10
4003.1355829811468539
 20
69.9263217856111936
 30
0.0
 40
0.0090820122595623
 50
8.3574012195897769
 51
96.4131437088521039
  0
ARC
  5
7F31
  8
0
 10
4003.1345685485271133
 20
69.9093873840618016
 30
0.0
 40
0.0100000000000016
 50
270.0
 51
359.9999999955318799
  0
LINE
  5
7F32
  8
0
 10
4002.3356709107270035
 20
69.9620084017618069
 30
0.0
 11
4003.1345685485271133
 21
69.9620084017618069
 31
0.0
  0
LINE
  5
7F33
  8
0
 10
4002.3356709107270035
 20
69.9979679832617876
 30
0.0
 11
4003.1345685485248396
 21
69.9979679832617876
 31
0.0
  0
ARC
  5
7F34
  8
0
 10
4002.3346564781068082
 20
69.988942803311204
 30
0.0
 40
0.0090820122595623
 50
83.5868562911479245
 51
171.6425987804101965
  0
ARC
  5
7F35
  8
0
 10
4002.3356709107270035
 20
69.9720084017617978
 30
0.0
 40
0.0100000000000016
 50
180.0000000044680064
 51
270.0
  0
ARC
  5
7F36
  8
0
 10
4003.1355829811468539
 20
69.988942803311204
 30
0.0
 40
0.0090820122595623
 50
8.3574012195897769
 51
96.4131437088521039
  0
ARC
  5
7F37
  8
0
 10
4003.1345685485271133
 20
69.9720084017617978
 30
0.0
 40
0.0100000000000016
 50
270.0
 51
359.9999999955318799
  0
LINE
  5
7F38
  8
0
 10
4002.3356709107270035
 20
70.027442855761791
 30
0.0
 11
4003.1345685485271133
 21
70.027442855761791
 31
0.0
  0
LINE
  5
7F39
  8
0
 10
4002.3356709107270035
 20
70.0634024372618001
 30
0.0
 11
4003.1345685485248396
 21
70.0634024372618001
 31
0.0
  0
ARC
  5
7F3A
  8
0
 10
4002.3346564781068082
 20
70.054377257311188
 30
0.0
 40
0.0090820122595623
 50
83.5868562911479245
 51
171.6425987804101965
  0
ARC
  5
7F3B
  8
0
 10
4002.3356709107270035
 20
70.0374428557618103
 30
0.0
 40
0.0100000000000016
 50
180.0000000044680064
 51
270.0
  0
ARC
  5
7F3C
  8
0
 10
4003.1355829811468539
 20
70.054377257311188
 30
0.0
 40
0.0090820122595623
 50
8.3574012195897769
 51
96.4131437088521039
  0
ARC
  5
7F3D
  8
0
 10
4003.1345685485271133
 20
70.0374428557618103
 30
0.0
 40
0.0100000000000016
 50
270.0
 51
359.9999999955318799
  0
LINE
  5
7F3E
  8
0
 10
4002.3356709107270035
 20
70.5692899730617853
 30
0.0
 11
4003.1345685484270689
 21
70.5692899730617853
 31
0.0
  0
ARC
  5
7F3F
  8
0
 10
4003.1345685483570378
 20
70.5592899728910936
 30
0.0
 40
0.0100000001707086
 50
0.0000009764048428
 51
89.9999995948431319
  0
ARC
  5
7F40
  8
0
 10
4002.335913666820943
 20
70.5590472169676133
 30
0.0
 40
0.0102456323829199
 50
91.3576713311950641
 51
178.642328668792004
  0
LINE
  5
7F41
  8
0
 10
4002.3356709107270035
 20
70.4670496933618011
 30
0.0
 11
4003.1345685485271133
 21
70.4670496933618011
 31
0.0
  0
LINE
  5
7F42
  8
0
 10
4002.3356709107270035
 20
70.5000554712618026
 30
0.0
 11
4003.1345685485271133
 21
70.5000554712618026
 31
0.0
  0
LINE
  5
7F43
  8
0
 10
4002.3356709107270035
 20
70.5307484330618024
 30
0.0
 11
4003.1345685485271133
 21
70.5307484330618024
 31
0.0
  0
LINE
  5
7F44
  8
0
 10
4002.3356709107270035
 20
70.5539485602618015
 30
0.0
 11
4003.1345685485271133
 21
70.5539485602618015
 31
0.0
  0
LINE
  5
7F45
  8
0
 10
4002.3356709107270035
 20
70.4182377623617981
 30
0.0
 11
4003.1345685485271133
 21
70.4182377623617981
 31
0.0
  0
LINE
  5
7F46
  8
0
 10
4002.3356709107270035
 20
70.382278180861789
 30
0.0
 11
4003.1345685485248396
 21
70.382278180861789
 31
0.0
  0
ARC
  5
7F47
  8
0
 10
4002.3346564781068082
 20
70.391303360812401
 30
0.0
 40
0.0090820122595623
 50
188.3574012195896898
 51
276.413143708851976
  0
ARC
  5
7F48
  8
0
 10
4002.3356709107270035
 20
70.408237762361793
 30
0.0
 40
0.0100000000000016
 50
90.0
 51
179.9999999955319936
  0
ARC
  5
7F49
  8
0
 10
4002.3360510759498538
 20
70.4791419034402793
 30
0.0
 40
0.012098184581966
 50
210.9079520690393963
 51
268.1992794932261859
  0
ARC
  5
7F4A
  8
0
 10
4002.3356709107270035
 20
70.4900554712617975
 30
0.0
 40
0.0100000000000025
 50
90.0
 51
179.9999999987020942
  0
ARC
  5
7F4B
  8
0
 10
4002.3356709107270035
 20
70.5207484330617831
 30
0.0
 40
0.0100000000000007
 50
90.0
 51
179.9999999989260004
  0
ARC
  5
7F4C
  8
0
 10
4002.3358550124908106
 20
70.5435040992851015
 30
0.0
 40
0.01044608340736
 50
91.0098330473801553
 51
167.1409710849571013
  0
ARC
  5
7F4D
  8
0
 10
4002.3334692659950633
 20
70.5094741778245009
 30
0.0
 40
0.0096104484505863
 50
215.7625967251294981
 51
271.6236241134196803
  0
ARC
  5
7F4E
  8
0
 10
4003.1355829811468539
 20
70.391303360812401
 30
0.0
 40
0.0090820122595623
 50
263.586856291148024
 51
351.6425987804101965
  0
ARC
  5
7F4F
  8
0
 10
4003.1345685485271133
 20
70.408237762361793
 30
0.0
 40
0.0100000000000016
 50
0.0000000044680432
 51
90.0
  0
ARC
  5
7F50
  8
0
 10
4003.1341883833028987
 20
70.4791419034402793
 30
0.0
 40
0.012098184581966
 50
271.8007205067738141
 51
329.0920479309605753
  0
ARC
  5
7F51
  8
0
 10
4003.1345685485271133
 20
70.4900554712617975
 30
0.0
 40
0.0100000000000025
 50
0.0000000012978699
 51
90.0
  0
ARC
  5
7F52
  8
0
 10
4003.1345685485271133
 20
70.5207484330617831
 30
0.0
 40
0.0100000000000007
 50
0.0000000010739588
 51
90.0
  0
ARC
  5
7F53
  8
0
 10
4003.1343844467619419
 20
70.5435040992851015
 30
0.0
 40
0.01044608340736
 50
12.8590289150428898
 51
88.9901669526198447
  0
ARC
  5
7F54
  8
0
 10
4003.136770193258144
 20
70.5094741778245009
 30
0.0
 40
0.0096104484505863
 50
268.3763758865803197
 51
324.2374032748704735
  0
LINE
  5
7F55
  8
0
 10
4002.3356709107270035
 20
70.4636360354618034
 30
0.0
 11
4003.1345685485271133
 21
70.4636360354618034
 31
0.0
  0
LINE
  5
7F56
  8
0
 10
4002.3356709107270035
 20
70.4276764539617943
 30
0.0
 11
4003.1345685485248396
 21
70.4276764539617943
 31
0.0
  0
ARC
  5
7F57
  8
0
 10
4002.3346564781068082
 20
70.4367016339124064
 30
0.0
 40
0.0090820122595623
 50
188.3574012195896898
 51
276.413143708851976
  0
ARC
  5
7F58
  8
0
 10
4002.3356709107270035
 20
70.4536360354617983
 30
0.0
 40
0.0100000000000016
 50
90.0
 51
179.9999999955319936
  0
ARC
  5
7F59
  8
0
 10
4003.1355829811468539
 20
70.4367016339124064
 30
0.0
 40
0.0090820122595623
 50
263.586856291148024
 51
351.6425987804101965
  0
ARC
  5
7F5A
  8
0
 10
4003.1345685485271133
 20
70.4536360354617983
 30
0.0
 40
0.0100000000000016
 50
0.0000000044680432
 51
90.0
  0
LINE
  5
7F5B
  8
0
 10
4002.3356709107270035
 20
70.3675304132617754
 30
0.0
 11
4003.1345685485271133
 21
70.3675304132617754
 31
0.0
  0
LINE
  5
7F5C
  8
0
 10
4002.3356709107270035
 20
70.3315708317618089
 30
0.0
 11
4003.1345685485248396
 21
70.3315708317618089
 31
0.0
  0
ARC
  5
7F5D
  8
0
 10
4002.3346564781068082
 20
70.3405960117123925
 30
0.0
 40
0.0090820122595623
 50
188.3574012195896898
 51
276.413143708851976
  0
ARC
  5
7F5E
  8
0
 10
4002.3356709107270035
 20
70.3575304132617987
 30
0.0
 40
0.0100000000000016
 50
90.0
 51
179.9999999955319936
  0
ARC
  5
7F5F
  8
0
 10
4003.1355829811468539
 20
70.3405960117123925
 30
0.0
 40
0.0090820122595623
 50
263.586856291148024
 51
351.6425987804101965
  0
ARC
  5
7F60
  8
0
 10
4003.1345685485271133
 20
70.3575304132617987
 30
0.0
 40
0.0100000000000016
 50
0.0000000044680432
 51
90.0
  0
LINE
  5
7F61
  8
0
 10
4002.3356709107270035
 20
70.3123136733617997
 30
0.0
 11
4003.1345685485271133
 21
70.3123136733617997
 31
0.0
  0
LINE
  5
7F62
  8
0
 10
4002.3356709107270035
 20
70.2763540918618048
 30
0.0
 11
4003.1345685485248396
 21
70.2763540918618048
 31
0.0
  0
ARC
  5
7F63
  8
0
 10
4002.3346564781068082
 20
70.2853792718123884
 30
0.0
 40
0.0090820122595623
 50
188.3574012195896898
 51
276.413143708851976
  0
ARC
  5
7F64
  8
0
 10
4002.3356709107270035
 20
70.3023136733617946
 30
0.0
 40
0.0100000000000016
 50
90.0
 51
179.9999999955319936
  0
ARC
  5
7F65
  8
0
 10
4003.1355829811468539
 20
70.2853792718123884
 30
0.0
 40
0.0090820122595623
 50
263.586856291148024
 51
351.6425987804101965
  0
ARC
  5
7F66
  8
0
 10
4003.1345685485271133
 20
70.3023136733617946
 30
0.0
 40
0.0100000000000016
 50
0.0000000044680432
 51
90.0
  0
LINE
  5
7F67
  8
0
 10
4002.3356709107270035
 20
70.2534583437617925
 30
0.0
 11
4003.1345685485271133
 21
70.2534583437617925
 31
0.0
  0
LINE
  5
7F68
  8
0
 10
4002.3356709107270035
 20
70.2174987622617977
 30
0.0
 11
4003.1345685485248396
 21
70.2174987622617977
 31
0.0
  0
ARC
  5
7F69
  8
0
 10
4002.3346564781068082
 20
70.2265239422123955
 30
0.0
 40
0.0090820122595623
 50
188.3574012195896898
 51
276.413143708851976
  0
ARC
  5
7F6A
  8
0
 10
4002.3356709107270035
 20
70.2434583437618016
 30
0.0
 40
0.0100000000000016
 50
90.0
 51
179.9999999955319936
  0
ARC
  5
7F6B
  8
0
 10
4003.1355829811468539
 20
70.2265239422123955
 30
0.0
 40
0.0090820122595623
 50
263.586856291148024
 51
351.6425987804101965
  0
ARC
  5
7F6C
  8
0
 10
4003.1345685485271133
 20
70.2434583437618016
 30
0.0
 40
0.0100000000000016
 50
0.0000000044680432
 51
90.0
  0
LINE
  5
7F6D
  8
0
 10
4002.3356709107270035
 20
70.191892608161794
 30
0.0
 11
4003.1345685485271133
 21
70.191892608161794
 31
0.0
  0
LINE
  5
7F6E
  8
0
 10
4002.3356709107270035
 20
70.1559330266617991
 30
0.0
 11
4003.1345685485248396
 21
70.1559330266617991
 31
0.0
  0
ARC
  5
7F6F
  8
0
 10
4002.3346564781068082
 20
70.1649582066123969
 30
0.0
 40
0.0090820122595623
 50
188.3574012195896898
 51
276.413143708851976
  0
ARC
  5
7F70
  8
0
 10
4002.3356709107270035
 20
70.1818926081618031
 30
0.0
 40
0.0100000000000016
 50
90.0
 51
179.9999999955319936
  0
ARC
  5
7F71
  8
0
 10
4003.1355829811468539
 20
70.1649582066123969
 30
0.0
 40
0.0090820122595623
 50
263.586856291148024
 51
351.6425987804101965
  0
ARC
  5
7F72
  8
0
 10
4003.1345685485271133
 20
70.1818926081618031
 30
0.0
 40
0.0100000000000016
 50
0.0000000044680432
 51
90.0
  0
LINE
  5
7F73
  8
0
 10
4002.3356709107270035
 20
70.1292715904617978
 30
0.0
 11
4003.1345685485271133
 21
70.1292715904617978
 31
0.0
  0
LINE
  5
7F74
  8
0
 10
4002.3356709107270035
 20
70.0933120089617887
 30
0.0
 11
4003.1345685485248396
 21
70.0933120089617887
 31
0.0
  0
ARC
  5
7F75
  8
0
 10
4002.3346564781068082
 20
70.1023371889124007
 30
0.0
 40
0.0090820122595623
 50
188.3574012195896898
 51
276.413143708851976
  0
ARC
  5
7F76
  8
0
 10
4002.3356709107270035
 20
70.1192715904618069
 30
0.0
 40
0.0100000000000016
 50
90.0
 51
179.9999999955319936
  0
ARC
  5
7F77
  8
0
 10
4003.1355829811468539
 20
70.1023371889124007
 30
0.0
 40
0.0090820122595623
 50
263.586856291148024
 51
351.6425987804101965
  0
ARC
  5
7F78
  8
0
 10
4003.1345685485271133
 20
70.1192715904618069
 30
0.0
 40
0.0100000000000016
 50
0.0000000044680432
 51
90.0
  0
LINE
  5
7F7A
  8
0
 10
4001.5776394147269457
 20
70.4477303051780694
 30
0.0
 11
4001.5776394147269457
 21
69.6435516950507889
 31
0.0
  0
LINE
  5
7F7B
  8
0
 10
4001.6563795721272072
 20
70.4483844603974205
 30
0.0
 11
4001.6563795721272072
 21
69.6428975398314378
 31
0.0
  0
LINE
  5
7F7C
  8
0
 10
4001.6463795721269889
 20
70.4576457448117992
 30
0.0
 11
4001.5876387837738548
 21
70.4576457448117992
 31
0.0
  0
ARC
  5
7F7D
  8
0
 10
4001.6463574945660184
 20
70.4475924448649948
 30
0.0
 40
0.0100533241885042
 50
359.8987554286201203
 51
89.8741757401588046
  0
ARC
  5
7F7E
  8
0
 10
4001.5876387837738548
 20
70.4476460205740835
 30
0.0
 40
0.0099997242575946
 50
89.9963853779799479
 51
180.4829342421411127
  0
LINE
  5
7F7F
  8
0
 10
4001.6463795721269889
 20
70.0606457448117936
 30
0.0
 11
4001.5876394146271195
 21
70.0606457448117936
 31
0.0
  0
LINE
  5
7F80
  8
0
 10
4001.6463795721269889
 20
70.0970256638117917
 30
0.0
 11
4001.5876394146271195
 21
70.0970256638117917
 31
0.0
  0
ARC
  5
7F81
  8
0
 10
4001.6463795721269889
 20
70.0870256638118008
 30
0.0
 40
0.0100000000000016
 50
0.0000000000101778
 51
90.0
  0
ARC
  5
7F82
  8
0
 10
4001.587639414556179
 20
70.0870256639826437
 30
0.0
 40
0.0099999998291613
 50
89.9999995945565274
 51
180.0000009788319915
  0
ARC
  5
7F83
  8
0
 10
4001.6463795721269889
 20
70.0706457448117987
 30
0.0
 40
0.0100000000000016
 50
270.0
 51
359.999999999989825
  0
ARC
  5
7F84
  8
0
 10
4001.5876394146271195
 20
70.0706457448117987
 30
0.0
 40
0.0099999999999998
 50
187.1171774574607127
 51
270.0
  0
LINE
  5
7F85
  8
0
 10
4001.6463795721269889
 20
70.1247526903117944
 30
0.0
 11
4001.5876394146271195
 21
70.1247526903117944
 31
0.0
  0
LINE
  5
7F86
  8
0
 10
4001.6463795721269889
 20
70.1611326093117924
 30
0.0
 11
4001.5876394146271195
 21
70.1611326093117924
 31
0.0
  0
ARC
  5
7F87
  8
0
 10
4001.6463795721269889
 20
70.1511326093117873
 30
0.0
 40
0.0100000000000016
 50
0.0000000000101778
 51
90.0
  0
ARC
  5
7F88
  8
0
 10
4001.587639414556179
 20
70.1511326094826302
 30
0.0
 40
0.0099999998291613
 50
89.9999995945565274
 51
180.0000009788319915
  0
ARC
  5
7F89
  8
0
 10
4001.6463795721269889
 20
70.1347526903117995
 30
0.0
 40
0.0100000000000016
 50
270.0
 51
359.999999999989825
  0
ARC
  5
7F8A
  8
0
 10
4001.5876394146271195
 20
70.1347526903117995
 30
0.0
 40
0.0099999999999998
 50
187.1171774574607127
 51
270.0
  0
LINE
  5
7F8B
  8
0
 10
4001.6463795721269889
 20
70.1901095361118053
 30
0.0
 11
4001.5876394146271195
 21
70.1901095361118053
 31
0.0
  0
LINE
  5
7F8C
  8
0
 10
4001.6463795721269889
 20
70.2264894551117749
 30
0.0
 11
4001.5876394146271195
 21
70.2264894551117749
 31
0.0
  0
ARC
  5
7F8D
  8
0
 10
4001.6463795721269889
 20
70.2164894551117982
 30
0.0
 40
0.0100000000000016
 50
0.0000000000101778
 51
90.0
  0
ARC
  5
7F8E
  8
0
 10
4001.587639414556179
 20
70.2164894552826411
 30
0.0
 40
0.0099999998291613
 50
89.9999995945565274
 51
180.0000009788319915
  0
ARC
  5
7F8F
  8
0
 10
4001.6463795721269889
 20
70.2001095361117962
 30
0.0
 40
0.0100000000000016
 50
270.0
 51
359.999999999989825
  0
ARC
  5
7F90
  8
0
 10
4001.5876394146271195
 20
70.2001095361117962
 30
0.0
 40
0.0099999999999998
 50
187.1171774574607127
 51
270.0
  0
LINE
  5
7F91
  8
0
 10
4001.6463795721269889
 20
70.244803277311803
 30
0.0
 11
4001.5876394146271195
 21
70.244803277311803
 31
0.0
  0
LINE
  5
7F92
  8
0
 10
4001.6463795721269889
 20
70.2811831963117868
 30
0.0
 11
4001.5876394146271195
 21
70.2811831963117868
 31
0.0
  0
ARC
  5
7F93
  8
0
 10
4001.6463795721269889
 20
70.2711831963117959
 30
0.0
 40
0.0100000000000016
 50
0.0000000000101778
 51
90.0
  0
ARC
  5
7F94
  8
0
 10
4001.587639414556179
 20
70.2711831964826388
 30
0.0
 40
0.0099999998291613
 50
89.9999995945565274
 51
180.0000009788319915
  0
ARC
  5
7F95
  8
0
 10
4001.6463795721269889
 20
70.2548032773117939
 30
0.0
 40
0.0100000000000016
 50
270.0
 51
359.999999999989825
  0
ARC
  5
7F96
  8
0
 10
4001.5876394146271195
 20
70.2548032773117939
 30
0.0
 40
0.0099999999999998
 50
187.1171774574607127
 51
270.0
  0
LINE
  5
7F97
  8
0
 10
4001.6463795721269889
 20
70.2974722516117936
 30
0.0
 11
4001.5876394146271195
 21
70.2974722516117936
 31
0.0
  0
LINE
  5
7F98
  8
0
 10
4001.6463795721269889
 20
70.3338521706117916
 30
0.0
 11
4001.5876394146271195
 21
70.3338521706117916
 31
0.0
  0
ARC
  5
7F99
  8
0
 10
4001.6463795721269889
 20
70.3238521706117865
 30
0.0
 40
0.0100000000000016
 50
0.0000000000101778
 51
90.0
  0
ARC
  5
7F9A
  8
0
 10
4001.587639414556179
 20
70.3238521707826294
 30
0.0
 40
0.0099999998291613
 50
89.9999995945565274
 51
180.0000009788319915
  0
ARC
  5
7F9B
  8
0
 10
4001.6463795721269889
 20
70.3074722516117987
 30
0.0
 40
0.0100000000000016
 50
270.0
 51
359.999999999989825
  0
ARC
  5
7F9C
  8
0
 10
4001.5876394146271195
 20
70.3074722516117987
 30
0.0
 40
0.0099999999999998
 50
187.1171774574607127
 51
270.0
  0
LINE
  5
7F9D
  8
0
 10
4001.6463795721269889
 20
70.3432720553118003
 30
0.0
 11
4001.5876394146271195
 21
70.3432720553118003
 31
0.0
  0
LINE
  5
7F9E
  8
0
 10
4001.6463795721269889
 20
70.3796519743117983
 30
0.0
 11
4001.5876394146271195
 21
70.3796519743117983
 31
0.0
  0
ARC
  5
7F9F
  8
0
 10
4001.6463795721269889
 20
70.3696519743117932
 30
0.0
 40
0.0100000000000016
 50
0.0000000000101778
 51
90.0
  0
ARC
  5
7FA0
  8
0
 10
4001.587639414556179
 20
70.3696519744826361
 30
0.0
 40
0.0099999998291613
 50
89.9999995945565274
 51
180.0000009788319915
  0
ARC
  5
7FA1
  8
0
 10
4001.6463795721269889
 20
70.3532720553118054
 30
0.0
 40
0.0100000000000016
 50
270.0
 51
359.999999999989825
  0
ARC
  5
7FA2
  8
0
 10
4001.5876394146271195
 20
70.3532720553118054
 30
0.0
 40
0.0099999999999998
 50
187.1171774574607127
 51
270.0
  0
LINE
  5
7FA3
  8
0
 10
4001.6463795721269889
 20
70.3809533891117951
 30
0.0
 11
4001.5876394146271195
 21
70.3809533891117951
 31
0.0
  0
LINE
  5
7FA4
  8
0
 10
4001.6463795721269889
 20
70.4173333081117931
 30
0.0
 11
4001.5876394146271195
 21
70.4173333081117931
 31
0.0
  0
ARC
  5
7FA5
  8
0
 10
4001.6463795721269889
 20
70.4073333081117738
 30
0.0
 40
0.0100000000000016
 50
0.0000000000101778
 51
90.0
  0
ARC
  5
7FA6
  8
0
 10
4001.587639414556179
 20
70.4073333082826309
 30
0.0
 40
0.0099999998291613
 50
89.9999995945565274
 51
180.0000009788319915
  0
ARC
  5
7FA7
  8
0
 10
4001.6463795721269889
 20
70.3909533891118002
 30
0.0
 40
0.0100000000000016
 50
270.0
 51
359.999999999989825
  0
ARC
  5
7FA8
  8
0
 10
4001.5876394146271195
 20
70.3909533891118002
 30
0.0
 40
0.0099999999999998
 50
187.1171774574607127
 51
270.0
  0
LINE
  5
7FA9
  8
0
 10
4001.6463795721269889
 20
70.4533279684117844
 30
0.0
 11
4001.5876394146271195
 21
70.4533279684117844
 31
0.0
  0
ARC
  5
7FAA
  8
0
 10
4001.6463795721269889
 20
70.4433279684117934
 30
0.0
 40
0.0100000000000016
 50
0.0000000000101778
 51
90.0
  0
ARC
  5
7FAB
  8
0
 10
4001.587639414556179
 20
70.4433279685826363
 30
0.0
 40
0.0099999998291613
 50
89.9999995945565274
 51
180.0000009788319915
  0
LINE
  5
7FAC
  8
0
 10
4001.6463795721269889
 20
70.4388857209655441
 30
0.0
 11
4001.5876394146271195
 21
70.4388857209655441
 31
0.0
  0
ARC
  5
7FAD
  8
0
 10
4001.6463795721269889
 20
70.428885720965539
 30
0.0
 40
0.0100000000000016
 50
0.0000000000101778
 51
90.0
  0
ARC
  5
7FAE
  8
0
 10
4001.587639414556179
 20
70.4288857211363819
 30
0.0
 40
0.0099999998291613
 50
89.9999995945565274
 51
180.0000009788319915
  0
LINE
  5
7FAF
  8
0
 10
4001.6721276036269046
 20
70.3901339338117964
 30
0.0
 11
4001.6563795721272072
 21
70.3901339338117964
 31
0.0
  0
LINE
  5
7FB0
  8
0
 10
4001.6463795721269889
 20
69.6336362554170591
 30
0.0
 11
4001.5876387837738548
 21
69.6336362554170591
 31
0.0
  0
ARC
  5
7FB1
  8
0
 10
4001.6463574945660184
 20
69.6436895553638635
 30
0.0
 40
0.0100533241885042
 50
270.1258242598411812
 51
0.1012445713798424
  0
ARC
  5
7FB2
  8
0
 10
4001.5876387837738548
 20
69.6436359796547606
 30
0.0
 40
0.0099997242575946
 50
179.5170657578588873
 51
270.003614622020109
  0
LINE
  5
7FB3
  8
0
 10
4001.6463795721269889
 20
70.0306362554170505
 30
0.0
 11
4001.5876394146271195
 21
70.0306362554170505
 31
0.0
  0
LINE
  5
7FB4
  8
0
 10
4001.6463795721269889
 20
69.9942563364170667
 30
0.0
 11
4001.5876394146271195
 21
69.9942563364170667
 31
0.0
  0
ARC
  5
7FB5
  8
0
 10
4001.6463795721269889
 20
70.0042563364170576
 30
0.0
 40
0.0100000000000016
 50
270.0
 51
359.999999999989825
  0
ARC
  5
7FB6
  8
0
 10
4001.587639414556179
 20
70.0042563362462147
 30
0.0
 40
0.0099999998291613
 50
179.9999990211674969
 51
270.0000004054434726
  0
ARC
  5
7FB7
  8
0
 10
4001.6463795721269889
 20
70.0206362554170596
 30
0.0
 40
0.0100000000000016
 50
0.0000000000101778
 51
90.0
  0
ARC
  5
7FB8
  8
0
 10
4001.5876394146271195
 20
70.0206362554170596
 30
0.0
 40
0.0099999999999998
 50
90.0
 51
172.8828225425388041
  0
LINE
  5
7FB9
  8
0
 10
4001.6463795721269889
 20
69.966529309917064
 30
0.0
 11
4001.5876394146271195
 21
69.966529309917064
 31
0.0
  0
LINE
  5
7FBA
  8
0
 10
4001.6463795721269889
 20
69.9301493909170517
 30
0.0
 11
4001.5876394146271195
 21
69.9301493909170659
 31
0.0
  0
ARC
  5
7FBB
  8
0
 10
4001.6463795721269889
 20
69.9401493909170711
 30
0.0
 40
0.0100000000000016
 50
270.0
 51
359.999999999989825
  0
ARC
  5
7FBC
  8
0
 10
4001.587639414556179
 20
69.9401493907462282
 30
0.0
 40
0.0099999998291613
 50
179.9999990211674969
 51
270.0000004054434726
  0
ARC
  5
7FBD
  8
0
 10
4001.6463795721269889
 20
69.9565293099170589
 30
0.0
 40
0.0100000000000016
 50
0.0000000000101778
 51
90.0
  0
ARC
  5
7FBE
  8
0
 10
4001.5876394146271195
 20
69.9565293099170589
 30
0.0
 40
0.0099999999999998
 50
90.0
 51
172.8828225425388041
  0
LINE
  5
7FBF
  8
0
 10
4001.6463795721269889
 20
69.9011724641170531
 30
0.0
 11
4001.5876394146271195
 21
69.9011724641170531
 31
0.0
  0
LINE
  5
7FC0
  8
0
 10
4001.6463795721269889
 20
69.8647925451170551
 30
0.0
 11
4001.5876394146271195
 21
69.8647925451170551
 31
0.0
  0
ARC
  5
7FC1
  8
0
 10
4001.6463795721269889
 20
69.8747925451170602
 30
0.0
 40
0.0100000000000016
 50
270.0
 51
359.999999999989825
  0
ARC
  5
7FC2
  8
0
 10
4001.587639414556179
 20
69.8747925449462173
 30
0.0
 40
0.0099999998291613
 50
179.9999990211674969
 51
270.0000004054434726
  0
ARC
  5
7FC3
  8
0
 10
4001.6463795721269889
 20
69.8911724641170622
 30
0.0
 40
0.0100000000000016
 50
0.0000000000101778
 51
90.0
  0
ARC
  5
7FC4
  8
0
 10
4001.5876394146271195
 20
69.8911724641170622
 30
0.0
 40
0.0099999999999998
 50
90.0
 51
172.8828225425388041
  0
LINE
  5
7FC5
  8
0
 10
4001.6463795721269889
 20
69.8464787229170554
 30
0.0
 11
4001.5876394146271195
 21
69.8464787229170554
 31
0.0
  0
LINE
  5
7FC6
  8
0
 10
4001.6463795721269889
 20
69.8100988039170574
 30
0.0
 11
4001.5876394146271195
 21
69.8100988039170574
 31
0.0
  0
ARC
  5
7FC7
  8
0
 10
4001.6463795721269889
 20
69.8200988039170625
 30
0.0
 40
0.0100000000000016
 50
270.0
 51
359.999999999989825
  0
ARC
  5
7FC8
  8
0
 10
4001.587639414556179
 20
69.8200988037462196
 30
0.0
 40
0.0099999998291613
 50
179.9999990211674969
 51
270.0000004054434726
  0
ARC
  5
7FC9
  8
0
 10
4001.6463795721269889
 20
69.8364787229170645
 30
0.0
 40
0.0100000000000016
 50
0.0000000000101778
 51
90.0
  0
ARC
  5
7FCA
  8
0
 10
4001.5876394146271195
 20
69.8364787229170645
 30
0.0
 40
0.0099999999999998
 50
90.0
 51
172.8828225425388041
  0
LINE
  5
7FCB
  8
0
 10
4001.6463795721269889
 20
69.7938097486170648
 30
0.0
 11
4001.5876394146271195
 21
69.7938097486170648
 31
0.0
  0
LINE
  5
7FCC
  8
0
 10
4001.6463795721269889
 20
69.7574298296170525
 30
0.0
 11
4001.5876394146271195
 21
69.7574298296170525
 31
0.0
  0
ARC
  5
7FCD
  8
0
 10
4001.6463795721269889
 20
69.7674298296170718
 30
0.0
 40
0.0100000000000016
 50
270.0
 51
359.999999999989825
  0
ARC
  5
7FCE
  8
0
 10
4001.587639414556179
 20
69.767429829446229
 30
0.0
 40
0.0099999998291613
 50
179.9999990211674969
 51
270.0000004054434726
  0
ARC
  5
7FCF
  8
0
 10
4001.6463795721269889
 20
69.7838097486170597
 30
0.0
 40
0.0100000000000016
 50
0.0000000000101778
 51
90.0
  0
ARC
  5
7FD0
  8
0
 10
4001.5876394146271195
 20
69.7838097486170597
 30
0.0
 40
0.0099999999999998
 50
90.0
 51
172.8828225425388041
  0
LINE
  5
7FD1
  8
0
 10
4001.6463795721269889
 20
69.7480099449170439
 30
0.0
 11
4001.5876394146271195
 21
69.7480099449170439
 31
0.0
  0
LINE
  5
7FD2
  8
0
 10
4001.6463795721269889
 20
69.71163002591706
 30
0.0
 11
4001.5876394146271195
 21
69.71163002591706
 31
0.0
  0
ARC
  5
7FD3
  8
0
 10
4001.6463795721269889
 20
69.7216300259170652
 30
0.0
 40
0.0100000000000016
 50
270.0
 51
359.999999999989825
  0
ARC
  5
7FD4
  8
0
 10
4001.587639414556179
 20
69.7216300257462223
 30
0.0
 40
0.0099999998291613
 50
179.9999990211674969
 51
270.0000004054434726
  0
ARC
  5
7FD5
  8
0
 10
4001.6463795721269889
 20
69.738009944917053
 30
0.0
 40
0.0100000000000016
 50
0.0000000000101778
 51
90.0
  0
ARC
  5
7FD6
  8
0
 10
4001.5876394146271195
 20
69.738009944917053
 30
0.0
 40
0.0099999999999998
 50
90.0
 51
172.8828225425388041
  0
LINE
  5
7FD7
  8
0
 10
4001.6463795721269889
 20
69.7103286111170632
 30
0.0
 11
4001.5876394146271195
 21
69.7103286111170632
 31
0.0
  0
LINE
  5
7FD8
  8
0
 10
4001.6463795721269889
 20
69.6739486921170652
 30
0.0
 11
4001.5876394146271195
 21
69.6739486921170652
 31
0.0
  0
ARC
  5
7FD9
  8
0
 10
4001.6463795721269889
 20
69.6839486921170703
 30
0.0
 40
0.0100000000000016
 50
270.0
 51
359.999999999989825
  0
ARC
  5
7FDA
  8
0
 10
4001.587639414556179
 20
69.6839486919462132
 30
0.0
 40
0.0099999998291613
 50
179.9999990211674969
 51
270.0000004054434726
  0
ARC
  5
7FDB
  8
0
 10
4001.6463795721269889
 20
69.7003286111170581
 30
0.0
 40
0.0100000000000016
 50
0.0000000000101778
 51
90.0
  0
ARC
  5
7FDC
  8
0
 10
4001.5876394146271195
 20
69.7003286111170581
 30
0.0
 40
0.0099999999999998
 50
90.0
 51
172.8828225425388041
  0
LINE
  5
7FDD
  8
0
 10
4001.6463795721269889
 20
69.6379540318170456
 30
0.0
 11
4001.5876394146271195
 21
69.6379540318170456
 31
0.0
  0
ARC
  5
7FDE
  8
0
 10
4001.6463795721269889
 20
69.6479540318170649
 30
0.0
 40
0.0100000000000016
 50
270.0
 51
359.999999999989825
  0
ARC
  5
7FDF
  8
0
 10
4001.587639414556179
 20
69.647954031646222
 30
0.0
 40
0.0099999998291613
 50
179.9999990211674969
 51
270.0000004054434726
  0
LINE
  5
7FE0
  8
0
 10
4001.6463795721269889
 20
69.6523962792633142
 30
0.0
 11
4001.5876394146271195
 21
69.6523962792633142
 31
0.0
  0
ARC
  5
7FE1
  8
0
 10
4001.6463795721269889
 20
69.6623962792633193
 30
0.0
 40
0.0100000000000016
 50
270.0
 51
359.999999999989825
  0
ARC
  5
7FE2
  8
0
 10
4001.587639414556179
 20
69.6623962790924764
 30
0.0
 40
0.0099999998291613
 50
179.9999990211674969
 51
270.0000004054434726
  0
LINE
  5
7FE3
  8
0
 10
4001.6721276036269046
 20
69.701148066417062
 30
0.0
 11
4001.6563795721272072
 21
69.701148066417062
 31
0.0
  0
LINE
  5
7FE4
  8
0
 10
4002.1645301445259975
 20
70.0456457448117931
 30
0.0
 11
4002.1645301445259975
 21
64.0706129413868695
 31
0.0
  0
LINE
  5
7FE5
  8
0
 10
4001.7708274249271199
 20
70.0446312321502376
 30
0.0
 11
4001.7708274249271199
 21
64.0706129413868695
 31
0.0
  0
ARC
  5
7FE6
  8
0
 10
4001.9676787847270134
 20
64.0706129413868695
 30
0.0
 40
0.1968513598000001
 50
180.0
 51
0.0
  0
ARC
  5
7FE7
  8
0
 10
4001.9676781807370389
 20
70.0453728787110776
 30
0.0
 40
0.1968521529058227
 50
0.0794204214633781
 51
180.2158641280603888
  0
ARC
  5
7FE8
  8
0
 10
4001.9674031941272005
 20
70.0456457447617993
 30
0.0
 40
0.2007874015999995
 50
349.0428221570775236
 51
191.7559220393081034
  0
ARC
  5
7FE9
  8
0
 10
4001.9674031941272005
 20
70.0456457447617993
 30
0.0
 40
0.2401574803000006
 50
325.1673339964440856
 51
215.0622276612386088
  0
ENDSEC
  0
EOF
