  0
SECTION
  2
HEADER
  9
$ACADVER
  1
AC1009
  9
$INSBASE
 10
4495.6801669338410647
 20
145.6516299018342124
 30
0.0
  9
$EXTMIN
 10
4488.2720575955809181
 20
145.6430098973191036
 30
-0.0000000349181948
  9
$EXTMAX
 10
4503.0943875603043125
 20
158.3540375052313891
 30
0.0000000814935746
  9
$LIMMIN
 10
0.0
 20
0.0
  9
$LIMMAX
 10
11.6929133858000007
 20
8.2677165353999982
  9
$ORTHOMODE
 70
     0
  9
$REGENMODE
 70
     1
  9
$FILLMODE
 70
     1
  9
$QTEXTMODE
 70
     0
  9
$MIRRTEXT
 70
     0
  9
$DRAGMODE
 70
     2
  9
$LTSCALE
 40
0.6431102362
  9
$OSMODE
 70
  3839
  9
$ATTMODE
 70
     1
  9
$TEXTSIZE
 40
0.2
  9
$TRACEWID
 40
0.05
  9
$TEXTSTYLE
  7
STANDARD
  9
$CLAYER
  8
0
  9
$CELTYPE
  6
BYLAYER
  9
$CECOLOR
 62
   256
  9
$DIMSCALE
 40
1.0
  9
$DIMASZ
 40
0.1875
  9
$DIMEXO
 40
0.0625
  9
$DIMDLI
 40
0.4443307087
  9
$DIMRND
 40
0.0
  9
$DIMDLE
 40
0.0
  9
$DIMEXE
 40
0.125
  9
$DIMTP
 40
0.01
  9
$DIMTM
 40
0.01
  9
$DIMTXT
 40
2.0
  9
$DIMCEN
 40
0.1052362205
  9
$DIMTSZ
 40
0.0
  9
$DIMTOL
 70
     1
  9
$DIMLIM
 70
     0
  9
$DIMTIH
 70
     1
  9
$DIMTOH
 70
     1
  9
$DIMSE1
 70
     0
  9
$DIMSE2
 70
     0
  9
$DIMTAD
 70
     0
  9
$DIMZIN
 70
     0
  9
$DIMBLK
  1

  9
$DIMASO
 70
     1
  9
$DIMSHO
 70
     1
  9
$DIMPOST
  1
\X
  9
$DIMAPOST
  1

  9
$DIMALT
 70
     1
  9
$DIMALTD
 70
     2
  9
$DIMALTF
 40
25.3999999999999986
  9
$DIMLFAC
 40
1.0
  9
$DIMTOFL
 70
     0
  9
$DIMTVP
 40
0.0
  9
$DIMTIX
 70
     0
  9
$DIMSOXD
 70
     0
  9
$DIMSAH
 70
     0
  9
$DIMBLK1
  1

  9
$DIMBLK2
  1

  9
$DIMSTYLE
  2
STANDARD
  9
$DIMCLRD
 70
     0
  9
$DIMCLRE
 70
     0
  9
$DIMCLRT
 70
     0
  9
$DIMTFAC
 40
1.0
  9
$DIMGAP
 40
0.09
  9
$LUNITS
 70
     2
  9
$LUPREC
 70
     4
  9
$SKETCHINC
 40
0.1
  9
$FILLETRAD
 40
0.0
  9
$AUNITS
 70
     0
  9
$AUPREC
 70
     0
  9
$MENU
  1
.
  9
$ELEVATION
 40
0.0
  9
$PELEVATION
 40
0.0
  9
$THICKNESS
 40
0.0
  9
$LIMCHECK
 70
     0
  9
$BLIPMODE
 70
     0
  9
$CHAMFERA
 40
0.0
  9
$CHAMFERB
 40
0.0
  9
$SKPOLY
 70
     0
  9
$TDCREATE
 40
2458060.468368056230247
  9
$TDUPDATE
 40
2460248.529756945092231
  9
$TDINDWG
 40
0.4986297454
  9
$TDUSRTIMER
 40
0.4986297454
  9
$USRTIMER
 70
     1
  9
$ANGBASE
 50
0.0
  9
$ANGDIR
 70
     0
  9
$PDMODE
 70
     0
  9
$PDSIZE
 40
0.3125
  9
$PLINEWID
 40
0.0
  9
$COORDS
 70
     1
  9
$SPLFRAME
 70
     0
  9
$SPLINETYPE
 70
     6
  9
$SPLINESEGS
 70
     8
  9
$ATTDIA
 70
     1
  9
$ATTREQ
 70
     1
  9
$HANDLING
 70
     1
  9
$HANDSEED
  5
1130C
  9
$SURFTAB1
 70
     6
  9
$SURFTAB2
 70
     6
  9
$SURFTYPE
 70
     6
  9
$SURFU
 70
     6
  9
$SURFV
 70
     6
  9
$UCSNAME
  2

  9
$UCSORG
 10
0.0
 20
0.0
 30
0.0
  9
$UCSXDIR
 10
1.0
 20
0.0
 30
0.0
  9
$UCSYDIR
 10
0.0
 20
1.0
 30
0.0
  9
$PUCSNAME
  2

  9
$PUCSORG
 10
0.0
 20
0.0
 30
0.0
  9
$PUCSXDIR
 10
1.0
 20
0.0
 30
0.0
  9
$PUCSYDIR
 10
0.0
 20
1.0
 30
0.0
  9
$USERI1
 70
     0
  9
$USERI2
 70
     0
  9
$USERI3
 70
     0
  9
$USERI4
 70
     0
  9
$USERI5
 70
     0
  9
$USERR1
 40
0.0
  9
$USERR2
 40
0.0
  9
$USERR3
 40
0.0
  9
$USERR4
 40
0.0
  9
$USERR5
 40
0.0
  9
$WORLDVIEW
 70
     1
  9
$SHADEDGE
 70
     3
  9
$SHADEDIF
 70
    70
  9
$TILEMODE
 70
     1
  9
$MAXACTVP
 70
    64
  9
$PLIMCHECK
 70
     0
  9
$PEXTMIN
 10
1.0000000000000000E+20
 20
1.0000000000000000E+20
 30
1.0000000000000000E+20
  9
$PEXTMAX
 10
-1.0000000000000000E+20
 20
-1.0000000000000000E+20
 30
-1.0000000000000000E+20
  9
$PLIMMIN
 10
0.0
 20
0.0
  9
$PLIMMAX
 10
12.0
 20
9.0
  9
$UNITMODE
 70
     0
  9
$VISRETAIN
 70
     1
  9
$PLINEGEN
 70
     0
  9
$PSLTSCALE
 70
     1
  0
ENDSEC
  0
SECTION
  2
TABLES
  0
TABLE
  2
VPORT
 70
     1
  0
VPORT
  2
*ACTIVE
 70
     0
 10
0.0
 20
0.0
 11
1.0
 21
1.0
 12
692.1391551951301153
 22
26.0032615045253586
 13
0.0
 23
0.0
 14
1.0
 24
1.0
 15
0.0
 25
0.0
 16
0.0
 26
0.0
 36
17.1152628219792007
 17
3803.5440673828129547
 27
125.9952621967499056
 37
0.0
 40
12.8020373521218005
 41
2.2831541218637992
 42
50.0
 43
0.0
 44
0.0
 50
0.0
 51
0.0
 71
     0
 72
   100
 73
     1
 74
     1
 75
     0
 76
     0
 77
     0
 78
     0
  0
ENDTAB
  0
TABLE
  2
LTYPE
 70
     2
  0
LTYPE
  2
CONTINUOUS
 70
     0
  3
Solid line
 72
    65
 73
     0
 40
0.0
  0
LTYPE
  2
PHANTOM2
 70
     0
  3
___ _ _ ___ _ _ ___ _ _ ___ _ _
 72
    65
 73
     6
 40
1.25
 49
0.625
 49
-0.125
 49
0.125
 49
-0.125
 49
0.125
 49
-0.125
  0
ENDTAB
  0
TABLE
  2
LAYER
 70
     2
  0
LAYER
  2
0
 70
     0
 62
   255
  6
CONTINUOUS
  0
LAYER
  2
DEFPOINTS
 70
     0
 62
     7
  6
CONTINUOUS
  0
ENDTAB
  0
TABLE
  2
STYLE
 70
     1
  0
STYLE
  2
STANDARD
 70
     0
 40
0.0
 41
0.8
 50
0.0
 71
     0
 42
0.2
  3
txt
  4

  0
ENDTAB
  0
TABLE
  2
VIEW
 70
     0
  0
ENDTAB
  0
TABLE
  2
UCS
 70
     0
  0
ENDTAB
  0
TABLE
  2
APPID
 70
     9
  0
APPID
  2
ACAD
 70
     0
  0
APPID
  2
ACAD_MLEADERVER
 70
     0
  0
APPID
  2
ACAD_EXEMPT_FROM_CAD_STANDARDS
 70
     0
  0
APPID
  2
ACAD_NAV_VCDISPLAY
 70
     0
  0
APPID
  2
ACAECLAYERSTANDARD
 70
     0
  0
APPID
  2
ACCMTRANSPARENCY
 70
     0
  0
APPID
  2
ACAD_DSTYLE_DIMJAG
 70
     0
  0
APPID
  2
ACAD_DSTYLE_DIMTALN
 70
     0
  0
APPID
  2
ACDBATTR
 70
     0
  0
ENDTAB
  0
TABLE
  2
DIMSTYLE
 70
     1
  0
DIMSTYLE
  2
STANDARD
 70
     0
  3

  4

  5

  6

  7

 40
1.0
 41
0.1875
 42
0.0625
 43
0.38
 44
0.125
 45
0.0
 46
0.0
 47
0.01
 48
0.01
140
0.15625
141
0.09
142
0.0
143
25.3999999999999986
144
1.0
145
0.0
146
1.0
147
0.09
 71
     1
 72
     0
 73
     1
 74
     1
 75
     0
 76
     0
 77
     0
 78
     4
170
     0
171
     2
172
     0
173
     0
174
     0
175
     0
176
     0
177
     0
178
     0
  0
ENDTAB
  0
ENDSEC
  0
SECTION
  2
BLOCKS
  0
BLOCK
  8
0
  2
$MODEL_SPACE
 70
     0
 10
0.0
 20
0.0
 30
0.0
  3
$MODEL_SPACE
  1

  0
ENDBLK
  5
21
  8
0
  0
BLOCK
 67
     1
  8
0
  2
$PAPER_SPACE
 70
     0
 10
0.0
 20
0.0
 30
0.0
  3
$PAPER_SPACE
  1

  0
ENDBLK
  5
1D
 67
     1
  8
0
  0
BLOCK
  8
0
  2
_FILLED
 70
     0
 10
0.0
 20
0.0
 30
0.0
  3
_FILLED
  1

  0
SOLID
  5
10CA9
  8
0
  6
BYBLOCK
 62
     0
 10
0.0
 20
0.0
 30
0.0
 11
-1.0
 21
0.1666666667
 31
0.0
 12
-1.0
 22
-0.1666666667
 32
0.0
 13
-1.0
 23
-0.1666666667
 33
0.0
  0
ENDBLK
  5
10CAA
  8
0
  6
BYBLOCK
 62
     0
  0
ENDSEC
  0
SECTION
  2
ENTITIES
  0
ATTDEF
  5
10A4E
  8
DEFPOINTS
 10
4495.6810470107739093
 20
145.6554724868726112
 30
0.0
 40
0.001
  1
P80251-LV
  3

  2
MODELNUMBER
 70
     0
1001
ACDBATTR
1070
     0
1070
     1
  0
ATTDEF
  5
10A4F
  8
DEFPOINTS
 10
4495.6810470107739093
 20
145.6538058202058892
 30
0.0
 40
0.001
  1
VIR STIL
  3

  2
TRADENAME
 70
     0
1001
ACDBATTR
1070
     0
1070
     1
  0
ATTDEF
  5
10A50
  8
DEFPOINTS
 10
4495.6810470107739093
 20
145.6521391535393093
 30
0.0
 40
0.001
  1
BATH FAUCET
  3

  2
PRODUCT
 70
     0
1001
ACDBATTR
1070
     0
1070
     1
  0
LINE
  5
10EFB
  8
0
 10
4490.4301669338401553
 20
145.6516299018342124
 30
0.0
 11
4492.9301669338410647
 21
145.6516299018342124
 31
0.0
  0
LINE
  5
10EFC
  8
0
 10
4490.4301669338401553
 20
145.9666299018342102
 30
0.0
 11
4492.9301669338410647
 21
145.9666299018342102
 31
0.0
  0
LINE
  5
10EFD
  8
0
 10
4490.5801669338407009
 20
146.0366299018342033
 30
0.0
 11
4492.7801669338414285
 21
146.0366299018342033
 31
0.0
  0
LINE
  5
10EFE
  8
0
 10
4490.6496669338412175
 20
146.1066299018343102
 30
0.0
 11
4492.710666933840912
 21
146.1066299018343102
 31
0.0
  0
LINE
  5
10EFF
  8
0
 10
4491.0551669338410647
 20
146.2916299018341988
 30
0.0
 11
4492.3051669338410647
 21
146.2916299018341988
 31
0.0
  0
LINE
  5
10F00
  8
0
 10
4491.0551669338410647
 20
148.4096299018343075
 30
0.0
 11
4492.3051669338410647
 21
148.4096299018343075
 31
0.0
  0
LINE
  5
10F01
  8
0
 10
4491.1026669338398278
 20
148.4996299018343109
 30
0.0
 11
4492.2576669338395732
 21
148.4996299018343109
 31
0.0
  0
LINE
  5
10F02
  8
0
 10
4491.2301669338412466
 20
148.568629901834214
 30
0.0
 11
4492.1301669338408828
 21
148.568629901834214
 31
0.0
  0
LINE
  5
10F03
  8
0
 10
4488.3201669338413922
 20
148.5866299018341863
 30
0.0
 11
4492.2273583540409163
 21
148.5866299018341863
 31
0.0
  0
LINE
  5
10F04
  8
0
 10
4491.2681669338408028
 20
149.3566299018343102
 30
0.0
 11
4492.0921669338413267
 21
149.3566299018343102
 31
0.0
  0
LINE
  5
10F05
  8
0
 10
4491.2681669338408028
 20
149.2726299018341933
 30
0.0
 11
4492.0921669338413267
 21
149.2726299018341933
 31
0.0
  0
LINE
  5
10F06
  8
0
 10
4488.4881669338410575
 20
149.2626299018342024
 30
0.0
 11
4492.1331669338405845
 21
149.2626299018342024
 31
0.0
  0
LINE
  5
10F07
  8
0
 10
4488.3351669338408101
 20
149.2146299018342006
 30
0.0
 11
4492.2751669338422289
 21
149.2146299018342006
 31
0.0
  0
LINE
  5
10F08
  8
0
 10
4488.3051669338410647
 20
148.6626299018342081
 30
0.0
 11
4492.2751669338422289
 21
148.6626299018342081
 31
0.0
  0
LINE
  5
10F09
  8
0
 10
4491.2681669338408028
 20
149.3566299018343102
 30
0.0
 11
4491.2681669338408028
 21
149.2726299018341933
 31
0.0
  0
LINE
  5
10F0A
  8
0
 10
4488.4731669338398206
 20
149.2146299018342006
 30
0.0
 11
4488.4731669338398206
 21
149.2476299018341876
 31
0.0
  0
LINE
  5
10F0B
  8
0
 10
4488.4731669338398206
 20
149.2476299018341876
 30
0.0
 11
4488.4881669338410575
 21
149.2626299018342024
 31
0.0
  0
LINE
  5
10F0C
  8
0
 10
4488.3351669338408101
 20
149.2146299018342006
 30
0.0
 11
4488.3051669338410647
 21
149.1846299018341995
 31
0.0
  0
LINE
  5
10F0D
  8
0
 10
4488.3051669338410647
 20
149.1846299018341995
 30
0.0
 11
4488.3051669338410647
 21
148.6016299018342011
 31
0.0
  0
LINE
  5
10F0E
  8
0
 10
4488.3051669338410647
 20
148.6016299018342011
 30
0.0
 11
4488.3201669338413922
 21
148.5866299018341863
 31
0.0
  0
LINE
  5
10F0F
  8
0
 10
4491.3351669338408101
 20
149.2726299018341933
 30
0.0
 11
4491.3355516593410357
 21
149.2626299018342024
 31
0.0
  0
LINE
  5
10F10
  8
0
 10
4491.2301669338412466
 20
148.568629901834214
 30
0.0
 11
4491.2301669338412466
 21
148.4996299018343109
 31
0.0
  0
LINE
  5
10F11
  8
0
 10
4491.1026669338398278
 20
148.4996299018343109
 30
0.0
 11
4491.1026669338398278
 21
148.4096299018343075
 31
0.0
  0
LINE
  5
10F12
  8
0
 10
4491.3751669338407737
 20
148.5866299018341863
 30
0.0
 11
4491.3751669338407737
 21
148.568629901834214
 31
0.0
  0
LINE
  5
10F13
  8
0
 10
4491.0551669338410647
 20
148.4096299018343075
 30
0.0
 11
4491.0551669338410647
 21
146.2916299018341988
 31
0.0
  0
LINE
  5
10F14
  8
0
 10
4490.4301669338401553
 20
145.9666299018342102
 30
0.0
 11
4490.4301669338401553
 21
145.6516299018342124
 31
0.0
  0
LINE
  5
10F15
  8
0
 10
4490.5801669338407009
 20
146.0366299018342033
 30
0.0
 11
4490.5801669338407009
 21
145.9666299018342102
 31
0.0
  0
LINE
  5
10F16
  8
0
 10
4490.6496669338412175
 20
146.1066299018343102
 30
0.0
 11
4490.6496669338412175
 21
146.0366299018342033
 31
0.0
  0
LINE
  5
10F17
  8
0
 10
4491.1026669338398278
 20
146.1066299018343102
 30
0.0
 11
4491.1026669338398278
 21
146.2916299018341988
 31
0.0
  0
LINE
  5
10F18
  8
0
 10
4491.2221003437398394
 20
149.2146299014343072
 30
0.0
 11
4491.2221003437398394
 21
148.6626299022341868
 31
0.0
  0
LINE
  5
10F19
  8
0
 10
4492.0921669338413267
 20
149.3566299018343102
 30
0.0
 11
4492.0921669338413267
 21
149.2726299018341933
 31
0.0
  0
LINE
  5
10F1A
  8
0
 10
4492.0251669338413194
 20
149.2726299018341933
 30
0.0
 11
4492.0251669338413194
 21
149.2626299018342024
 31
0.0
  0
LINE
  5
10F1B
  8
0
 10
4492.1331669338405845
 20
149.2626299018342024
 30
0.0
 11
4492.148166933840912
 21
149.2476299018341876
 31
0.0
  0
LINE
  5
10F1C
  8
0
 10
4492.148166933840912
 20
149.2476299018341876
 30
0.0
 11
4492.148166933840912
 21
149.2146299018342006
 31
0.0
  0
LINE
  5
10F1D
  8
0
 10
4492.148166933840912
 20
149.2476299018341876
 30
0.0
 11
4488.4731669338398206
 21
149.2476299018341876
 31
0.0
  0
LINE
  5
10F1E
  8
0
 10
4492.2751669338422289
 20
149.2146299018342006
 30
0.0
 11
4492.3051669338410647
 21
149.1846299018341995
 31
0.0
  0
LINE
  5
10F1F
  8
0
 10
4492.3051669338410647
 20
149.1846299018341995
 30
0.0
 11
4492.3051669338410647
 21
148.6926299018342092
 31
0.0
  0
LINE
  5
10F20
  8
0
 10
4492.3051669338410647
 20
148.6926299018342092
 30
0.0
 11
4492.2751669338422289
 21
148.6626299018342081
 31
0.0
  0
LINE
  5
10F21
  8
0
 10
4492.3051669338410647
 20
149.1846299018341995
 30
0.0
 11
4488.3051669338410647
 21
149.1846299018343132
 31
0.0
  0
LINE
  5
10F22
  8
0
 10
4492.3051669338410647
 20
148.6926299018342092
 30
0.0
 11
4488.3051669338410647
 21
148.6926299018342092
 31
0.0
  0
LINE
  5
10F23
  8
0
 10
4488.3051669338410647
 20
148.6016299018342011
 30
0.0
 11
4492.2423586391923891
 21
148.6016299018342011
 31
0.0
  0
LINE
  5
10F24
  8
0
 10
4492.2273583540409163
 20
148.5866299018341863
 30
0.0
 11
4492.2423586391923891
 21
148.6016299018342011
 31
0.0
  0
LINE
  5
10F25
  8
0
 10
4492.1301669338408828
 20
148.568629901834214
 30
0.0
 11
4492.1301669338408828
 21
148.4996299018343109
 31
0.0
  0
LINE
  5
10F26
  8
0
 10
4491.9851669338413558
 20
148.5866299018341863
 30
0.0
 11
4491.9851669338413558
 21
148.568629901834214
 31
0.0
  0
LINE
  5
10F27
  8
0
 10
4492.2576669338395732
 20
148.4996299018343109
 30
0.0
 11
4492.2576669338395732
 21
148.4096299018343075
 31
0.0
  0
LINE
  5
10F28
  8
0
 10
4492.3051669338410647
 20
148.4096299018343075
 30
0.0
 11
4492.3051669338410647
 21
146.2916299018341988
 31
0.0
  0
LINE
  5
10F29
  8
0
 10
4492.9301669338410647
 20
145.9666299018342102
 30
0.0
 11
4492.9301669338410647
 21
145.6516299018342124
 31
0.0
  0
LINE
  5
10F2A
  8
0
 10
4492.7801669338414285
 20
146.0366299018342033
 30
0.0
 11
4492.7801669338414285
 21
145.9666299018342102
 31
0.0
  0
LINE
  5
10F2B
  8
0
 10
4492.710666933840912
 20
146.1066299018343102
 30
0.0
 11
4492.710666933840912
 21
146.0366299018342033
 31
0.0
  0
LINE
  5
10F2C
  8
0
 10
4492.2576669338395732
 20
146.1066299018343102
 30
0.0
 11
4492.2576669338395732
 21
146.2916299018341988
 31
0.0
  0
LINE
  5
10F2D
  8
0
 10
4492.2423586391923891
 20
148.6016299018342011
 30
0.0
 11
4492.2423586391923891
 21
148.6626299018342081
 31
0.0
  0
LINE
  5
10F93
  8
0
 10
4494.4301669338410647
 20
145.6516299018342124
 30
0.0
 11
4496.9301669338410647
 21
145.6516299018342124
 31
0.0
  0
LINE
  5
10F94
  8
0
 10
4494.4301669338410647
 20
145.6516299018342124
 30
0.0
 11
4494.4301669348405994
 21
146.2216299018342056
 31
0.0
  0
LINE
  5
10F95
  8
0
 10
4494.4301669348405994
 20
146.2216299018342056
 30
0.0
 11
4496.9301669338410647
 21
146.2216299018342056
 31
0.0
  0
LINE
  5
10F96
  8
0
 10
4496.7801669338414285
 20
146.2916299018341988
 30
0.0
 11
4494.5801669338397915
 21
146.2916299018341988
 31
0.0
  0
LINE
  5
10F97
  8
0
 10
4496.710666933840912
 20
146.3616299018343057
 30
0.0
 11
4494.6496669338412175
 21
146.3616299018343057
 31
0.0
  0
LINE
  5
10F98
  8
0
 10
4496.304166933840861
 20
146.4496299018341858
 30
0.0
 11
4495.0561669338412685
 21
146.4496299018341858
 31
0.0
  0
LINE
  5
10F99
  8
0
 10
4495.0561669338412685
 20
146.4496299018341858
 30
0.0
 11
4495.0561669338412685
 21
152.5516299018343034
 31
0.0
  0
LINE
  5
10F9A
  8
0
 10
4496.3051669338410647
 20
152.5516299018343034
 30
0.0
 11
4495.0551669338401553
 21
152.5516299018343034
 31
0.0
  0
LINE
  5
10F9B
  8
0
 10
4495.0551669338401553
 20
152.5516299018343034
 30
0.0
 11
4495.0551669338401553
 21
157.7186299018341913
 31
0.0
  0
ARC
  5
10F9C
  8
0
 10
4495.6801669338410647
 20
157.7186299018341913
 30
0.0
 40
0.625
 50
0.0
 51
180.0
  0
LINE
  5
10F9D
  8
0
 10
4496.2681669338398933
 20
152.4616299018341863
 30
0.0
 11
4495.0921669338413267
 21
152.4616299018341863
 31
0.0
  0
LINE
  5
10F9E
  8
0
 10
4495.0921669338413267
 20
152.4616299018341863
 30
0.0
 11
4495.0921669338413267
 21
152.5516299018343034
 31
0.0
  0
LINE
  5
10F9F
  8
0
 10
4495.0551669338401553
 20
153.3816299018342022
 30
0.0
 11
4496.3051669338410647
 21
153.3816299018342022
 31
0.0
  0
LINE
  5
10FA0
  8
0
 10
4496.3051669338410647
 20
153.4416299018342045
 30
0.0
 11
4495.0551669338401553
 21
153.4416299018342045
 31
0.0
  0
LINE
  5
10FA1
  8
0
 10
4495.0920019736413451
 20
153.4416299018342045
 30
0.0
 11
4495.0920019736413451
 21
153.3816299018342022
 31
0.0
  0
LINE
  5
10FA8
  8
0
 10
4494.5801669338397915
 20
146.2916299018341988
 30
0.0
 11
4494.5801669338397915
 21
146.2216299018342056
 31
0.0
  0
LINE
  5
10FA9
  8
0
 10
4494.6496669338412175
 20
146.3616299018343057
 30
0.0
 11
4494.6496669338412175
 21
146.2916299018341988
 31
0.0
  0
LINE
  5
10FAA
  8
0
 10
4495.0931669338397114
 20
146.4496299018341858
 30
0.0
 11
4495.0931669338397114
 21
146.3616299018343057
 31
0.0
  0
LINE
  5
10FAB
  8
0
 10
4496.9301669338410647
 20
145.6516299018342124
 30
0.0
 11
4496.9301669328397111
 21
146.2216299018342056
 31
0.0
  0
LINE
  5
10FAC
  8
0
 10
4496.304166933840861
 20
146.4496299018341858
 30
0.0
 11
4496.304166933840861
 21
152.5516299018343034
 31
0.0
  0
LINE
  5
10FAD
  8
0
 10
4496.3051669338410647
 20
152.5516299018343034
 30
0.0
 11
4496.3051669338410647
 21
157.7186299018341913
 31
0.0
  0
LINE
  5
10FAE
  8
0
 10
4496.2681669338398933
 20
152.4616299018341863
 30
0.0
 11
4496.2681669338398933
 21
152.5516299018343034
 31
0.0
  0
LINE
  5
10FAF
  8
0
 10
4496.2683318940398749
 20
153.4416299018342045
 30
0.0
 11
4496.2683318940398749
 21
153.3816299018342022
 31
0.0
  0
LINE
  5
10FB0
  8
0
 10
4496.7801669338414285
 20
146.2916299018341988
 30
0.0
 11
4496.7801669338414285
 21
146.2216299018342056
 31
0.0
  0
LINE
  5
10FB1
  8
0
 10
4496.710666933840912
 20
146.3616299018343057
 30
0.0
 11
4496.710666933840912
 21
146.2916299018341988
 31
0.0
  0
LINE
  5
10FB2
  8
0
 10
4496.2671669338405991
 20
146.4496299018341858
 30
0.0
 11
4496.2671669338405991
 21
146.3616299018343057
 31
0.0
  0
LINE
  5
10FB4
  8
0
 10
4500.9301669338410647
 20
145.6516299018342124
 30
0.0
 11
4498.4301669338410647
 21
145.6516299018342124
 31
0.0
  0
LINE
  5
10FB5
  8
0
 10
4500.9301669338410647
 20
145.9666299018342102
 30
0.0
 11
4498.4301669338410647
 21
145.9666299018342102
 31
0.0
  0
LINE
  5
10FB6
  8
0
 10
4500.7801669338414285
 20
146.0366299018342033
 30
0.0
 11
4498.5801669338397915
 21
146.0366299018342033
 31
0.0
  0
LINE
  5
10FB7
  8
0
 10
4500.710666933840912
 20
146.1066299018343102
 30
0.0
 11
4498.6496669338412175
 21
146.1066299018343102
 31
0.0
  0
LINE
  5
10FB8
  8
0
 10
4500.3051669338401553
 20
146.2916299018341988
 30
0.0
 11
4499.0551669338410647
 21
146.2916299018341988
 31
0.0
  0
LINE
  5
10FB9
  8
0
 10
4500.3051669338401553
 20
148.4096299018343075
 30
0.0
 11
4499.0551669338410647
 21
148.4096299018343075
 31
0.0
  0
LINE
  5
10FBA
  8
0
 10
4500.2576669338413922
 20
148.4996299018343109
 30
0.0
 11
4499.1026669338407373
 21
148.4996299018343109
 31
0.0
  0
LINE
  5
10FBB
  8
0
 10
4500.1301669338408828
 20
148.568629901834214
 30
0.0
 11
4499.2301669338403372
 21
148.568629901834214
 31
0.0
  0
LINE
  5
10FBC
  8
0
 10
4503.0401669338407373
 20
148.5866299018341863
 30
0.0
 11
4499.1329755136412132
 21
148.5866299018341863
 31
0.0
  0
LINE
  5
10FBD
  8
0
 10
4500.0921669338422362
 20
149.3566299018343102
 30
0.0
 11
4499.2681669338398933
 21
149.3566299018343102
 31
0.0
  0
LINE
  5
10FBE
  8
0
 10
4500.0921669338422362
 20
149.2726299018341933
 30
0.0
 11
4499.2681669338398933
 21
149.2726299018341933
 31
0.0
  0
LINE
  5
10FBF
  8
0
 10
4502.8721669338401625
 20
149.2626299018342024
 30
0.0
 11
4499.2271669338406355
 21
149.2626299018342024
 31
0.0
  0
LINE
  5
10FC0
  8
0
 10
4503.0251669338413194
 20
149.2146299018342006
 30
0.0
 11
4499.0851669338399006
 21
149.2146299018342006
 31
0.0
  0
LINE
  5
10FC1
  8
0
 10
4503.0551669338410647
 20
148.6626299018342081
 30
0.0
 11
4499.0851669338399006
 21
148.6626299018342081
 31
0.0
  0
LINE
  5
10FC2
  8
0
 10
4500.0921669338422362
 20
149.3566299018343102
 30
0.0
 11
4500.0921669338422362
 21
149.2726299018341933
 31
0.0
  0
LINE
  5
10FC3
  8
0
 10
4502.8871669338413994
 20
149.2146299018342006
 30
0.0
 11
4502.8871669338413994
 21
149.2476299018341876
 31
0.0
  0
LINE
  5
10FC4
  8
0
 10
4502.8871669338413994
 20
149.2476299018341876
 30
0.0
 11
4502.8721669338401625
 21
149.2626299018342024
 31
0.0
  0
LINE
  5
10FC5
  8
0
 10
4503.0251669338413194
 20
149.2146299018342006
 30
0.0
 11
4503.0551669338410647
 21
149.1846299018341995
 31
0.0
  0
LINE
  5
10FC6
  8
0
 10
4503.0551669338410647
 20
149.1846299018341995
 30
0.0
 11
4503.0551669338410647
 21
148.6016299018342011
 31
0.0
  0
LINE
  5
10FC7
  8
0
 10
4503.0551669338410647
 20
148.6016299018342011
 30
0.0
 11
4503.0401669338407373
 21
148.5866299018341863
 31
0.0
  0
LINE
  5
10FC8
  8
0
 10
4500.0251669338404099
 20
149.2726299018341933
 30
0.0
 11
4500.0247822083410938
 21
149.2626299018342024
 31
0.0
  0
LINE
  5
10FC9
  8
0
 10
4500.1301669338408828
 20
148.568629901834214
 30
0.0
 11
4500.1301669338408828
 21
148.4996299018343109
 31
0.0
  0
LINE
  5
10FCA
  8
0
 10
4500.2576669338413922
 20
148.4996299018343109
 30
0.0
 11
4500.2576669338413922
 21
148.4096299018343075
 31
0.0
  0
LINE
  5
10FCB
  8
0
 10
4499.9851669338413558
 20
148.5866299018341863
 30
0.0
 11
4499.9851669338413558
 21
148.568629901834214
 31
0.0
  0
LINE
  5
10FCC
  8
0
 10
4500.3051669338401553
 20
148.4096299018343075
 30
0.0
 11
4500.3051669338401553
 21
146.2916299018341988
 31
0.0
  0
LINE
  5
10FCD
  8
0
 10
4500.9301669338410647
 20
145.9666299018342102
 30
0.0
 11
4500.9301669338410647
 21
145.6516299018342124
 31
0.0
  0
LINE
  5
10FCE
  8
0
 10
4500.7801669338414285
 20
146.0366299018342033
 30
0.0
 11
4500.7801669338414285
 21
145.9666299018342102
 31
0.0
  0
LINE
  5
10FCF
  8
0
 10
4500.710666933840912
 20
146.1066299018343102
 30
0.0
 11
4500.710666933840912
 21
146.0366299018342033
 31
0.0
  0
LINE
  5
10FD0
  8
0
 10
4500.2576669338413922
 20
146.1066299018343102
 30
0.0
 11
4500.2576669338413922
 21
146.2916299018341988
 31
0.0
  0
LINE
  5
10FD1
  8
0
 10
4500.1382335239413806
 20
149.2146299014343072
 30
0.0
 11
4500.1382335239413806
 21
148.6626299022341868
 31
0.0
  0
LINE
  5
10FD2
  8
0
 10
4499.2681669338398933
 20
149.3566299018343102
 30
0.0
 11
4499.2681669338398933
 21
149.2726299018341933
 31
0.0
  0
LINE
  5
10FD3
  8
0
 10
4499.3351669338408101
 20
149.2726299018341933
 30
0.0
 11
4499.3351669338408101
 21
149.2626299018342024
 31
0.0
  0
LINE
  5
10FD4
  8
0
 10
4499.2271669338406355
 20
149.2626299018342024
 30
0.0
 11
4499.212166933840308
 21
149.2476299018341876
 31
0.0
  0
LINE
  5
10FD5
  8
0
 10
4499.212166933840308
 20
149.2476299018341876
 30
0.0
 11
4499.212166933840308
 21
149.2146299018342006
 31
0.0
  0
LINE
  5
10FD6
  8
0
 10
4499.212166933840308
 20
149.2476299018341876
 30
0.0
 11
4502.8871669338413994
 21
149.2476299018341876
 31
0.0
  0
LINE
  5
10FD7
  8
0
 10
4499.0851669338399006
 20
149.2146299018342006
 30
0.0
 11
4499.0551669338410647
 21
149.1846299018341995
 31
0.0
  0
LINE
  5
10FD8
  8
0
 10
4499.0551669338410647
 20
149.1846299018341995
 30
0.0
 11
4499.0551669338410647
 21
148.6926299018342092
 31
0.0
  0
LINE
  5
10FD9
  8
0
 10
4499.0551669338410647
 20
148.6926299018342092
 30
0.0
 11
4499.0851669338399006
 21
148.6626299018342081
 31
0.0
  0
LINE
  5
10FDA
  8
0
 10
4499.0551669338410647
 20
149.1846299018341995
 30
0.0
 11
4503.0551669338410647
 21
149.1846299018343132
 31
0.0
  0
LINE
  5
10FDB
  8
0
 10
4499.0551669338410647
 20
148.6926299018342092
 30
0.0
 11
4503.0551669338410647
 21
148.6926299018342092
 31
0.0
  0
LINE
  5
10FDC
  8
0
 10
4503.0551669338410647
 20
148.6016299018342011
 30
0.0
 11
4499.1179752284888309
 21
148.6016299018342011
 31
0.0
  0
LINE
  5
10FDD
  8
0
 10
4499.1329755136412132
 20
148.5866299018341863
 30
0.0
 11
4499.1179752284888309
 21
148.6016299018342011
 31
0.0
  0
LINE
  5
10FDE
  8
0
 10
4499.2301669338403372
 20
148.568629901834214
 30
0.0
 11
4499.2301669338403372
 21
148.4996299018343109
 31
0.0
  0
LINE
  5
10FDF
  8
0
 10
4499.3751669338398642
 20
148.5866299018341863
 30
0.0
 11
4499.3751669338398642
 21
148.568629901834214
 31
0.0
  0
LINE
  5
10FE0
  8
0
 10
4499.1026669338407373
 20
148.4996299018343109
 30
0.0
 11
4499.1026669338407373
 21
148.4096299018343075
 31
0.0
  0
LINE
  5
10FE1
  8
0
 10
4499.0551669338410647
 20
148.4096299018343075
 30
0.0
 11
4499.0551669338410647
 21
146.2916299018341988
 31
0.0
  0
LINE
  5
10FE2
  8
0
 10
4498.4301669338410647
 20
145.9666299018342102
 30
0.0
 11
4498.4301669338410647
 21
145.6516299018342124
 31
0.0
  0
LINE
  5
10FE3
  8
0
 10
4498.5801669338397915
 20
146.0366299018342033
 30
0.0
 11
4498.5801669338397915
 21
145.9666299018342102
 31
0.0
  0
LINE
  5
10FE4
  8
0
 10
4498.6496669338412175
 20
146.1066299018343102
 30
0.0
 11
4498.6496669338412175
 21
146.0366299018342033
 31
0.0
  0
LINE
  5
10FE5
  8
0
 10
4499.1026669338407373
 20
146.1066299018343102
 30
0.0
 11
4499.1026669338407373
 21
146.2916299018341988
 31
0.0
  0
LINE
  5
10FE6
  8
0
 10
4499.1179752284888309
 20
148.6016299018342011
 30
0.0
 11
4499.1179752284888309
 21
148.6626299018342081
 31
0.0
  0
ENDSEC
  0
EOF
