  0
SECTION
  2
HEADER
  9
$ACADVER
  1
AC1009
  9
$INSBASE
 10
4495.6788355081171176
 20
145.6500417331533868
 30
0.0
  9
$EXTMIN
 10
4494.4288355081171176
 20
145.6500417331533868
 30
0.0
  9
$EXTMAX
 10
4496.9288355081171176
 20
149.355041733153513
 30
0.0
  9
$LIMMIN
 10
0.0
 20
0.0
  9
$LIMMAX
 10
11.6929133858000007
 20
8.2677165353999982
  9
$ORTHOMODE
 70
     0
  9
$REGENMODE
 70
     1
  9
$FILLMODE
 70
     1
  9
$QTEXTMODE
 70
     0
  9
$MIRRTEXT
 70
     0
  9
$DRAGMODE
 70
     2
  9
$LTSCALE
 40
0.6431102362
  9
$OSMODE
 70
  3999
  9
$ATTMODE
 70
     1
  9
$TEXTSIZE
 40
0.2
  9
$TRACEWID
 40
0.05
  9
$TEXTSTYLE
  7
STANDARD
  9
$CLAYER
  8
0
  9
$CELTYPE
  6
BYLAYER
  9
$CECOLOR
 62
   256
  9
$DIMSCALE
 40
1.0
  9
$DIMASZ
 40
0.1875
  9
$DIMEXO
 40
0.0625
  9
$DIMDLI
 40
0.4443307087
  9
$DIMRND
 40
0.0
  9
$DIMDLE
 40
0.0
  9
$DIMEXE
 40
0.125
  9
$DIMTP
 40
0.01
  9
$DIMTM
 40
0.01
  9
$DIMTXT
 40
2.0
  9
$DIMCEN
 40
0.1052362205
  9
$DIMTSZ
 40
0.0
  9
$DIMTOL
 70
     1
  9
$DIMLIM
 70
     0
  9
$DIMTIH
 70
     1
  9
$DIMTOH
 70
     1
  9
$DIMSE1
 70
     0
  9
$DIMSE2
 70
     0
  9
$DIMTAD
 70
     0
  9
$DIMZIN
 70
     0
  9
$DIMBLK
  1

  9
$DIMASO
 70
     1
  9
$DIMSHO
 70
     1
  9
$DIMPOST
  1
\X
  9
$DIMAPOST
  1

  9
$DIMALT
 70
     1
  9
$DIMALTD
 70
     2
  9
$DIMALTF
 40
25.3999999999999986
  9
$DIMLFAC
 40
1.0
  9
$DIMTOFL
 70
     0
  9
$DIMTVP
 40
0.0
  9
$DIMTIX
 70
     0
  9
$DIMSOXD
 70
     0
  9
$DIMSAH
 70
     0
  9
$DIMBLK1
  1

  9
$DIMBLK2
  1

  9
$DIMSTYLE
  2
STANDARD
  9
$DIMCLRD
 70
     0
  9
$DIMCLRE
 70
     0
  9
$DIMCLRT
 70
     0
  9
$DIMTFAC
 40
1.0
  9
$DIMGAP
 40
0.09
  9
$LUNITS
 70
     2
  9
$LUPREC
 70
     4
  9
$SKETCHINC
 40
0.1
  9
$FILLETRAD
 40
0.0
  9
$AUNITS
 70
     0
  9
$AUPREC
 70
     0
  9
$MENU
  1
.
  9
$ELEVATION
 40
0.0
  9
$PELEVATION
 40
0.0
  9
$THICKNESS
 40
0.0
  9
$LIMCHECK
 70
     0
  9
$BLIPMODE
 70
     0
  9
$CHAMFERA
 40
0.0
  9
$CHAMFERB
 40
0.0
  9
$SKPOLY
 70
     0
  9
$TDCREATE
 40
2458060.468368056230247
  9
$TDUPDATE
 40
2460234.5042824079282582
  9
$TDINDWG
 40
0.4930857639
  9
$TDUSRTIMER
 40
0.4930857639
  9
$USRTIMER
 70
     1
  9
$ANGBASE
 50
0.0
  9
$ANGDIR
 70
     0
  9
$PDMODE
 70
     0
  9
$PDSIZE
 40
0.3125
  9
$PLINEWID
 40
0.0
  9
$COORDS
 70
     1
  9
$SPLFRAME
 70
     0
  9
$SPLINETYPE
 70
     6
  9
$SPLINESEGS
 70
     8
  9
$ATTDIA
 70
     1
  9
$ATTREQ
 70
     1
  9
$HANDLING
 70
     1
  9
$HANDSEED
  5
10E84
  9
$SURFTAB1
 70
     6
  9
$SURFTAB2
 70
     6
  9
$SURFTYPE
 70
     6
  9
$SURFU
 70
     6
  9
$SURFV
 70
     6
  9
$UCSNAME
  2

  9
$UCSORG
 10
0.0
 20
0.0
 30
0.0
  9
$UCSXDIR
 10
1.0
 20
0.0
 30
0.0
  9
$UCSYDIR
 10
0.0
 20
1.0
 30
0.0
  9
$PUCSNAME
  2

  9
$PUCSORG
 10
0.0
 20
0.0
 30
0.0
  9
$PUCSXDIR
 10
1.0
 20
0.0
 30
0.0
  9
$PUCSYDIR
 10
0.0
 20
1.0
 30
0.0
  9
$USERI1
 70
     0
  9
$USERI2
 70
     0
  9
$USERI3
 70
     0
  9
$USERI4
 70
     0
  9
$USERI5
 70
     0
  9
$USERR1
 40
0.0
  9
$USERR2
 40
0.0
  9
$USERR3
 40
0.0
  9
$USERR4
 40
0.0
  9
$USERR5
 40
0.0
  9
$WORLDVIEW
 70
     1
  9
$SHADEDGE
 70
     3
  9
$SHADEDIF
 70
    70
  9
$TILEMODE
 70
     1
  9
$MAXACTVP
 70
    64
  9
$PLIMCHECK
 70
     0
  9
$PEXTMIN
 10
1.0000000000000000E+20
 20
1.0000000000000000E+20
 30
1.0000000000000000E+20
  9
$PEXTMAX
 10
-1.0000000000000000E+20
 20
-1.0000000000000000E+20
 30
-1.0000000000000000E+20
  9
$PLIMMIN
 10
0.0
 20
0.0
  9
$PLIMMAX
 10
12.0
 20
9.0
  9
$UNITMODE
 70
     0
  9
$VISRETAIN
 70
     1
  9
$PLINEGEN
 70
     0
  9
$PSLTSCALE
 70
     1
  0
ENDSEC
  0
SECTION
  2
TABLES
  0
TABLE
  2
VPORT
 70
     1
  0
VPORT
  2
*ACTIVE
 70
     0
 10
0.0
 20
0.0
 11
1.0
 21
1.0
 12
692.1347681253045039
 22
21.5072795364035585
 13
0.0
 23
0.0
 14
1.0
 24
1.0
 15
0.0
 25
0.0
 16
0.0
 26
0.0
 36
17.1152628219792007
 17
3803.5440673828129547
 27
125.9952621967499056
 37
0.0
 40
3.7405111821086399
 41
2.4432
 42
50.0
 43
0.0
 44
0.0
 50
0.0
 51
0.0
 71
     0
 72
   100
 73
     1
 74
     1
 75
     0
 76
     0
 77
     0
 78
     0
  0
ENDTAB
  0
TABLE
  2
LTYPE
 70
     2
  0
LTYPE
  2
CONTINUOUS
 70
     0
  3
Solid line
 72
    65
 73
     0
 40
0.0
  0
LTYPE
  2
PHANTOM2
 70
     0
  3
___ _ _ ___ _ _ ___ _ _ ___ _ _
 72
    65
 73
     6
 40
1.25
 49
0.625
 49
-0.125
 49
0.125
 49
-0.125
 49
0.125
 49
-0.125
  0
ENDTAB
  0
TABLE
  2
LAYER
 70
     2
  0
LAYER
  2
0
 70
     0
 62
   255
  6
CONTINUOUS
  0
LAYER
  2
DEFPOINTS
 70
     0
 62
     7
  6
CONTINUOUS
  0
ENDTAB
  0
TABLE
  2
STYLE
 70
     1
  0
STYLE
  2
STANDARD
 70
     0
 40
0.0
 41
0.8
 50
0.0
 71
     0
 42
0.2
  3
txt
  4

  0
ENDTAB
  0
TABLE
  2
VIEW
 70
     0
  0
ENDTAB
  0
TABLE
  2
UCS
 70
     0
  0
ENDTAB
  0
TABLE
  2
APPID
 70
     9
  0
APPID
  2
ACAD
 70
     0
  0
APPID
  2
ACAD_MLEADERVER
 70
     0
  0
APPID
  2
ACAD_EXEMPT_FROM_CAD_STANDARDS
 70
     0
  0
APPID
  2
ACAD_NAV_VCDISPLAY
 70
     0
  0
APPID
  2
ACAECLAYERSTANDARD
 70
     0
  0
APPID
  2
ACCMTRANSPARENCY
 70
     0
  0
APPID
  2
ACAD_DSTYLE_DIMJAG
 70
     0
  0
APPID
  2
ACAD_DSTYLE_DIMTALN
 70
     0
  0
APPID
  2
ACDBATTR
 70
     0
  0
ENDTAB
  0
TABLE
  2
DIMSTYLE
 70
     1
  0
DIMSTYLE
  2
STANDARD
 70
     0
  3

  4

  5

  6

  7

 40
1.0
 41
0.1875
 42
0.0625
 43
0.38
 44
0.125
 45
0.0
 46
0.0
 47
0.01
 48
0.01
140
0.15625
141
0.09
142
0.0
143
25.3999999999999986
144
1.0
145
0.0
146
1.0
147
0.09
 71
     1
 72
     0
 73
     1
 74
     1
 75
     0
 76
     0
 77
     0
 78
     4
170
     0
171
     2
172
     0
173
     0
174
     0
175
     0
176
     0
177
     0
178
     0
  0
ENDTAB
  0
ENDSEC
  0
SECTION
  2
BLOCKS
  0
BLOCK
  8
0
  2
$MODEL_SPACE
 70
     0
 10
0.0
 20
0.0
 30
0.0
  3
$MODEL_SPACE
  1

  0
ENDBLK
  5
21
  8
0
  0
BLOCK
 67
     1
  8
0
  2
$PAPER_SPACE
 70
     0
 10
0.0
 20
0.0
 30
0.0
  3
$PAPER_SPACE
  1

  0
ENDBLK
  5
1D
 67
     1
  8
0
  0
BLOCK
  8
0
  2
_FILLED
 70
     0
 10
0.0
 20
0.0
 30
0.0
  3
_FILLED
  1

  0
SOLID
  5
10CA9
  8
0
  6
BYBLOCK
 62
     0
 10
0.0
 20
0.0
 30
0.0
 11
-1.0
 21
0.1666666667
 31
0.0
 12
-1.0
 22
-0.1666666667
 32
0.0
 13
-1.0
 23
-0.1666666667
 33
0.0
  0
ENDBLK
  5
10CAA
  8
0
  6
BYBLOCK
 62
     0
  0
ENDSEC
  0
SECTION
  2
ENTITIES
  0
ATTDEF
  5
10A4E
  8
DEFPOINTS
 10
4495.6810470107739093
 20
145.6554724868726112
 30
0.0
 40
0.001
  1
P80252-LV
  3

  2
MODELNUMBER
 70
     0
1001
ACDBATTR
1070
     0
1070
     1
  0
ATTDEF
  5
10A4F
  8
DEFPOINTS
 10
4495.6810470107739093
 20
145.6538058202058892
 30
0.0
 40
0.001
  1
VIR STIL
  3

  2
TRADENAME
 70
     0
1001
ACDBATTR
1070
     0
1070
     1
  0
ATTDEF
  5
10A50
  8
DEFPOINTS
 10
4495.6810470107739093
 20
145.6521391535393093
 30
0.0
 40
0.001
  1
DIVERTER
  3

  2
PRODUCT
 70
     0
1001
ACDBATTR
1070
     0
1070
     1
  0
LINE
  5
10CF6
  8
0
 10
4494.4288355081171176
 20
145.6500417331533868
 30
0.0
 11
4496.9288355081171176
 21
145.6500417331533868
 31
0.0
  0
LINE
  5
10CF7
  8
0
 10
4494.4288355081171176
 20
145.9650417331534129
 30
0.0
 11
4496.9288355081171176
 21
145.9650417331534129
 31
0.0
  0
LINE
  5
10CF8
  8
0
 10
4494.5788355081167538
 20
146.0350417331534061
 30
0.0
 11
4496.7788355081165719
 21
146.0350417331534061
 31
0.0
  0
LINE
  5
10CF9
  8
0
 10
4494.6483355081172704
 20
146.105041733153513
 30
0.0
 11
4496.7093355081169648
 21
146.105041733153513
 31
0.0
  0
LINE
  5
10CFA
  8
0
 10
4495.0538355081171176
 20
146.2900417331534015
 30
0.0
 11
4496.3038355081171176
 21
146.2900417331534015
 31
0.0
  0
LINE
  5
10CFB
  8
0
 10
4495.0538355081171176
 20
148.4080417331535102
 30
0.0
 11
4496.3038355081171176
 21
148.4080417331535102
 31
0.0
  0
LINE
  5
10CFC
  8
0
 10
4495.1013355081158807
 20
148.4980417331535136
 30
0.0
 11
4496.256335508117445
 21
148.4980417331535136
 31
0.0
  0
LINE
  5
10CFD
  8
0
 10
4495.2288355081172995
 20
148.5670417331533883
 30
0.0
 11
4496.1288355081169357
 21
148.5670417331533883
 31
0.0
  0
LINE
  5
10CFE
  8
0
 10
4495.1316325975167274
 20
148.585041733153389
 30
0.0
 11
4496.2260384187184172
 21
148.585041733153389
 31
0.0
  0
LINE
  5
10CFF
  8
0
 10
4495.2665813208923282
 20
149.355041733153513
 30
0.0
 11
4496.0910896953419069
 21
149.355041733153513
 31
0.0
  0
LINE
  5
10D00
  8
0
 10
4495.2665813208923282
 20
149.2710417331535098
 30
0.0
 11
4496.0910896953419069
 21
149.2710417331535098
 31
0.0
  0
LINE
  5
10D01
  8
0
 10
4495.2258355081166883
 20
149.2610417331534052
 30
0.0
 11
4496.1318355080165929
 21
149.2610417331534052
 31
0.0
  0
LINE
  5
10D02
  8
0
 10
4495.0838355081168629
 20
149.2130417331534034
 30
0.0
 11
4496.2738355081173722
 21
149.2130417331534034
 31
0.0
  0
LINE
  5
10D03
  8
0
 10
4495.0838355081168629
 20
148.6610417331534109
 30
0.0
 11
4496.2738355081173722
 21
148.6610417331534109
 31
0.0
  0
LINE
  5
10D04
  8
0
 10
4495.2665813208923282
 20
149.355041733153513
 30
0.0
 11
4495.2665813208923282
 21
149.2710417331535098
 31
0.0
  0
LINE
  5
10D05
  8
0
 10
4495.2258355082158232
 20
149.2610417331534052
 30
0.0
 11
4495.2108355081172704
 21
149.2460417331535041
 31
0.0
  0
LINE
  5
10D06
  8
0
 10
4495.2108355081172704
 20
149.2460417331535041
 30
0.0
 11
4495.2108355081172704
 21
149.2130417331534034
 31
0.0
  0
LINE
  5
10D07
  8
0
 10
4495.0838355081168629
 20
149.2130417331534034
 30
0.0
 11
4495.0538355081171176
 21
149.1830417331534022
 31
0.0
  0
LINE
  5
10D08
  8
0
 10
4495.0538355081171176
 20
149.1830417331534022
 30
0.0
 11
4495.0538355081171176
 21
148.691041733153412
 31
0.0
  0
LINE
  5
10D09
  8
0
 10
4495.0538355081171176
 20
148.691041733153412
 30
0.0
 11
4495.0838355081168629
 21
148.6610417331534109
 31
0.0
  0
LINE
  5
10D0A
  8
0
 10
4495.1166355081168149
 20
148.6610417331534109
 30
0.0
 11
4495.1166355081168149
 21
148.6000442990535078
 31
0.0
  0
LINE
  5
10D0B
  8
0
 10
4495.1166355081168149
 20
148.6000442990535078
 30
0.0
 11
4495.1316325975167274
 21
148.585041733153389
 31
0.0
  0
LINE
  5
10D0C
  8
0
 10
4495.1013355081158807
 20
148.4980417331535136
 30
0.0
 11
4495.1013355081158807
 21
148.4080417331535102
 31
0.0
  0
LINE
  5
10D0D
  8
0
 10
4495.0538355081171176
 20
148.4080417331535102
 30
0.0
 11
4495.0538355081171176
 21
146.2900417331534868
 31
0.0
  0
LINE
  5
10D0E
  8
0
 10
4495.1013355081158807
 20
146.2900417331534015
 30
0.0
 11
4495.1013355081158807
 21
146.105041733153513
 31
0.0
  0
LINE
  5
10D0F
  8
0
 10
4494.6483355081172704
 20
146.105041733153513
 30
0.0
 11
4494.6483355081172704
 21
146.0350417331534061
 31
0.0
  0
LINE
  5
10D10
  8
0
 10
4494.5788355081167538
 20
146.0350417331534061
 30
0.0
 11
4494.5788355081167538
 21
145.9650417331534129
 31
0.0
  0
LINE
  5
10D11
  8
0
 10
4494.4288355081171176
 20
145.9650417331534129
 30
0.0
 11
4494.4288355081171176
 21
145.6500417331533868
 31
0.0
  0
LINE
  5
10D12
  8
0
 10
4495.3338355081168629
 20
149.2610417331534052
 30
0.0
 11
4495.3338355081168629
 21
149.2710417331535098
 31
0.0
  0
LINE
  5
10D13
  8
0
 10
4495.2288355081172995
 20
148.4980417331535136
 30
0.0
 11
4495.2288355081172995
 21
148.5670417331533883
 31
0.0
  0
LINE
  5
10D14
  8
0
 10
4495.3738355081168265
 20
148.585041733153389
 30
0.0
 11
4495.3738355081168265
 21
148.5670417331533883
 31
0.0
  0
LINE
  5
10D15
  8
0
 10
4495.2354002822166876
 20
149.2130417331534034
 30
0.0
 11
4495.2130422037171229
 21
149.1830417334217884
 31
0.0
  0
LINE
  5
10D16
  8
0
 10
4495.2130422037171229
 20
149.1830417334217884
 30
0.0
 11
4495.2130422037171229
 21
148.6910417330192899
 31
0.0
  0
LINE
  5
10D17
  8
0
 10
4495.2130422037171229
 20
148.6910417330192899
 30
0.0
 11
4495.2354002821166432
 21
148.6610417331534109
 31
0.0
  0
LINE
  5
10D18
  8
0
 10
4495.0538355081171176
 20
148.691041733153412
 30
0.0
 11
4495.2130422037171229
 21
148.6910417330192899
 31
0.0
  0
LINE
  5
10D19
  8
0
 10
4495.2130422037171229
 20
149.1830417331534022
 30
0.0
 11
4495.0538355081171176
 21
149.1830417331534022
 31
0.0
  0
LINE
  5
10D1A
  8
0
 10
4495.3848128673171232
 20
149.2610417331534052
 30
0.0
 11
4495.3750770175165599
 21
149.2460417322290027
 31
0.0
  0
LINE
  5
10D1B
  8
0
 10
4495.3750770175165599
 20
149.2460417322290027
 30
0.0
 11
4495.3750770175165599
 21
149.2130417331534034
 31
0.0
  0
LINE
  5
10D1C
  8
0
 10
4495.3038355081162081
 20
148.6610417331534109
 30
0.0
 11
4495.3038355081162081
 21
148.6000442990535078
 31
0.0
  0
LINE
  5
10D1D
  8
0
 10
4495.3038355081162081
 20
148.6000442990535078
 30
0.0
 11
4495.318835508117445
 21
148.585041733153389
 31
0.0
  0
LINE
  5
10D1E
  8
0
 10
4496.1468355081169648
 20
149.2460417331535041
 30
0.0
 11
4495.2108355081172704
 21
149.2460417331535041
 31
0.0
  0
LINE
  5
10D1F
  8
0
 10
4496.0910896953419069
 20
149.355041733153513
 30
0.0
 11
4496.0910896953419069
 21
149.2710417331535098
 31
0.0
  0
LINE
  5
10D20
  8
0
 10
4496.1318355080165929
 20
149.2610417331534052
 30
0.0
 11
4496.1468355081169648
 21
149.2460417331535041
 31
0.0
  0
LINE
  5
10D21
  8
0
 10
4496.1468355081169648
 20
149.2460417331535041
 30
0.0
 11
4496.1468355081169648
 21
149.2130417331534034
 31
0.0
  0
LINE
  5
10D22
  8
0
 10
4496.2738355081173722
 20
149.2130417331534034
 30
0.0
 11
4496.3038355081171176
 21
149.1830417331534022
 31
0.0
  0
LINE
  5
10D23
  8
0
 10
4496.3038355081171176
 20
149.1830417331534022
 30
0.0
 11
4496.3038355081171176
 21
148.691041733153412
 31
0.0
  0
LINE
  5
10D24
  8
0
 10
4496.3038355081171176
 20
148.691041733153412
 30
0.0
 11
4496.2738355081173722
 21
148.6610417331534109
 31
0.0
  0
LINE
  5
10D25
  8
0
 10
4496.2410355081174202
 20
148.6610417331534109
 30
0.0
 11
4496.2410355081174202
 21
148.6000442990535078
 31
0.0
  0
LINE
  5
10D26
  8
0
 10
4496.2410355081174202
 20
148.6000442990535078
 30
0.0
 11
4496.2260384187184172
 21
148.585041733153389
 31
0.0
  0
LINE
  5
10D27
  8
0
 10
4496.256335508117445
 20
148.4980417331535136
 30
0.0
 11
4496.256335508117445
 21
148.4080417331535102
 31
0.0
  0
LINE
  5
10D28
  8
0
 10
4496.3038355081171176
 20
148.4080417331535102
 30
0.0
 11
4496.3038355081171176
 21
146.2900417331534868
 31
0.0
  0
LINE
  5
10D29
  8
0
 10
4496.256335508117445
 20
146.2900417331534015
 30
0.0
 11
4496.256335508117445
 21
146.105041733153513
 31
0.0
  0
LINE
  5
10D2A
  8
0
 10
4496.7093355081169648
 20
146.105041733153513
 30
0.0
 11
4496.7093355081169648
 21
146.0350417331534061
 31
0.0
  0
LINE
  5
10D2B
  8
0
 10
4496.7788355081165719
 20
146.0350417331534061
 30
0.0
 11
4496.7788355081165719
 21
145.9650417331534129
 31
0.0
  0
LINE
  5
10D2C
  8
0
 10
4496.9288355081171176
 20
145.9650417331534129
 30
0.0
 11
4496.9288355081171176
 21
145.6500417331533868
 31
0.0
  0
LINE
  5
10D2D
  8
0
 10
4496.0238355081173722
 20
149.2610417331534052
 30
0.0
 11
4496.0238355081173722
 21
149.2710417331535098
 31
0.0
  0
LINE
  5
10D2E
  8
0
 10
4496.1288355081169357
 20
148.4980417331535136
 30
0.0
 11
4496.1288355081169357
 21
148.5670417331533883
 31
0.0
  0
LINE
  5
10D2F
  8
0
 10
4495.9838355081174086
 20
148.585041733153389
 30
0.0
 11
4495.9838355081174086
 21
148.5670417331533883
 31
0.0
  0
LINE
  5
10D30
  8
0
 10
4496.1222707340175475
 20
149.2130417331534034
 30
0.0
 11
4496.1446288125171122
 21
149.1830417334217884
 31
0.0
  0
LINE
  5
10D31
  8
0
 10
4496.1446288125171122
 20
149.1830417334217884
 30
0.0
 11
4496.1446288125171122
 21
148.6910417330192899
 31
0.0
  0
LINE
  5
10D32
  8
0
 10
4496.1446288125171122
 20
148.6910417330192899
 30
0.0
 11
4496.1222707341157729
 21
148.6610417331534109
 31
0.0
  0
LINE
  5
10D33
  8
0
 10
4496.3038355081171176
 20
148.691041733153412
 30
0.0
 11
4496.1446288125171122
 21
148.6910417330192899
 31
0.0
  0
LINE
  5
10D34
  8
0
 10
4496.1446288125171122
 20
149.1830417331534022
 30
0.0
 11
4496.3038355081171176
 21
149.1830417331534022
 31
0.0
  0
LINE
  5
10D35
  8
0
 10
4495.972858148917112
 20
149.2610417331534052
 30
0.0
 11
4495.9825939987167658
 21
149.2460417322290027
 31
0.0
  0
LINE
  5
10D36
  8
0
 10
4495.9825939987167658
 20
149.2460417322290027
 30
0.0
 11
4495.9825939987167658
 21
149.2130417331534034
 31
0.0
  0
LINE
  5
10D37
  8
0
 10
4496.0538355081162081
 20
148.6610417331534109
 30
0.0
 11
4496.0538355081162081
 21
148.6000442990535078
 31
0.0
  0
LINE
  5
10D38
  8
0
 10
4496.0538355081162081
 20
148.6000442990535078
 30
0.0
 11
4496.0388355081167902
 21
148.585041733153389
 31
0.0
  0
LINE
  5
10D39
  8
0
 10
4495.1166355081168149
 20
148.6000442990535078
 30
0.0
 11
4496.2410355081174202
 21
148.6000442990535078
 31
0.0
  0
ENDSEC
  0
EOF
