  0
SECTION
  2
HEADER
  9
$ACADVER
  1
AC1009
  9
$INSBASE
 10
5903.9307985278092019
 20
288.6974330332134855
 30
0.0
  9
$EXTMIN
 10
5900.6037985278080669
 20
285.820347379913585
 30
0.0
  9
$EXTMAX
 10
5903.9422258185577448
 20
290.5703473799135281
 30
0.0
  9
$LIMMIN
 10
0.0
 20
0.0
  9
$LIMMAX
 10
11.6929133858000007
 20
8.2677165353999982
  9
$ORTHOMODE
 70
     0
  9
$REGENMODE
 70
     1
  9
$FILLMODE
 70
     1
  9
$QTEXTMODE
 70
     0
  9
$MIRRTEXT
 70
     0
  9
$DRAGMODE
 70
     2
  9
$LTSCALE
 40
0.6431102362
  9
$OSMODE
 70
  4095
  9
$ATTMODE
 70
     1
  9
$TEXTSIZE
 40
0.2
  9
$TRACEWID
 40
0.05
  9
$TEXTSTYLE
  7
STANDARD
  9
$CLAYER
  8
0
  9
$CELTYPE
  6
BYLAYER
  9
$CECOLOR
 62
   256
  9
$DIMSCALE
 40
1.0
  9
$DIMASZ
 40
0.1875
  9
$DIMEXO
 40
0.0625
  9
$DIMDLI
 40
0.4443307087
  9
$DIMRND
 40
0.0
  9
$DIMDLE
 40
0.0
  9
$DIMEXE
 40
0.125
  9
$DIMTP
 40
0.01
  9
$DIMTM
 40
0.01
  9
$DIMTXT
 40
2.0
  9
$DIMCEN
 40
0.1052362205
  9
$DIMTSZ
 40
0.0
  9
$DIMTOL
 70
     1
  9
$DIMLIM
 70
     0
  9
$DIMTIH
 70
     1
  9
$DIMTOH
 70
     1
  9
$DIMSE1
 70
     0
  9
$DIMSE2
 70
     0
  9
$DIMTAD
 70
     0
  9
$DIMZIN
 70
     0
  9
$DIMBLK
  1

  9
$DIMASO
 70
     1
  9
$DIMSHO
 70
     1
  9
$DIMPOST
  1
\X
  9
$DIMAPOST
  1

  9
$DIMALT
 70
     1
  9
$DIMALTD
 70
     2
  9
$DIMALTF
 40
25.3999999999999986
  9
$DIMLFAC
 40
1.0
  9
$DIMTOFL
 70
     0
  9
$DIMTVP
 40
0.0
  9
$DIMTIX
 70
     0
  9
$DIMSOXD
 70
     0
  9
$DIMSAH
 70
     0
  9
$DIMBLK1
  1

  9
$DIMBLK2
  1

  9
$DIMSTYLE
  2
STANDARD
  9
$DIMCLRD
 70
     0
  9
$DIMCLRE
 70
     0
  9
$DIMCLRT
 70
     0
  9
$DIMTFAC
 40
1.0
  9
$DIMGAP
 40
0.09
  9
$LUNITS
 70
     2
  9
$LUPREC
 70
     4
  9
$SKETCHINC
 40
0.1
  9
$FILLETRAD
 40
0.0
  9
$AUNITS
 70
     0
  9
$AUPREC
 70
     0
  9
$MENU
  1
.
  9
$ELEVATION
 40
0.0
  9
$PELEVATION
 40
0.0
  9
$THICKNESS
 40
0.0
  9
$LIMCHECK
 70
     0
  9
$BLIPMODE
 70
     0
  9
$CHAMFERA
 40
0.0
  9
$CHAMFERB
 40
0.0
  9
$SKPOLY
 70
     0
  9
$TDCREATE
 40
2458060.468368056230247
  9
$TDUPDATE
 40
2460228.758796296082437
  9
$TDINDWG
 40
0.7296251157
  9
$TDUSRTIMER
 40
0.7296251157
  9
$USRTIMER
 70
     1
  9
$ANGBASE
 50
0.0
  9
$ANGDIR
 70
     0
  9
$PDMODE
 70
     0
  9
$PDSIZE
 40
0.3125
  9
$PLINEWID
 40
0.0
  9
$COORDS
 70
     1
  9
$SPLFRAME
 70
     0
  9
$SPLINETYPE
 70
     6
  9
$SPLINESEGS
 70
     8
  9
$ATTDIA
 70
     1
  9
$ATTREQ
 70
     1
  9
$HANDLING
 70
     1
  9
$HANDSEED
  5
2C9F6
  9
$SURFTAB1
 70
     6
  9
$SURFTAB2
 70
     6
  9
$SURFTYPE
 70
     6
  9
$SURFU
 70
     6
  9
$SURFV
 70
     6
  9
$UCSNAME
  2

  9
$UCSORG
 10
0.0
 20
0.0
 30
0.0
  9
$UCSXDIR
 10
1.0
 20
0.0
 30
0.0
  9
$UCSYDIR
 10
0.0
 20
1.0
 30
0.0
  9
$PUCSNAME
  2

  9
$PUCSORG
 10
0.0
 20
0.0
 30
0.0
  9
$PUCSXDIR
 10
1.0
 20
0.0
 30
0.0
  9
$PUCSYDIR
 10
0.0
 20
1.0
 30
0.0
  9
$USERI1
 70
     0
  9
$USERI2
 70
     0
  9
$USERI3
 70
     0
  9
$USERI4
 70
     0
  9
$USERI5
 70
     0
  9
$USERR1
 40
0.0
  9
$USERR2
 40
0.0
  9
$USERR3
 40
0.0
  9
$USERR4
 40
0.0
  9
$USERR5
 40
0.0
  9
$WORLDVIEW
 70
     1
  9
$SHADEDGE
 70
     3
  9
$SHADEDIF
 70
    70
  9
$TILEMODE
 70
     1
  9
$MAXACTVP
 70
    64
  9
$PLIMCHECK
 70
     0
  9
$PEXTMIN
 10
1.0000000000000000E+20
 20
1.0000000000000000E+20
 30
1.0000000000000000E+20
  9
$PEXTMAX
 10
-1.0000000000000000E+20
 20
-1.0000000000000000E+20
 30
-1.0000000000000000E+20
  9
$PLIMMIN
 10
0.0
 20
0.0
  9
$PLIMMAX
 10
12.0
 20
9.0
  9
$UNITMODE
 70
     0
  9
$VISRETAIN
 70
     1
  9
$PLINEGEN
 70
     0
  9
$PSLTSCALE
 70
     1
  0
ENDSEC
  0
SECTION
  2
TABLES
  0
TABLE
  2
VPORT
 70
     1
  0
VPORT
  2
*ACTIVE
 70
     0
 10
0.0
 20
0.0
 11
1.0
 21
1.0
 12
1990.9076557278699511
 22
155.6157422773744088
 13
0.0
 23
0.0
 14
1.0
 24
1.0
 15
0.0
 25
0.0
 16
0.0
 26
0.0
 36
60.4960186965801583
 17
3911.3653564453120453
 27
132.5796051025390057
 37
0.0
 40
4.7925373134328311
 41
2.8325859491778771
 42
50.0
 43
0.0
 44
0.0
 50
0.0
 51
0.0
 71
     0
 72
   100
 73
     1
 74
     1
 75
     0
 76
     0
 77
     0
 78
     0
  0
ENDTAB
  0
TABLE
  2
LTYPE
 70
     2
  0
LTYPE
  2
CONTINUOUS
 70
     0
  3
Solid line
 72
    65
 73
     0
 40
0.0
  0
LTYPE
  2
PHANTOM2
 70
     0
  3
___ _ _ ___ _ _ ___ _ _ ___ _ _
 72
    65
 73
     6
 40
1.25
 49
0.625
 49
-0.125
 49
0.125
 49
-0.125
 49
0.125
 49
-0.125
  0
ENDTAB
  0
TABLE
  2
LAYER
 70
     2
  0
LAYER
  2
0
 70
     0
 62
   255
  6
CONTINUOUS
  0
LAYER
  2
DEFPOINTS
 70
     0
 62
     7
  6
CONTINUOUS
  0
ENDTAB
  0
TABLE
  2
STYLE
 70
     1
  0
STYLE
  2
STANDARD
 70
     0
 40
0.0
 41
0.8
 50
0.0
 71
     0
 42
0.2
  3
txt
  4

  0
ENDTAB
  0
TABLE
  2
VIEW
 70
     0
  0
ENDTAB
  0
TABLE
  2
UCS
 70
     0
  0
ENDTAB
  0
TABLE
  2
APPID
 70
    11
  0
APPID
  2
ACAD
 70
     0
  0
APPID
  2
ACAD_MLEADERVER
 70
     0
  0
APPID
  2
ACAD_EXEMPT_FROM_CAD_STANDARDS
 70
     0
  0
APPID
  2
ACAD_NAV_VCDISPLAY
 70
     0
  0
APPID
  2
ACAECLAYERSTANDARD
 70
     0
  0
APPID
  2
ACCMTRANSPARENCY
 70
     0
  0
APPID
  2
ACAD_DSTYLE_DIMJAG
 70
     0
  0
APPID
  2
ACAD_DSTYLE_DIMTALN
 70
     0
  0
APPID
  2
ACDBATTR
 70
     0
  0
APPID
  2
ACADANNOTATIVE
 70
     0
  0
APPID
  2
DCO15
 70
     0
  0
ENDTAB
  0
TABLE
  2
DIMSTYLE
 70
     1
  0
DIMSTYLE
  2
STANDARD
 70
     0
  3

  4

  5

  6

  7

 40
1.0
 41
0.1875
 42
0.0625
 43
0.38
 44
0.125
 45
0.0
 46
0.0
 47
0.01
 48
0.01
140
0.15625
141
0.09
142
0.0
143
25.3999999999999986
144
1.0
145
0.0
146
1.0
147
0.09
 71
     1
 72
     0
 73
     1
 74
     1
 75
     0
 76
     0
 77
     0
 78
     4
170
     0
171
     2
172
     0
173
     0
174
     0
175
     0
176
     0
177
     0
178
     0
  0
ENDTAB
  0
ENDSEC
  0
SECTION
  2
BLOCKS
  0
BLOCK
  8
0
  2
$MODEL_SPACE
 70
     0
 10
0.0
 20
0.0
 30
0.0
  3
$MODEL_SPACE
  1

  0
ENDBLK
  5
21
  8
0
  0
BLOCK
 67
     1
  8
0
  2
$PAPER_SPACE
 70
     0
 10
0.0
 20
0.0
 30
0.0
  3
$PAPER_SPACE
  1

  0
ENDBLK
  5
1D
 67
     1
  8
0
  0
BLOCK
  8
0
  2
_FILLED
 70
     0
 10
0.0
 20
0.0
 30
0.0
  3
_FILLED
  1

  0
SOLID
  5
26C2A
  8
0
  6
BYBLOCK
 62
     0
 10
0.0
 20
0.0
 30
0.0
 11
-1.0
 21
0.1666666667
 31
0.0
 12
-1.0
 22
-0.1666666667
 32
0.0
 13
-1.0
 23
-0.1666666667
 33
0.0
  0
ENDBLK
  5
26C2B
  8
0
  6
BYBLOCK
 62
     0
  0
ENDSEC
  0
SECTION
  2
ENTITIES
  0
ATTDEF
  5
26A5B
  8
DEFPOINTS
 10
5903.931559151888905
 20
288.7005546433484824
 30
0.0
 40
0.001
  1
P80257-LV
  3

  2
MODELNUMBER
 70
     0
1001
ACDBATTR
1070
     0
1070
     1
  0
ATTDEF
  5
26A5C
  8
DEFPOINTS
 10
5903.9314333422316849
 20
288.6988878029692955
 30
0.0
 40
0.001
  1
VIR STIL
  3

  2
TRADENAME
 70
     0
1001
ACDBATTR
1070
     0
1070
     1
  0
ATTDEF
  5
26A5D
  8
DEFPOINTS
 10
5903.931559151888905
 20
288.6972213100150952
 30
0.0
 40
0.001
  1
VALVE TRIM
  3

  2
PRODUCT
 70
     0
1001
ACDBATTR
1070
     0
1070
     1
  0
LINE
  5
2C5CB
  8
0
 10
5903.9307985278092019
 20
290.5703473799135281
 30
0.0
 11
5903.9307985278092019
 21
286.8245186865134997
 31
0.0
  0
LINE
  5
2C5CC
  8
0
 10
5903.290798527807965
 20
290.5553473799134849
 30
0.0
 11
5903.290798527807965
 21
286.839518686513486
 31
0.0
  0
LINE
  5
2C5CD
  8
0
 10
5903.2107985278080378
 20
290.4303473799134849
 30
0.0
 11
5903.2107985278080378
 21
286.9645186865135997
 31
0.0
  0
LINE
  5
2C5CE
  8
0
 10
5903.1307985278081105
 20
290.3158473799135209
 30
0.0
 11
5903.1307985278081105
 21
287.079018686513507
 31
0.0
  0
LINE
  5
2C5CF
  8
0
 10
5901.9907985278077831
 20
289.6803473799134849
 30
0.0
 11
5901.9907985278077831
 21
287.714518686513486
 31
0.0
  0
LINE
  5
2C5D0
  8
0
 10
5901.9407985278076012
 20
289.5603473799134804
 30
0.0
 11
5901.9407985278076012
 21
287.8345186865136043
 31
0.0
  0
LINE
  5
2C5D1
  8
0
 10
5901.8907985278092383
 20
289.5053473799134736
 30
0.0
 11
5901.8907985278092383
 21
287.8895186865134974
 31
0.0
  0
LINE
  5
2C5D2
  8
0
 10
5901.3927985278078268
 20
289.2903473799134986
 30
0.0
 11
5901.3927985278078268
 21
288.1045186865134724
 31
0.0
  0
LINE
  5
2C5D3
  8
0
 10
5901.3297985278068154
 20
289.2403473799134872
 30
0.0
 11
5901.3297985278077249
 21
288.1545186865134838
 31
0.0
  0
LINE
  5
2C5D4
  8
0
 10
5901.266798527807623
 20
289.1653473799134986
 30
0.0
 11
5901.266798527807623
 21
288.2295186865134724
 31
0.0
  0
LINE
  5
2C5D5
  8
0
 10
5901.2467985278071865
 20
289.1488473799134908
 30
0.0
 11
5901.2467985278071865
 21
285.8353473799135145
 31
0.0
  0
LINE
  5
2C5D6
  8
0
 10
5901.1837985278070846
 20
289.1963473799135045
 30
0.0
 11
5901.1837985278070846
 21
285.820347379913585
 31
0.0
  0
LINE
  5
2C5D7
  8
0
 10
5901.1537985278082488
 20
289.2263473799134772
 30
0.0
 11
5901.1537985278082488
 21
285.820347379913585
 31
0.0
  0
LINE
  5
2C5D8
  8
0
 10
5900.7237985278079577
 20
289.1963473799135045
 30
0.0
 11
5900.7237985278079577
 21
285.8503473799135008
 31
0.0
  0
LINE
  5
2C5D9
  8
0
 10
5900.6837985278079941
 20
289.0703473799135281
 30
0.0
 11
5900.6837985278079941
 21
285.9753473799135008
 31
0.0
  0
LINE
  5
2C5DA
  8
0
 10
5900.6737985278077758
 20
289.0388473799134772
 30
0.0
 11
5900.6737985278077758
 21
288.3560186865134938
 31
0.0
  0
LINE
  5
2C5DB
  8
0
 10
5900.6037985278080669
 20
289.0388473799134772
 30
0.0
 11
5900.6037985278080669
 21
288.3560186865134938
 31
0.0
  0
LINE
  5
2C5DC
  8
0
 10
5903.3057985278082924
 20
290.5703473799135281
 30
0.0
 11
5903.9307985278092019
 21
290.5703473799135281
 31
0.0
  0
LINE
  5
2C5DD
  8
0
 10
5903.2257985278092747
 20
290.4453473799135281
 30
0.0
 11
5903.290798527807965
 21
290.4453473799135281
 31
0.0
  0
LINE
  5
2C5DE
  8
0
 10
5903.1457985278093474
 20
290.3308473799135072
 30
0.0
 11
5903.2107985278080378
 21
290.3308473799135072
 31
0.0
  0
ARC
  5
2C5DF
  8
0
 10
5903.3057985278082924
 20
290.5553473799134849
 30
0.0
 40
0.015
 50
90.0
 51
180.0000000000032117
  0
ARC
  5
2C5E0
  8
0
 10
5903.2257985278092747
 20
290.4303473799134849
 30
0.0
 40
0.015
 50
90.0
 51
179.9999999999934914
  0
ARC
  5
2C5E1
  8
0
 10
5903.1457985278093474
 20
290.3158473799135209
 30
0.0
 40
0.015
 50
90.0
 51
180.0000000000065086
  0
LINE
  5
2C5E2
  8
0
 10
5902.0057985278081105
 20
289.6953473799135281
 30
0.0
 11
5903.1307985278081105
 21
289.6953473799135281
 31
0.0
  0
LINE
  5
2C5E3
  8
0
 10
5901.9557985278079286
 20
289.5753473799135236
 30
0.0
 11
5901.9907985278077831
 21
289.5753473799135236
 31
0.0
  0
LINE
  5
2C5E4
  8
0
 10
5901.9057985278077467
 20
289.5203473799135168
 30
0.0
 11
5901.9407985278076012
 21
289.5203473799135168
 31
0.0
  0
ARC
  5
2C5E5
  8
0
 10
5902.0057985278081105
 20
289.6803473799134849
 30
0.0
 40
0.015
 50
90.0
 51
179.9999999999934914
  0
ARC
  5
2C5E6
  8
0
 10
5901.9557985278079286
 20
289.5603473799134804
 30
0.0
 40
0.015
 50
90.0
 51
179.9999999999967031
  0
ARC
  5
2C5E7
  8
0
 10
5901.9057985278077467
 20
289.5053473799134736
 30
0.0
 40
0.015
 50
90.0
 51
179.9999999999934914
  0
LINE
  5
2C5E8
  8
0
 10
5901.4077985278090637
 20
289.3053473799135986
 30
0.0
 11
5901.8907985278092383
 21
289.3053473799135986
 31
0.0
  0
LINE
  5
2C5E9
  8
0
 10
5901.3447985278089618
 20
289.2553473799134736
 30
0.0
 11
5901.3927985278078268
 21
289.2553473799134736
 31
0.0
  0
LINE
  5
2C5EA
  8
0
 10
5901.2817985278079504
 20
289.1803473799134849
 30
0.0
 11
5901.3297985278068154
 21
289.1803473799134849
 31
0.0
  0
ARC
  5
2C5EB
  8
0
 10
5901.4077985278090637
 20
289.2903473799134986
 30
0.0
 40
0.015
 50
90.0
 51
179.9999999999934914
  0
ARC
  5
2C5EC
  8
0
 10
5901.3447985278089618
 20
289.2403473799134872
 30
0.0
 40
0.015
 50
90.0
 51
180.0000000000129887
  0
ARC
  5
2C5ED
  8
0
 10
5901.2817985278079504
 20
289.1653473799134986
 30
0.0
 40
0.015
 50
90.0
 51
179.9999999999870113
  0
LINE
  5
2C5EE
  8
0
 10
5901.266798527807623
 20
289.0953473799135054
 30
0.0
 11
5901.2467985278071865
 21
289.0953473799135054
 31
0.0
  0
LINE
  5
2C5EF
  8
0
 10
5901.1837985278070846
 20
289.1638473799134772
 30
0.0
 11
5901.2317985278077686
 21
289.1638473799134772
 31
0.0
  0
LINE
  5
2C5F0
  8
0
 10
5901.2317985278077686
 20
289.1638473799134772
 30
0.0
 11
5901.2467985278071865
 21
289.1488473799134908
 31
0.0
  0
LINE
  5
2C5F1
  8
0
 10
5900.7537985278086126
 20
289.2263473799134772
 30
0.0
 11
5901.1537985278082488
 21
289.2263473799134772
 31
0.0
  0
LINE
  5
2C5F2
  8
0
 10
5900.7237985278079577
 20
289.1963473799135045
 30
0.0
 11
5900.7537985278086126
 21
289.2263473799134772
 31
0.0
  0
LINE
  5
2C5F3
  8
0
 10
5901.1837985278070846
 20
289.1963473799135045
 30
0.0
 11
5901.1537985278082488
 21
289.2263473799134772
 31
0.0
  0
LINE
  5
2C5F4
  8
0
 10
5900.7537985278086126
 20
289.2263473799134772
 30
0.0
 11
5900.7537985278086126
 21
285.820347379913585
 31
0.0
  0
LINE
  5
2C5F5
  8
0
 10
5900.698798527809231
 20
289.0853473799135145
 30
0.0
 11
5900.7237985278079577
 21
289.0853473799135145
 31
0.0
  0
LINE
  5
2C5F6
  8
0
 10
5900.6837985278079941
 20
289.0703473799135281
 30
0.0
 11
5900.698798527809231
 21
289.0853473799135145
 31
0.0
  0
LINE
  5
2C5F7
  8
0
 10
5900.698798527809231
 20
289.0853473799135145
 30
0.0
 11
5900.698798527809231
 21
285.9603473799135145
 31
0.0
  0
LINE
  5
2C5F8
  8
0
 10
5900.6837985278079941
 20
288.982847379913494
 30
0.0
 11
5900.6737985278077758
 21
288.982847379913494
 31
0.0
  0
LINE
  5
2C5F9
  8
0
 10
5900.6037985278080669
 20
289.0388473799134772
 30
0.0
 11
5900.6737985278077758
 21
289.0388473799134772
 31
0.0
  0
LINE
  5
2C5FA
  8
0
 10
5903.3057985278082924
 20
286.8245186865134997
 30
0.0
 11
5903.9307985278092019
 21
286.8245186865134997
 31
0.0
  0
LINE
  5
2C5FB
  8
0
 10
5903.2257985278092747
 20
286.9495186865134997
 30
0.0
 11
5903.290798527807965
 21
286.9495186865134997
 31
0.0
  0
LINE
  5
2C5FC
  8
0
 10
5903.1457985278093474
 20
287.0640186865135206
 30
0.0
 11
5903.2107985278080378
 21
287.0640186865135206
 31
0.0
  0
ARC
  5
2C5FD
  8
0
 10
5903.3057985278082924
 20
286.839518686513486
 30
0.0
 40
0.015
 50
179.9999999999967031
 51
270.0
  0
ARC
  5
2C5FE
  8
0
 10
5903.2257985278092747
 20
286.9645186865135997
 30
0.0
 40
0.015
 50
180.0000000000065086
 51
270.0
  0
ARC
  5
2C5FF
  8
0
 10
5903.1457985278093474
 20
287.079018686513507
 30
0.0
 40
0.015
 50
179.9999999999934914
 51
270.0
  0
LINE
  5
2C600
  8
0
 10
5902.0057985278081105
 20
287.6995186865134997
 30
0.0
 11
5903.1307985278081105
 21
287.6995186865134997
 31
0.0
  0
LINE
  5
2C601
  8
0
 10
5901.9557985278079286
 20
287.8195186865135042
 30
0.0
 11
5901.9907985278077831
 21
287.8195186865135042
 31
0.0
  0
LINE
  5
2C602
  8
0
 10
5901.9057985278077467
 20
287.8745186865135111
 30
0.0
 11
5901.9407985278076012
 21
287.8745186865135111
 31
0.0
  0
ARC
  5
2C603
  8
0
 10
5902.0057985278081105
 20
287.714518686513486
 30
0.0
 40
0.015
 50
180.0000000000065086
 51
270.0
  0
ARC
  5
2C604
  8
0
 10
5901.9557985278079286
 20
287.8345186865136043
 30
0.0
 40
0.015
 50
180.0000000000032117
 51
270.0
  0
ARC
  5
2C605
  8
0
 10
5901.9057985278077467
 20
287.8895186865134974
 30
0.0
 40
0.015
 50
180.0000000000065086
 51
270.0
  0
LINE
  5
2C606
  8
0
 10
5901.4077985278090637
 20
288.089518686513486
 30
0.0
 11
5901.8907985278092383
 21
288.089518686513486
 31
0.0
  0
LINE
  5
2C607
  8
0
 10
5901.3447985278089618
 20
288.1395186865134974
 30
0.0
 11
5901.3927985278078268
 21
288.1395186865134974
 31
0.0
  0
LINE
  5
2C608
  8
0
 10
5901.2817985278079504
 20
288.214518686513486
 30
0.0
 11
5901.3297985278068154
 21
288.214518686513486
 31
0.0
  0
ARC
  5
2C609
  8
0
 10
5901.4077985278090637
 20
288.1045186865134724
 30
0.0
 40
0.015
 50
180.0000000000065086
 51
270.0
  0
ARC
  5
2C60A
  8
0
 10
5901.3447985278089618
 20
288.1545186865134838
 30
0.0
 40
0.015
 50
179.9999999999870113
 51
270.0
  0
ARC
  5
2C60B
  8
0
 10
5901.2817985278079504
 20
288.2295186865134724
 30
0.0
 40
0.015
 50
180.0000000000129887
 51
270.0
  0
LINE
  5
2C60C
  8
0
 10
5901.266798527807623
 20
288.2995186865135224
 30
0.0
 11
5901.2467985278071865
 21
288.2995186865135224
 31
0.0
  0
LINE
  5
2C60D
  8
0
 10
5901.1837985278070846
 20
288.2310186865134938
 30
0.0
 11
5901.2317985278077686
 21
288.2310186865134938
 31
0.0
  0
LINE
  5
2C60E
  8
0
 10
5901.2317985278077686
 20
288.2310186865134938
 30
0.0
 11
5901.2467985278071865
 21
288.2460186865134801
 31
0.0
  0
LINE
  5
2C60F
  8
0
 10
5900.7537985278086126
 20
288.1685186865134938
 30
0.0
 11
5901.1537985278082488
 21
288.1685186865134938
 31
0.0
  0
LINE
  5
2C610
  8
0
 10
5900.7237985278079577
 20
288.1985186865135233
 30
0.0
 11
5900.7537985278086126
 21
288.1685186865134938
 31
0.0
  0
LINE
  5
2C611
  8
0
 10
5901.1837985278070846
 20
288.1985186865135233
 30
0.0
 11
5901.1537985278082488
 21
288.1685186865134938
 31
0.0
  0
LINE
  5
2C612
  8
0
 10
5900.698798527809231
 20
288.3095186865135133
 30
0.0
 11
5900.7237985278079577
 21
288.3095186865135133
 31
0.0
  0
LINE
  5
2C613
  8
0
 10
5900.6837985278079941
 20
288.3245186865134997
 30
0.0
 11
5900.698798527809231
 21
288.3095186865135133
 31
0.0
  0
LINE
  5
2C614
  8
0
 10
5900.6837985278079941
 20
288.4120186865135906
 30
0.0
 11
5900.6737985278077758
 21
288.4120186865135906
 31
0.0
  0
LINE
  5
2C615
  8
0
 10
5900.6037985278080669
 20
288.3560186865134938
 30
0.0
 11
5900.6737985278077758
 21
288.3560186865134938
 31
0.0
  0
LINE
  5
2C616
  8
0
 10
5900.7537985278086126
 20
285.820347379913585
 30
0.0
 11
5901.2317985278077686
 21
285.820347379913585
 31
0.0
  0
LINE
  5
2C617
  8
0
 10
5900.698798527809231
 20
285.9603473799135145
 30
0.0
 11
5900.7237985278079577
 21
285.9603473799135145
 31
0.0
  0
LINE
  5
2C618
  8
0
 10
5900.6837985278079941
 20
285.9753473799135008
 30
0.0
 11
5900.698798527809231
 21
285.9603473799135145
 31
0.0
  0
LINE
  5
2C619
  8
0
 10
5900.7237985278079577
 20
285.8503473799135008
 30
0.0
 11
5900.7537985278086126
 21
285.820347379913585
 31
0.0
  0
LINE
  5
2C61A
  8
0
 10
5901.2467985278071865
 20
285.8353473799135145
 30
0.0
 11
5901.2317985278077686
 21
285.820347379913585
 31
0.0
  0
LINE
  5
2C61B
  8
0
 10
5901.2317985278077686
 20
289.1638473799134772
 30
0.0
 11
5901.2317985278077686
 21
285.820347379913585
 31
0.0
  0
ENDSEC
  0
EOF
