  0
SECTION
  2
HEADER
  9
$ACADVER
  1
AC1009
  9
$INSBASE
 10
323.3899511240718994
 20
4.0010950523988189
 30
0.0
  9
$EXTMIN
 10
320.2326889052050092
 20
2.918351563989471
 30
-0.0000000000000058
  9
$EXTMAX
 10
323.4156217242511957
 20
5.0838080133390733
 30
0.0000000000000104
  9
$LIMMIN
 10
0.0
 20
0.0
  9
$LIMMAX
 10
11.6929133858000007
 20
8.2677165353999982
  9
$ORTHOMODE
 70
     0
  9
$REGENMODE
 70
     1
  9
$FILLMODE
 70
     1
  9
$QTEXTMODE
 70
     0
  9
$MIRRTEXT
 70
     0
  9
$DRAGMODE
 70
     2
  9
$LTSCALE
 40
0.6431102362
  9
$OSMODE
 70
  4095
  9
$ATTMODE
 70
     1
  9
$TEXTSIZE
 40
0.2
  9
$TRACEWID
 40
0.05
  9
$TEXTSTYLE
  7
STANDARD
  9
$CLAYER
  8
0
  9
$CELTYPE
  6
BYLAYER
  9
$CECOLOR
 62
   256
  9
$DIMSCALE
 40
1.0
  9
$DIMASZ
 40
0.1875
  9
$DIMEXO
 40
0.0625
  9
$DIMDLI
 40
0.4443307087
  9
$DIMRND
 40
0.0
  9
$DIMDLE
 40
0.0
  9
$DIMEXE
 40
0.125
  9
$DIMTP
 40
0.01
  9
$DIMTM
 40
0.01
  9
$DIMTXT
 40
0.15625
  9
$DIMCEN
 40
0.1052362205
  9
$DIMTSZ
 40
0.0
  9
$DIMTOL
 70
     1
  9
$DIMLIM
 70
     0
  9
$DIMTIH
 70
     1
  9
$DIMTOH
 70
     1
  9
$DIMSE1
 70
     0
  9
$DIMSE2
 70
     0
  9
$DIMTAD
 70
     0
  9
$DIMZIN
 70
     0
  9
$DIMBLK
  1

  9
$DIMASO
 70
     1
  9
$DIMSHO
 70
     1
  9
$DIMPOST
  1
\X
  9
$DIMAPOST
  1

  9
$DIMALT
 70
     1
  9
$DIMALTD
 70
     2
  9
$DIMALTF
 40
25.3999999999999986
  9
$DIMLFAC
 40
1.0
  9
$DIMTOFL
 70
     0
  9
$DIMTVP
 40
0.0
  9
$DIMTIX
 70
     0
  9
$DIMSOXD
 70
     0
  9
$DIMSAH
 70
     0
  9
$DIMBLK1
  1

  9
$DIMBLK2
  1

  9
$DIMSTYLE
  2
STANDARD
  9
$DIMCLRD
 70
     0
  9
$DIMCLRE
 70
     0
  9
$DIMCLRT
 70
     0
  9
$DIMTFAC
 40
1.0
  9
$DIMGAP
 40
0.09
  9
$LUNITS
 70
     2
  9
$LUPREC
 70
     4
  9
$SKETCHINC
 40
0.1
  9
$FILLETRAD
 40
0.0
  9
$AUNITS
 70
     0
  9
$AUPREC
 70
     0
  9
$MENU
  1
.
  9
$ELEVATION
 40
0.0
  9
$PELEVATION
 40
0.0
  9
$THICKNESS
 40
0.0
  9
$LIMCHECK
 70
     0
  9
$BLIPMODE
 70
     0
  9
$CHAMFERA
 40
0.0
  9
$CHAMFERB
 40
0.0
  9
$SKPOLY
 70
     0
  9
$TDCREATE
 40
2458018.639108797069639
  9
$TDUPDATE
 40
2460195.696562500204891
  9
$TDINDWG
 40
0.3724069444
  9
$TDUSRTIMER
 40
0.3724069444
  9
$USRTIMER
 70
     1
  9
$ANGBASE
 50
0.0
  9
$ANGDIR
 70
     0
  9
$PDMODE
 70
     0
  9
$PDSIZE
 40
0.3125
  9
$PLINEWID
 40
0.0
  9
$COORDS
 70
     1
  9
$SPLFRAME
 70
     0
  9
$SPLINETYPE
 70
     6
  9
$SPLINESEGS
 70
     8
  9
$ATTDIA
 70
     1
  9
$ATTREQ
 70
     1
  9
$HANDLING
 70
     1
  9
$HANDSEED
  5
B6FF
  9
$SURFTAB1
 70
     6
  9
$SURFTAB2
 70
     6
  9
$SURFTYPE
 70
     6
  9
$SURFU
 70
     6
  9
$SURFV
 70
     6
  9
$UCSNAME
  2

  9
$UCSORG
 10
0.0
 20
0.0
 30
0.0
  9
$UCSXDIR
 10
1.0
 20
0.0
 30
0.0
  9
$UCSYDIR
 10
0.0
 20
1.0
 30
0.0
  9
$PUCSNAME
  2

  9
$PUCSORG
 10
0.0
 20
0.0
 30
0.0
  9
$PUCSXDIR
 10
1.0
 20
0.0
 30
0.0
  9
$PUCSYDIR
 10
0.0
 20
1.0
 30
0.0
  9
$USERI1
 70
     0
  9
$USERI2
 70
     0
  9
$USERI3
 70
     0
  9
$USERI4
 70
     0
  9
$USERI5
 70
     0
  9
$USERR1
 40
0.0
  9
$USERR2
 40
0.0
  9
$USERR3
 40
0.0
  9
$USERR4
 40
0.0
  9
$USERR5
 40
0.0
  9
$WORLDVIEW
 70
     1
  9
$SHADEDGE
 70
     3
  9
$SHADEDIF
 70
    70
  9
$TILEMODE
 70
     1
  9
$MAXACTVP
 70
    64
  9
$PLIMCHECK
 70
     0
  9
$PEXTMIN
 10
1.0000000000000000E+20
 20
1.0000000000000000E+20
 30
1.0000000000000000E+20
  9
$PEXTMAX
 10
-1.0000000000000000E+20
 20
-1.0000000000000000E+20
 30
-1.0000000000000000E+20
  9
$PLIMMIN
 10
0.0
 20
0.0
  9
$PLIMMAX
 10
12.0
 20
9.0
  9
$UNITMODE
 70
     0
  9
$VISRETAIN
 70
     1
  9
$PLINEGEN
 70
     0
  9
$PSLTSCALE
 70
     1
  0
ENDSEC
  0
SECTION
  2
TABLES
  0
TABLE
  2
VPORT
 70
     1
  0
VPORT
  2
*ACTIVE
 70
     0
 10
0.0
 20
0.0
 11
1.0
 21
1.0
 12
226.499894316990293
 22
-3.0352522225585661
 13
0.0
 23
0.0
 14
1.0
 24
1.0
 15
0.0
 25
0.0
 16
-0.0000000000000142
 26
0.0
 36
39.3282560748450578
 17
95.3242609977377526
 27
7.0363320112228394
 37
0.0
 40
2.1849066569784901
 41
2.841079460269865
 42
50.0
 43
0.0
 44
0.0
 50
0.0
 51
0.0
 71
     0
 72
   100
 73
     1
 74
     1
 75
     0
 76
     0
 77
     0
 78
     0
  0
ENDTAB
  0
TABLE
  2
LTYPE
 70
     2
  0
LTYPE
  2
CONTINUOUS
 70
     0
  3
Solid line
 72
    65
 73
     0
 40
0.0
  0
LTYPE
  2
PHANTOM2
 70
     0
  3
___ _ _ ___ _ _ ___ _ _ ___ _ _
 72
    65
 73
     6
 40
1.25
 49
0.625
 49
-0.125
 49
0.125
 49
-0.125
 49
0.125
 49
-0.125
  0
ENDTAB
  0
TABLE
  2
LAYER
 70
     2
  0
LAYER
  2
0
 70
     0
 62
   255
  6
CONTINUOUS
  0
LAYER
  2
DEFPOINTS
 70
     0
 62
     7
  6
CONTINUOUS
  0
ENDTAB
  0
TABLE
  2
STYLE
 70
     1
  0
STYLE
  2
STANDARD
 70
     0
 40
0.0
 41
0.8
 50
0.0
 71
     0
 42
0.2
  3
txt
  4

  0
ENDTAB
  0
TABLE
  2
VIEW
 70
     0
  0
ENDTAB
  0
TABLE
  2
UCS
 70
     0
  0
ENDTAB
  0
TABLE
  2
APPID
 70
    10
  0
APPID
  2
ACAD
 70
     0
  0
APPID
  2
ACAD_MLEADERVER
 70
     0
  0
APPID
  2
ACAD_DSTYLE_DIMJAG
 70
     0
  0
APPID
  2
ACAD_DSTYLE_DIMTALN
 70
     0
  0
APPID
  2
ACAD_NAV_VCDISPLAY
 70
     0
  0
APPID
  2
ACAD_EXEMPT_FROM_CAD_STANDARDS
 70
     0
  0
APPID
  2
ACAECLAYERSTANDARD
 70
     0
  0
APPID
  2
ACCMTRANSPARENCY
 70
     0
  0
APPID
  2
DCO15
 70
     0
  0
APPID
  2
ACDBATTR
 70
     0
  0
ENDTAB
  0
TABLE
  2
DIMSTYLE
 70
     1
  0
DIMSTYLE
  2
STANDARD
 70
     0
  3

  4

  5

  6

  7

 40
1.0
 41
0.1875
 42
0.0625
 43
0.38
 44
0.125
 45
0.0
 46
0.0
 47
0.01
 48
0.01
140
0.15625
141
0.09
142
0.0
143
25.3999999999999986
144
1.0
145
0.0
146
1.0
147
0.09
 71
     1
 72
     0
 73
     1
 74
     1
 75
     0
 76
     0
 77
     0
 78
     4
170
     0
171
     2
172
     0
173
     0
174
     0
175
     0
176
     0
177
     0
178
     0
  0
ENDTAB
  0
ENDSEC
  0
SECTION
  2
BLOCKS
  0
BLOCK
  8
0
  2
$MODEL_SPACE
 70
     0
 10
0.0
 20
0.0
 30
0.0
  3
$MODEL_SPACE
  1

  0
ENDBLK
  5
21
  8
0
  0
BLOCK
 67
     1
  8
0
  2
$PAPER_SPACE
 70
     0
 10
0.0
 20
0.0
 30
0.0
  3
$PAPER_SPACE
  1

  0
ENDBLK
  5
1D
 67
     1
  8
0
  0
BLOCK
  8
0
  2
_FILLED
 70
     0
 10
0.0
 20
0.0
 30
0.0
  3
_FILLED
  1

  0
SOLID
  5
9EE8
  8
0
  6
BYBLOCK
 62
     0
 10
0.0
 20
0.0
 30
0.0
 11
-1.0
 21
0.1666666667
 31
0.0
 12
-1.0
 22
-0.1666666667
 32
0.0
 13
-1.0
 23
-0.1666666667
 33
0.0
  0
ENDBLK
  5
9EE9
  8
0
  6
BYBLOCK
 62
     0
  0
ENDSEC
  0
SECTION
  2
ENTITIES
  0
ATTDEF
  5
7A6E
  8
DEFPOINTS
 10
323.3905723596500934
 20
4.0046189275410242
 30
0.0
 40
0.001
  1
P80262-00
  3

  2
MODELNUMBER
 70
     0
1001
ACDBATTR
1070
     0
1070
     1
  0
ATTDEF
  5
7A6F
  8
DEFPOINTS
 10
323.3905723596500934
 20
4.0029522608743591
 30
0.0
 40
0.001
  1
VIR STIL
  3

  2
TRADENAME
 70
     0
1001
ACDBATTR
1070
     0
1070
     1
  0
ATTDEF
  5
7A70
  8
DEFPOINTS
 10
323.3905723596500934
 20
4.001285594207693
 30
0.0
 40
0.001
  1
TOWEL BAR
  3

  2
PRODUCT
 70
     0
1001
ACDBATTR
1070
     0
1070
     1
  0
LINE
  5
B0C4
  8
0
 10
323.3899511240718994
 20
5.0837722177488187
 30
0.0
 11
323.3899511240718994
 21
2.9184178870488191
 31
0.0
  0
LINE
  5
B0C5
  8
0
 10
323.0749904941719137
 20
5.0837722177488187
 30
0.0
 11
323.0749904941719137
 21
2.9184178870488191
 31
0.0
  0
LINE
  5
B0C6
  8
0
 10
323.0277463996717984
 20
4.9617249736488187
 30
0.0
 11
323.0277463996717984
 21
3.0404651311488191
 31
0.0
  0
LINE
  5
B0C7
  8
0
 10
322.9765652972719181
 20
4.9026698555488188
 30
0.0
 11
322.9765652972719181
 21
3.099520249248819
 31
0.0
  0
LINE
  5
B0C8
  8
0
 10
323.0749904941719137
 20
5.0837722177488187
 30
0.0
 11
323.3899511240718994
 21
5.0837722177488187
 31
0.0
  0
LINE
  5
B0C9
  8
0
 10
323.0277463996717984
 20
4.9617249736488187
 30
0.0
 11
323.0749904941719137
 21
4.9617249736488187
 31
0.0
  0
LINE
  5
B0CA
  8
0
 10
322.9765652972719181
 20
4.9026698555488188
 30
0.0
 11
323.0277463996717984
 21
4.9026698555488188
 31
0.0
  0
LINE
  5
B0CB
  8
0
 10
322.8584550610718793
 20
4.5325910587488192
 30
0.0
 11
322.8584550610718793
 21
3.46959904604882
 31
0.0
  0
LINE
  5
B0CC
  8
0
 10
322.8584550610718793
 20
4.5325910587488192
 30
0.0
 11
321.0671164783718723
 21
4.5325910587488192
 31
0.0
  0
LINE
  5
B0CD
  8
0
 10
321.0080613602718813
 20
4.4932209842488202
 30
0.0
 11
321.0671164783718723
 21
4.4932209842488202
 31
0.0
  0
LINE
  5
B0CE
  8
0
 10
322.8584550610718793
 20
4.4932209842488202
 30
0.0
 11
322.9765652972719181
 21
4.4932209842488202
 31
0.0
  0
LINE
  5
B0CF
  8
0
 10
321.0671164783718723
 20
4.5325910587488192
 30
0.0
 11
321.0671164783718723
 21
3.46959904604882
 31
0.0
  0
LINE
  5
B0D0
  8
0
 10
321.0080613602718813
 20
4.4932209842488202
 30
0.0
 11
321.0080613602718813
 21
3.5089691205488189
 31
0.0
  0
LINE
  5
B0D1
  8
0
 10
320.9490062421718903
 20
4.5460950523488366
 30
0.0
 11
320.9490062421718903
 21
3.4560950523488021
 31
0.0
  0
LINE
  5
B0D2
  8
0
 10
320.9490062421718903
 20
4.3751107605488189
 30
0.0
 11
321.0080613602718813
 21
4.3751107605488189
 31
0.0
  0
ARC
  5
B0D3
  8
0
 10
320.8690062421719063
 20
4.0010950523488189
 30
0.0
 40
0.625
 50
89.9999999999967457
 51
270.0000000000032969
  0
ARC
  5
B0D4
  8
0
 10
320.8690062421719063
 20
4.5460950523488517
 30
0.0
 40
0.08
 50
359.9999999999889724
 51
90.000000000029317
  0
ARC
  5
B0D5
  8
0
 10
320.8690062421719063
 20
3.4560950523487848
 30
0.0
 40
0.08
 50
269.9999999999739089
 51
0.0000000000120861
  0
LINE
  5
B0D6
  8
0
 10
323.0749904941719137
 20
2.9184178870488191
 30
0.0
 11
323.3899511240718994
 21
2.9184178870488191
 31
0.0
  0
LINE
  5
B0D7
  8
0
 10
323.0277463996717984
 20
3.0404651311488191
 30
0.0
 11
323.0749904941719137
 21
3.0404651311488191
 31
0.0
  0
LINE
  5
B0D8
  8
0
 10
322.9765652972719181
 20
3.099520249248819
 30
0.0
 11
323.0277463996717984
 21
3.099520249248819
 31
0.0
  0
LINE
  5
B0D9
  8
0
 10
322.8584550610718793
 20
3.46959904604882
 30
0.0
 11
321.0671164783718723
 21
3.46959904604882
 31
0.0
  0
LINE
  5
B0DA
  8
0
 10
321.0080613602718813
 20
3.5089691205488189
 30
0.0
 11
321.0671164783718723
 21
3.5089691205488189
 31
0.0
  0
LINE
  5
B0DB
  8
0
 10
322.8584550610718793
 20
3.5089691205488189
 30
0.0
 11
322.9765652972719181
 21
3.5089691205488189
 31
0.0
  0
LINE
  5
B0DC
  8
0
 10
320.9490062421718903
 20
3.6270793442488189
 30
0.0
 11
321.0080613602718813
 21
3.6270793442488189
 31
0.0
  0
ENDSEC
  0
EOF
