  0
SECTION
  2
HEADER
  9
$ACADVER
  1
AC1009
  9
$INSBASE
 10
372.4636359144200242
 20
17.6071388279939391
 30
0.0
  9
$EXTMIN
 10
362.3740329851290767
 20
14.4599460973315708
 30
-0.0000000000112498
  9
$EXTMAX
 10
382.571431796297702
 20
17.6075596642932801
 30
0.0000000000002956
  9
$LIMMIN
 10
0.0
 20
0.0
  9
$LIMMAX
 10
11.6929133858000007
 20
8.2677165353999982
  9
$ORTHOMODE
 70
     0
  9
$REGENMODE
 70
     1
  9
$FILLMODE
 70
     1
  9
$QTEXTMODE
 70
     0
  9
$MIRRTEXT
 70
     0
  9
$DRAGMODE
 70
     2
  9
$LTSCALE
 40
0.6431102362
  9
$OSMODE
 70
  4095
  9
$ATTMODE
 70
     1
  9
$TEXTSIZE
 40
0.2
  9
$TRACEWID
 40
0.05
  9
$TEXTSTYLE
  7
STANDARD
  9
$CLAYER
  8
0
  9
$CELTYPE
  6
BYLAYER
  9
$CECOLOR
 62
   256
  9
$DIMSCALE
 40
1.0
  9
$DIMASZ
 40
0.1875
  9
$DIMEXO
 40
0.0625
  9
$DIMDLI
 40
0.4443307087
  9
$DIMRND
 40
0.0
  9
$DIMDLE
 40
0.0
  9
$DIMEXE
 40
0.125
  9
$DIMTP
 40
0.01
  9
$DIMTM
 40
0.01
  9
$DIMTXT
 40
0.15625
  9
$DIMCEN
 40
0.1052362205
  9
$DIMTSZ
 40
0.0
  9
$DIMTOL
 70
     1
  9
$DIMLIM
 70
     0
  9
$DIMTIH
 70
     1
  9
$DIMTOH
 70
     1
  9
$DIMSE1
 70
     0
  9
$DIMSE2
 70
     0
  9
$DIMTAD
 70
     0
  9
$DIMZIN
 70
     0
  9
$DIMBLK
  1

  9
$DIMASO
 70
     1
  9
$DIMSHO
 70
     1
  9
$DIMPOST
  1
\X
  9
$DIMAPOST
  1

  9
$DIMALT
 70
     1
  9
$DIMALTD
 70
     2
  9
$DIMALTF
 40
25.3999999999999986
  9
$DIMLFAC
 40
1.0
  9
$DIMTOFL
 70
     0
  9
$DIMTVP
 40
0.0
  9
$DIMTIX
 70
     0
  9
$DIMSOXD
 70
     0
  9
$DIMSAH
 70
     0
  9
$DIMBLK1
  1

  9
$DIMBLK2
  1

  9
$DIMSTYLE
  2
STANDARD
  9
$DIMCLRD
 70
     0
  9
$DIMCLRE
 70
     0
  9
$DIMCLRT
 70
     0
  9
$DIMTFAC
 40
1.0
  9
$DIMGAP
 40
0.09
  9
$LUNITS
 70
     2
  9
$LUPREC
 70
     4
  9
$SKETCHINC
 40
0.1
  9
$FILLETRAD
 40
0.0
  9
$AUNITS
 70
     0
  9
$AUPREC
 70
     0
  9
$MENU
  1
.
  9
$ELEVATION
 40
0.0
  9
$PELEVATION
 40
0.0
  9
$THICKNESS
 40
0.0
  9
$LIMCHECK
 70
     0
  9
$BLIPMODE
 70
     0
  9
$CHAMFERA
 40
0.0
  9
$CHAMFERB
 40
0.0
  9
$SKPOLY
 70
     0
  9
$TDCREATE
 40
2458018.639108797069639
  9
$TDUPDATE
 40
2460209.7213425929658115
  9
$TDINDWG
 40
0.3777541667
  9
$TDUSRTIMER
 40
0.3777541667
  9
$USRTIMER
 70
     1
  9
$ANGBASE
 50
0.0
  9
$ANGDIR
 70
     0
  9
$PDMODE
 70
     0
  9
$PDSIZE
 40
0.3125
  9
$PLINEWID
 40
0.0
  9
$COORDS
 70
     1
  9
$SPLFRAME
 70
     0
  9
$SPLINETYPE
 70
     6
  9
$SPLINESEGS
 70
     8
  9
$ATTDIA
 70
     1
  9
$ATTREQ
 70
     1
  9
$HANDLING
 70
     1
  9
$HANDSEED
  5
BE78
  9
$SURFTAB1
 70
     6
  9
$SURFTAB2
 70
     6
  9
$SURFTYPE
 70
     6
  9
$SURFU
 70
     6
  9
$SURFV
 70
     6
  9
$UCSNAME
  2

  9
$UCSORG
 10
0.0
 20
0.0
 30
0.0
  9
$UCSXDIR
 10
1.0
 20
0.0
 30
0.0
  9
$UCSYDIR
 10
0.0
 20
1.0
 30
0.0
  9
$PUCSNAME
  2

  9
$PUCSORG
 10
0.0
 20
0.0
 30
0.0
  9
$PUCSXDIR
 10
1.0
 20
0.0
 30
0.0
  9
$PUCSYDIR
 10
0.0
 20
1.0
 30
0.0
  9
$USERI1
 70
     0
  9
$USERI2
 70
     0
  9
$USERI3
 70
     0
  9
$USERI4
 70
     0
  9
$USERI5
 70
     0
  9
$USERR1
 40
0.0
  9
$USERR2
 40
0.0
  9
$USERR3
 40
0.0
  9
$USERR4
 40
0.0
  9
$USERR5
 40
0.0
  9
$WORLDVIEW
 70
     1
  9
$SHADEDGE
 70
     3
  9
$SHADEDIF
 70
    70
  9
$TILEMODE
 70
     1
  9
$MAXACTVP
 70
    64
  9
$PLIMCHECK
 70
     0
  9
$PEXTMIN
 10
1.0000000000000000E+20
 20
1.0000000000000000E+20
 30
1.0000000000000000E+20
  9
$PEXTMAX
 10
-1.0000000000000000E+20
 20
-1.0000000000000000E+20
 30
-1.0000000000000000E+20
  9
$PLIMMIN
 10
0.0
 20
0.0
  9
$PLIMMAX
 10
12.0
 20
9.0
  9
$UNITMODE
 70
     0
  9
$VISRETAIN
 70
     1
  9
$PLINEGEN
 70
     0
  9
$PSLTSCALE
 70
     1
  0
ENDSEC
  0
SECTION
  2
TABLES
  0
TABLE
  2
VPORT
 70
     1
  0
VPORT
  2
*ACTIVE
 70
     0
 10
0.0
 20
0.0
 11
1.0
 21
1.0
 12
277.1484713929756936
 22
8.9974208695895825
 13
0.0
 23
0.0
 14
1.0
 24
1.0
 15
0.0
 25
0.0
 16
-0.0000000000000142
 26
0.0
 36
39.3282560748450578
 17
95.3242609977377526
 27
7.0363320112228394
 37
0.0
 40
14.4129844288247906
 41
1.4089743589743591
 42
50.0
 43
0.0
 44
0.0
 50
0.0
 51
0.0
 71
     0
 72
   100
 73
     1
 74
     1
 75
     0
 76
     0
 77
     0
 78
     0
  0
ENDTAB
  0
TABLE
  2
LTYPE
 70
     2
  0
LTYPE
  2
CONTINUOUS
 70
     0
  3
Solid line
 72
    65
 73
     0
 40
0.0
  0
LTYPE
  2
PHANTOM2
 70
     0
  3
___ _ _ ___ _ _ ___ _ _ ___ _ _
 72
    65
 73
     6
 40
1.25
 49
0.625
 49
-0.125
 49
0.125
 49
-0.125
 49
0.125
 49
-0.125
  0
ENDTAB
  0
TABLE
  2
LAYER
 70
     2
  0
LAYER
  2
0
 70
     0
 62
   255
  6
CONTINUOUS
  0
LAYER
  2
DEFPOINTS
 70
     0
 62
     7
  6
CONTINUOUS
  0
ENDTAB
  0
TABLE
  2
STYLE
 70
     1
  0
STYLE
  2
STANDARD
 70
     0
 40
0.0
 41
0.8
 50
0.0
 71
     0
 42
0.2
  3
txt
  4

  0
ENDTAB
  0
TABLE
  2
VIEW
 70
     0
  0
ENDTAB
  0
TABLE
  2
UCS
 70
     0
  0
ENDTAB
  0
TABLE
  2
APPID
 70
    10
  0
APPID
  2
ACAD
 70
     0
  0
APPID
  2
ACAD_MLEADERVER
 70
     0
  0
APPID
  2
ACAD_DSTYLE_DIMJAG
 70
     0
  0
APPID
  2
ACAD_DSTYLE_DIMTALN
 70
     0
  0
APPID
  2
ACAD_NAV_VCDISPLAY
 70
     0
  0
APPID
  2
ACAD_EXEMPT_FROM_CAD_STANDARDS
 70
     0
  0
APPID
  2
ACAECLAYERSTANDARD
 70
     0
  0
APPID
  2
ACCMTRANSPARENCY
 70
     0
  0
APPID
  2
DCO15
 70
     0
  0
APPID
  2
ACDBATTR
 70
     0
  0
ENDTAB
  0
TABLE
  2
DIMSTYLE
 70
     1
  0
DIMSTYLE
  2
STANDARD
 70
     0
  3

  4

  5

  6

  7

 40
1.0
 41
0.1875
 42
0.0625
 43
0.38
 44
0.125
 45
0.0
 46
0.0
 47
0.01
 48
0.01
140
0.15625
141
0.09
142
0.0
143
25.3999999999999986
144
1.0
145
0.0
146
1.0
147
0.09
 71
     1
 72
     0
 73
     1
 74
     1
 75
     0
 76
     0
 77
     0
 78
     4
170
     0
171
     2
172
     0
173
     0
174
     0
175
     0
176
     0
177
     0
178
     0
  0
ENDTAB
  0
ENDSEC
  0
SECTION
  2
BLOCKS
  0
BLOCK
  8
0
  2
$MODEL_SPACE
 70
     0
 10
0.0
 20
0.0
 30
0.0
  3
$MODEL_SPACE
  1

  0
ENDBLK
  5
21
  8
0
  0
BLOCK
 67
     1
  8
0
  2
$PAPER_SPACE
 70
     0
 10
0.0
 20
0.0
 30
0.0
  3
$PAPER_SPACE
  1

  0
ENDBLK
  5
1D
 67
     1
  8
0
  0
ENDSEC
  0
SECTION
  2
ENTITIES
  0
ATTDEF
  5
7A6E
  8
DEFPOINTS
 10
372.4581816987089269
 20
17.6048106907649604
 30
0.0
 40
0.001
  1
P80263-00
  3

  2
MODELNUMBER
 70
     0
1001
ACDBATTR
1070
     0
1070
     1
  0
ATTDEF
  5
7A6F
  8
DEFPOINTS
 10
372.4581816987089269
 20
17.6031440240982988
 30
0.0
 40
0.001
  1
VIR STIL
  3

  2
TRADENAME
 70
     0
1001
ACDBATTR
1070
     0
1070
     1
  0
ATTDEF
  5
7A70
  8
DEFPOINTS
 10
372.4581816987089269
 20
17.6014773574316301
 30
0.0
 40
0.001
  1
TOWEL BAR
  3

  2
PRODUCT
 70
     0
1001
ACDBATTR
1070
     0
1070
     1
  0
LINE
  5
BD3A
  8
0
 10
362.5030359144699901
 20
15.1661939460939408
 30
0.0
 11
382.4242359143701151
 21
15.1661939460939408
 31
0.0
  0
LINE
  5
BD3B
  8
0
 10
362.5030359144699901
 20
14.4611939460939407
 30
0.0
 11
382.4242359143701151
 21
14.4611939460939407
 31
0.0
  0
LINE
  5
BD3C
  8
0
 10
382.4636359143701156
 20
14.5005939460939395
 30
0.0
 11
382.4636359143701156
 21
15.1267939460939402
 31
0.0
  0
LINE
  5
BD3D
  8
0
 10
382.546313079770016
 20
17.292178198094021
 30
0.0
 11
382.546313079770016
 21
17.6071388279939391
 31
0.0
  0
ARC
  5
BD3E
  8
0
 10
382.4242359143701151
 20
15.1267939460939402
 30
0.0
 40
0.0394
 50
0.0000000000026462
 51
90.0
  0
ARC
  5
BD3F
  8
0
 10
382.4242359143701151
 20
14.5005939460939395
 30
0.0
 40
0.0394
 50
270.0
 51
0.0
  0
LINE
  5
BD40
  8
0
 10
381.9557618986701186
 20
15.2252490641939406
 30
0.0
 11
380.9715099301699865
 21
15.2252490641939406
 31
0.0
  0
LINE
  5
BD41
  8
0
 10
381.995131977370022
 20
15.2843041822939405
 30
0.0
 11
380.9321398514700263
 21
15.2843041822939405
 31
0.0
  0
LINE
  5
BD42
  8
0
 10
381.995131977370022
 20
17.0756427649939404
 30
0.0
 11
380.9321398514700263
 21
17.0756427649939404
 31
0.0
  0
LINE
  5
BD43
  8
0
 10
382.3652107175699939
 20
17.1937530011940503
 30
0.0
 11
380.5620611112701113
 21
17.19375300119383
 31
0.0
  0
LINE
  5
BD44
  8
0
 10
382.4242658356699849
 20
17.2449341035939412
 30
0.0
 11
380.5030059931701203
 21
17.2449341035939412
 31
0.0
  0
LINE
  5
BD45
  8
0
 10
382.546313079770016
 20
17.292178198094021
 30
0.0
 11
380.3809587490699755
 21
17.2921781980938682
 31
0.0
  0
LINE
  5
BD46
  8
0
 10
382.546313079770016
 20
17.6071388279939391
 30
0.0
 11
380.3809587490699755
 21
17.6071388279939391
 31
0.0
  0
LINE
  5
BD47
  8
0
 10
382.4242658356699849
 20
17.2921781980940104
 30
0.0
 11
382.4242658356699849
 21
17.2449341035939412
 31
0.0
  0
LINE
  5
BD48
  8
0
 10
382.3652107175699939
 20
17.2449341035939412
 30
0.0
 11
382.3652107175699939
 21
17.1937530011940503
 31
0.0
  0
LINE
  5
BD49
  8
0
 10
381.9557618986701186
 20
17.0756427649939404
 30
0.0
 11
381.9557618986701186
 21
17.1937530011940005
 31
0.0
  0
LINE
  5
BD4A
  8
0
 10
381.995131977370022
 20
17.0756427649939404
 30
0.0
 11
381.995131977370022
 21
15.2843041822939405
 31
0.0
  0
LINE
  5
BD4B
  8
0
 10
381.9557618986701186
 20
15.2843041822939405
 30
0.0
 11
381.9557618986701186
 21
15.2252490641939406
 31
0.0
  0
LINE
  5
BD4C
  8
0
 10
381.8376516623699786
 20
15.2252490641939406
 30
0.0
 11
381.8376516623699786
 21
15.1661939460939408
 31
0.0
  0
LINE
  5
BD4D
  8
0
 10
380.3809587490699755
 20
17.292178198094021
 30
0.0
 11
380.3809587490699755
 21
17.6071388279939391
 31
0.0
  0
LINE
  5
BD4E
  8
0
 10
380.5030059931701203
 20
17.2921781980940104
 30
0.0
 11
380.5030059931701203
 21
17.2449341035939412
 31
0.0
  0
LINE
  5
BD4F
  8
0
 10
380.5620611112701113
 20
17.2449341035939412
 30
0.0
 11
380.5620611112701113
 21
17.1937530011940503
 31
0.0
  0
LINE
  5
BD50
  8
0
 10
380.9715099301699865
 20
17.0756427649939404
 30
0.0
 11
380.9715099301699865
 21
17.1937530011940005
 31
0.0
  0
LINE
  5
BD51
  8
0
 10
380.9321398514700263
 20
17.0756427649939404
 30
0.0
 11
380.9321398514700263
 21
15.2843041822939405
 31
0.0
  0
LINE
  5
BD52
  8
0
 10
380.9715099301699865
 20
15.2843041822939405
 30
0.0
 11
380.9715099301699865
 21
15.2252490641939406
 31
0.0
  0
LINE
  5
BD53
  8
0
 10
381.0896201664700129
 20
15.2252490641939406
 30
0.0
 11
381.0896201664700129
 21
15.1661939460939408
 31
0.0
  0
LINE
  5
BD55
  8
0
 10
381.963635914370002
 20
15.1661939460939408
 30
0.0
 11
381.963635914370002
 21
14.4611939460939407
 31
0.0
  0
LINE
  5
BD56
  8
0
 10
362.4636359144699895
 20
14.5005939460939395
 30
0.0
 11
362.4636359144699895
 21
15.1267939460939402
 31
0.0
  0
LINE
  5
BD57
  8
0
 10
362.3809587490700892
 20
17.292178198094021
 30
0.0
 11
362.3809587490700892
 21
17.6071388279939391
 31
0.0
  0
ARC
  5
BD58
  8
0
 10
362.5030359144699901
 20
15.1267939460939402
 30
0.0
 40
0.0394
 50
90.0
 51
179.9999999999972999
  0
ARC
  5
BD59
  8
0
 10
362.5030359144699901
 20
14.5005939460939395
 30
0.0
 40
0.0394
 50
180.0
 51
270.0
  0
LINE
  5
BD5A
  8
0
 10
362.9715099301701002
 20
15.2252490641939406
 30
0.0
 11
363.9557618986700049
 21
15.2252490641939406
 31
0.0
  0
LINE
  5
BD5B
  8
0
 10
362.9321398514700263
 20
15.2843041822939405
 30
0.0
 11
363.995131977370022
 21
15.2843041822939405
 31
0.0
  0
LINE
  5
BD5C
  8
0
 10
362.9321398514700263
 20
17.0756427649939404
 30
0.0
 11
363.995131977370022
 21
17.0756427649939404
 31
0.0
  0
LINE
  5
BD5D
  8
0
 10
362.5620611112699976
 20
17.1937530011940503
 30
0.0
 11
364.3652107175701076
 21
17.19375300119383
 31
0.0
  0
LINE
  5
BD5E
  8
0
 10
362.5030059931701203
 20
17.2449341035939412
 30
0.0
 11
364.4242658356699849
 21
17.2449341035939412
 31
0.0
  0
LINE
  5
BD5F
  8
0
 10
362.3809587490700892
 20
17.292178198094021
 30
0.0
 11
364.546313079770016
 21
17.2921781980938682
 31
0.0
  0
LINE
  5
BD60
  8
0
 10
362.3809587490700892
 20
17.6071388279939391
 30
0.0
 11
364.546313079770016
 21
17.6071388279939391
 31
0.0
  0
LINE
  5
BD61
  8
0
 10
362.5030059931701203
 20
17.2921781980940104
 30
0.0
 11
362.5030059931701203
 21
17.2449341035939412
 31
0.0
  0
LINE
  5
BD62
  8
0
 10
362.5620611112699976
 20
17.2449341035939412
 30
0.0
 11
362.5620611112699976
 21
17.1937530011940503
 31
0.0
  0
LINE
  5
BD63
  8
0
 10
362.9715099301701002
 20
17.0756427649939404
 30
0.0
 11
362.9715099301701002
 21
17.1937530011940005
 31
0.0
  0
LINE
  5
BD64
  8
0
 10
362.9321398514700263
 20
17.0756427649939404
 30
0.0
 11
362.9321398514700263
 21
15.2843041822939405
 31
0.0
  0
LINE
  5
BD65
  8
0
 10
362.9715099301701002
 20
15.2843041822939405
 30
0.0
 11
362.9715099301701002
 21
15.2252490641939406
 31
0.0
  0
LINE
  5
BD66
  8
0
 10
363.0896201664700129
 20
15.2252490641939406
 30
0.0
 11
363.0896201664700129
 21
15.1661939460939408
 31
0.0
  0
LINE
  5
BD67
  8
0
 10
364.546313079770016
 20
17.292178198094021
 30
0.0
 11
364.546313079770016
 21
17.6071388279939391
 31
0.0
  0
LINE
  5
BD68
  8
0
 10
364.4242658356699849
 20
17.2921781980940104
 30
0.0
 11
364.4242658356699849
 21
17.2449341035939412
 31
0.0
  0
LINE
  5
BD69
  8
0
 10
364.3652107175701076
 20
17.2449341035939412
 30
0.0
 11
364.3652107175701076
 21
17.1937530011940503
 31
0.0
  0
LINE
  5
BD6A
  8
0
 10
363.9557618986700049
 20
17.0756427649939404
 30
0.0
 11
363.9557618986700049
 21
17.1937530011940005
 31
0.0
  0
LINE
  5
BD6B
  8
0
 10
363.995131977370022
 20
17.0756427649939404
 30
0.0
 11
363.995131977370022
 21
15.2843041822939405
 31
0.0
  0
LINE
  5
BD6C
  8
0
 10
363.9557618986700049
 20
15.2843041822939405
 30
0.0
 11
363.9557618986700049
 21
15.2252490641939406
 31
0.0
  0
LINE
  5
BD6D
  8
0
 10
363.8376516623699786
 20
15.2252490641939406
 30
0.0
 11
363.8376516623699786
 21
15.1661939460939408
 31
0.0
  0
LINE
  5
BD6E
  8
0
 10
362.9636359144701032
 20
15.1661939460939408
 30
0.0
 11
362.9636359144701032
 21
14.4611939460939407
 31
0.0
  0
ENDSEC
  0
EOF
