  0
SECTION
  2
HEADER
  9
$ACADVER
  1
AC1009
  9
$INSBASE
 10
5617.0941153532166936
 20
403.3218681098168759
 30
0.0
  9
$EXTMIN
 10
5615.9831153146951692
 20
403.3218681098168759
 30
0.0
  9
$EXTMAX
 10
5620.0496155665960032
 20
415.3221205326798895
 30
0.0
  9
$LIMMIN
 10
0.0
 20
0.0
  9
$LIMMAX
 10
11.6929133858000007
 20
8.2677165353999982
  9
$ORTHOMODE
 70
     0
  9
$REGENMODE
 70
     1
  9
$FILLMODE
 70
     1
  9
$QTEXTMODE
 70
     0
  9
$MIRRTEXT
 70
     0
  9
$DRAGMODE
 70
     2
  9
$LTSCALE
 40
0.6431102362
  9
$OSMODE
 70
  3839
  9
$ATTMODE
 70
     1
  9
$TEXTSIZE
 40
0.2
  9
$TRACEWID
 40
0.05
  9
$TEXTSTYLE
  7
STANDARD
  9
$CLAYER
  8
0
  9
$CELTYPE
  6
BYLAYER
  9
$CECOLOR
 62
   256
  9
$DIMSCALE
 40
1.0
  9
$DIMASZ
 40
0.1875
  9
$DIMEXO
 40
0.0625
  9
$DIMDLI
 40
0.4443307087
  9
$DIMRND
 40
0.0
  9
$DIMDLE
 40
0.0
  9
$DIMEXE
 40
0.125
  9
$DIMTP
 40
0.01
  9
$DIMTM
 40
0.01
  9
$DIMTXT
 40
2.0
  9
$DIMCEN
 40
0.1052362205
  9
$DIMTSZ
 40
0.0
  9
$DIMTOL
 70
     1
  9
$DIMLIM
 70
     0
  9
$DIMTIH
 70
     1
  9
$DIMTOH
 70
     1
  9
$DIMSE1
 70
     0
  9
$DIMSE2
 70
     0
  9
$DIMTAD
 70
     0
  9
$DIMZIN
 70
     0
  9
$DIMBLK
  1

  9
$DIMASO
 70
     1
  9
$DIMSHO
 70
     1
  9
$DIMPOST
  1
\X
  9
$DIMAPOST
  1

  9
$DIMALT
 70
     1
  9
$DIMALTD
 70
     2
  9
$DIMALTF
 40
25.3999999999999986
  9
$DIMLFAC
 40
1.0
  9
$DIMTOFL
 70
     0
  9
$DIMTVP
 40
0.0
  9
$DIMTIX
 70
     0
  9
$DIMSOXD
 70
     0
  9
$DIMSAH
 70
     0
  9
$DIMBLK1
  1

  9
$DIMBLK2
  1

  9
$DIMSTYLE
  2
STANDARD
  9
$DIMCLRD
 70
     0
  9
$DIMCLRE
 70
     0
  9
$DIMCLRT
 70
     0
  9
$DIMTFAC
 40
1.0
  9
$DIMGAP
 40
0.09
  9
$LUNITS
 70
     2
  9
$LUPREC
 70
     4
  9
$SKETCHINC
 40
0.1
  9
$FILLETRAD
 40
0.0
  9
$AUNITS
 70
     0
  9
$AUPREC
 70
     0
  9
$MENU
  1
.
  9
$ELEVATION
 40
0.0
  9
$PELEVATION
 40
0.0
  9
$THICKNESS
 40
0.0
  9
$LIMCHECK
 70
     0
  9
$BLIPMODE
 70
     0
  9
$CHAMFERA
 40
0.0
  9
$CHAMFERB
 40
0.0
  9
$SKPOLY
 70
     0
  9
$TDCREATE
 40
2458060.468368056230247
  9
$TDUPDATE
 40
2460440.3938888888806105
  9
$TDINDWG
 40
0.6500186343
  9
$TDUSRTIMER
 40
0.6500186343
  9
$USRTIMER
 70
     1
  9
$ANGBASE
 50
0.0
  9
$ANGDIR
 70
     0
  9
$PDMODE
 70
     0
  9
$PDSIZE
 40
0.3125
  9
$PLINEWID
 40
0.0
  9
$COORDS
 70
     1
  9
$SPLFRAME
 70
     0
  9
$SPLINETYPE
 70
     6
  9
$SPLINESEGS
 70
     8
  9
$ATTDIA
 70
     1
  9
$ATTREQ
 70
     1
  9
$HANDLING
 70
     1
  9
$HANDSEED
  5
2C305
  9
$SURFTAB1
 70
     6
  9
$SURFTAB2
 70
     6
  9
$SURFTYPE
 70
     6
  9
$SURFU
 70
     6
  9
$SURFV
 70
     6
  9
$UCSNAME
  2

  9
$UCSORG
 10
0.0
 20
0.0
 30
0.0
  9
$UCSXDIR
 10
1.0
 20
0.0
 30
0.0
  9
$UCSYDIR
 10
0.0
 20
1.0
 30
0.0
  9
$PUCSNAME
  2

  9
$PUCSORG
 10
0.0
 20
0.0
 30
0.0
  9
$PUCSXDIR
 10
1.0
 20
0.0
 30
0.0
  9
$PUCSYDIR
 10
0.0
 20
1.0
 30
0.0
  9
$USERI1
 70
     0
  9
$USERI2
 70
     0
  9
$USERI3
 70
     0
  9
$USERI4
 70
     0
  9
$USERI5
 70
     0
  9
$USERR1
 40
0.0
  9
$USERR2
 40
0.0
  9
$USERR3
 40
0.0
  9
$USERR4
 40
0.0
  9
$USERR5
 40
0.0
  9
$WORLDVIEW
 70
     1
  9
$SHADEDGE
 70
     3
  9
$SHADEDIF
 70
    70
  9
$TILEMODE
 70
     1
  9
$MAXACTVP
 70
    64
  9
$PLIMCHECK
 70
     0
  9
$PEXTMIN
 10
1.0000000000000000E+20
 20
1.0000000000000000E+20
 30
1.0000000000000000E+20
  9
$PEXTMAX
 10
-1.0000000000000000E+20
 20
-1.0000000000000000E+20
 30
-1.0000000000000000E+20
  9
$PLIMMIN
 10
0.0
 20
0.0
  9
$PLIMMAX
 10
12.0
 20
9.0
  9
$UNITMODE
 70
     0
  9
$VISRETAIN
 70
     1
  9
$PLINEGEN
 70
     0
  9
$PSLTSCALE
 70
     1
  0
ENDSEC
  0
SECTION
  2
TABLES
  0
TABLE
  2
VPORT
 70
     1
  0
VPORT
  2
*ACTIVE
 70
     0
 10
0.0
 20
0.0
 11
1.0
 21
1.0
 12
1706.6510089953330862
 22
276.742389218709377
 13
0.0
 23
0.0
 14
1.0
 24
1.0
 15
0.0
 25
0.0
 16
0.0
 26
0.0
 36
60.4960186965801583
 17
3911.3653564453120453
 27
132.5796051025390057
 37
0.0
 40
12.0801653135812899
 41
2.1211111111111101
 42
50.0
 43
0.0
 44
0.0
 50
0.0
 51
0.0
 71
     0
 72
   100
 73
     1
 74
     1
 75
     0
 76
     0
 77
     0
 78
     1
  0
ENDTAB
  0
TABLE
  2
LTYPE
 70
     2
  0
LTYPE
  2
CONTINUOUS
 70
     0
  3
Solid line
 72
    65
 73
     0
 40
0.0
  0
LTYPE
  2
PHANTOM2
 70
     0
  3
___ _ _ ___ _ _ ___ _ _ ___ _ _
 72
    65
 73
     6
 40
1.25
 49
0.625
 49
-0.125
 49
0.125
 49
-0.125
 49
0.125
 49
-0.125
  0
ENDTAB
  0
TABLE
  2
LAYER
 70
     2
  0
LAYER
  2
0
 70
     0
 62
   255
  6
CONTINUOUS
  0
LAYER
  2
DEFPOINTS
 70
     0
 62
     7
  6
CONTINUOUS
  0
ENDTAB
  0
TABLE
  2
STYLE
 70
     1
  0
STYLE
  2
STANDARD
 70
     0
 40
0.0
 41
0.8
 50
0.0
 71
     0
 42
0.2
  3
txt
  4

  0
ENDTAB
  0
TABLE
  2
VIEW
 70
     0
  0
ENDTAB
  0
TABLE
  2
UCS
 70
     0
  0
ENDTAB
  0
TABLE
  2
APPID
 70
    11
  0
APPID
  2
ACAD
 70
     0
  0
APPID
  2
ACAD_MLEADERVER
 70
     0
  0
APPID
  2
ACAD_EXEMPT_FROM_CAD_STANDARDS
 70
     0
  0
APPID
  2
ACAD_NAV_VCDISPLAY
 70
     0
  0
APPID
  2
ACAECLAYERSTANDARD
 70
     0
  0
APPID
  2
ACCMTRANSPARENCY
 70
     0
  0
APPID
  2
ACAD_DSTYLE_DIMJAG
 70
     0
  0
APPID
  2
ACAD_DSTYLE_DIMTALN
 70
     0
  0
APPID
  2
ACDBATTR
 70
     0
  0
APPID
  2
ACADANNOTATIVE
 70
     0
  0
APPID
  2
DCO15
 70
     0
  0
ENDTAB
  0
TABLE
  2
DIMSTYLE
 70
     1
  0
DIMSTYLE
  2
STANDARD
 70
     0
  3

  4

  5

  6

  7

 40
1.0
 41
0.1875
 42
0.0625
 43
0.38
 44
0.125
 45
0.0
 46
0.0
 47
0.01
 48
0.01
140
0.15625
141
0.09
142
0.0
143
25.3999999999999986
144
1.0
145
0.0
146
1.0
147
0.09
 71
     1
 72
     0
 73
     1
 74
     1
 75
     0
 76
     0
 77
     0
 78
     4
170
     0
171
     2
172
     0
173
     0
174
     0
175
     0
176
     0
177
     0
178
     0
  0
ENDTAB
  0
ENDSEC
  0
SECTION
  2
BLOCKS
  0
BLOCK
  8
0
  2
$MODEL_SPACE
 70
     0
 10
0.0
 20
0.0
 30
0.0
  3
$MODEL_SPACE
  1

  0
ENDBLK
  5
21
  8
0
  0
BLOCK
 67
     1
  8
0
  2
$PAPER_SPACE
 70
     0
 10
0.0
 20
0.0
 30
0.0
  3
$PAPER_SPACE
  1

  0
ENDBLK
  5
1D
 67
     1
  8
0
  0
BLOCK
  8
0
  2
_FILLED
 70
     0
 10
0.0
 20
0.0
 30
0.0
  3
_FILLED
  1

  0
SOLID
  5
2A961
  8
0
  6
BYBLOCK
 62
     0
 10
0.0
 20
0.0
 30
0.0
 11
-1.0
 21
0.1666666667
 31
0.0
 12
-1.0
 22
-0.1666666667
 32
0.0
 13
-1.0
 23
-0.1666666667
 33
0.0
  0
ENDBLK
  5
2A962
  8
0
  6
BYBLOCK
 62
     0
  0
ENDSEC
  0
SECTION
  2
ENTITIES
  0
ATTDEF
  5
26A5B
  8
DEFPOINTS
 10
5617.0943451230250503
 20
403.3258122909714984
 30
0.0
 40
0.001
  1
P80268-00
  3

  2
MODELNUMBER
 70
     0
1001
ACDBATTR
1070
     0
1070
     1
  0
ATTDEF
  5
26A5C
  8
DEFPOINTS
 10
5617.0942193133678302
 20
403.3241454505923116
 30
0.0
 40
0.001
  1
VIR STIL
  3

  2
TRADENAME
 70
     0
1001
ACDBATTR
1070
     0
1070
     1
  0
ATTDEF
  5
26A5D
  8
DEFPOINTS
 10
5617.0943451230250503
 20
403.3224789576381113
 30
0.0
 40
0.001
  1
ENTERTAINMENT FAUCET
  3

  2
PRODUCT
 70
     0
1001
ACDBATTR
1070
     0
1070
     1
  0
LINE
  5
2B81E
  8
0
 10
5615.9931153532170356
 20
403.3218681098168759
 30
0.0
 11
5618.1951153532172611
 21
403.3218681098168759
 31
0.0
  0
LINE
  5
2B820
  8
0
 10
5615.9931153532170356
 20
403.5658681098169041
 30
0.0
 11
5618.1951153532172611
 21
403.5658681098169041
 31
0.0
  0
LINE
  5
2B822
  8
0
 10
5616.0871153532170865
 20
403.6158681098169723
 30
0.0
 11
5618.1011153532163007
 21
403.6158681098169723
 31
0.0
  0
LINE
  5
2B824
  8
0
 10
5616.1541153532170938
 20
403.6658681098169268
 30
0.0
 11
5618.0341153532181124
 21
403.6658681098169268
 31
0.0
  0
LINE
  5
2B826
  8
0
 10
5615.9831153146951692
 20
403.5558681098169131
 30
0.0
 11
5615.9831153146951692
 21
403.3318681098169804
 31
0.0
  0
LINE
  5
2B827
  8
0
 10
5616.2941153532156022
 20
403.6858681098169086
 30
0.0
 11
5616.2941153532156022
 21
406.7458681098170246
 31
0.0
  0
ARC
  5
2B828
  8
0
 10
5616.2741153532169847
 20
403.6858681098169086
 30
0.0
 40
0.0200000000000009
 50
270.0
 51
0.0
  0
ARC
  5
2B829
  8
0
 10
5615.9931153804536734
 20
403.3318681755762896
 30
0.0
 40
0.0100000657594097
 50
180.000376770967307
 51
269.9998439363369016
  0
ARC
  5
2B82A
  8
0
 10
5615.9931153804536734
 20
403.5558680440574904
 30
0.0
 40
0.0100000657594104
 50
90.0001560636631126
 51
179.9996232290195906
  0
ARC
  5
2B82B
  8
0
 10
5616.0571153532182507
 20
403.5858681098169995
 30
0.0
 40
0.02
 50
270.0
 51
0.0
  0
LINE
  5
2B82C
  8
0
 10
5616.0771153532168682
 20
403.5858681098169995
 30
0.0
 11
5616.0771153532168682
 21
403.6058681098169245
 31
0.0
  0
ARC
  5
2B82D
  8
0
 10
5616.0871153532170865
 20
403.6058681098169245
 30
0.0
 40
0.0099999999999989
 50
90.0
 51
180.0000000000065086
  0
ARC
  5
2B82E
  8
0
 10
5616.1241153532173485
 20
403.6358681098168972
 30
0.0
 40
0.02
 50
270.0
 51
0.0
  0
LINE
  5
2B82F
  8
0
 10
5616.1441153532168755
 20
403.6358681098168972
 30
0.0
 11
5616.1441153532168755
 21
403.6558681098169927
 31
0.0
  0
ARC
  5
2B830
  8
0
 10
5616.1541153461048452
 20
403.6558681169283886
 30
0.0
 40
0.009999992888471
 50
89.999959253882011
 51
180.0000407461016891
  0
LINE
  5
2B831
  8
0
 10
5616.3041153532158205
 20
406.7558681098169018
 30
0.0
 11
5617.8841153532157477
 21
406.7558681098169018
 31
0.0
  0
LINE
  5
2B834
  8
0
 10
5616.4166153532169119
 20
406.8058681098169131
 30
0.0
 11
5617.7716153532155658
 21
406.8058681098169131
 31
0.0
  0
LINE
  5
2B837
  8
0
 10
5616.4816153532146927
 20
406.8558681098169814
 30
0.0
 11
5617.706615353215966
 21
406.8558681098169814
 31
0.0
  0
ARC
  5
2B83A
  8
0
 10
5616.3041153532158205
 20
406.7458681098170246
 30
0.0
 40
0.0099999999999991
 50
90.0
 51
180.0000000000065086
  0
ARC
  5
2B83B
  8
0
 10
5616.3866153532162571
 20
406.7758681098169973
 30
0.0
 40
0.0200000000000003
 50
270.1807867534275829
 51
0.0
  0
LINE
  5
2B83C
  8
0
 10
5616.4066153532157841
 20
406.7758681098169973
 30
0.0
 11
5616.4066153532157841
 21
406.7958681098169222
 31
0.0
  0
ARC
  5
2B83D
  8
0
 10
5616.4166153532169119
 20
406.7958681098169222
 30
0.0
 40
0.0099999999999998
 50
90.0
 51
179.9999999999967031
  0
ARC
  5
2B83E
  8
0
 10
5616.4516153532158569
 20
406.8258681098170086
 30
0.0
 40
0.0199999999999997
 50
270.0
 51
0.0
  0
LINE
  5
2B83F
  8
0
 10
5616.4716153532172029
 20
406.8258681098170086
 30
0.0
 11
5616.4716153532172029
 21
406.8458681098168768
 31
0.0
  0
ARC
  5
2B840
  8
0
 10
5616.4816153532146927
 20
406.8458681098168768
 30
0.0
 40
0.0099999999999998
 50
90.0
 51
179.9999999999967031
  0
LINE
  5
2B841
  8
0
 10
5616.6878653532166936
 20
406.8558681098169814
 30
0.0
 11
5616.6878653532166936
 21
414.9149875268170149
 31
0.0
  0
ARC
  5
2B842
  8
0
 10
5617.0941153532139651
 20
414.9158998619967065
 30
0.0
 40
0.4062510244371327
 50
359.8713283263516018
 51
89.2995948930232828
  0
ARC
  5
2B843
  8
0
 10
5617.0941153532139651
 20
414.9158998619967065
 30
0.0
 40
0.4062510244371327
 50
90.7004051069767314
 51
180.1286716736483129
  0
ARC
  5
2B844
  8
0
 10
5617.8841153532157477
 20
406.7458681098170246
 30
0.0
 40
0.0099999999999992
 50
359.9999999999968168
 51
90.0
  0
LINE
  5
2B845
  8
0
 10
5617.894115353215966
 20
406.7458681098170246
 30
0.0
 11
5617.894115353215966
 21
406.374368513516913
 31
0.0
  0
ARC
  5
2B846
  8
0
 10
5617.9731110339416773
 20
406.374368513516913
 30
0.0
 40
0.0789956807254226
 50
179.9999999999967031
 51
269.3781879575436733
  0
LINE
  5
2B847
  8
0
 10
5617.9722537369161728
 20
406.2953774848169246
 30
0.0
 11
5618.3442597497469251
 21
406.2953670672446833
 31
0.0
  0
LINE
  5
2B848
  8
0
 10
5618.4128721492006662
 20
406.2953651458386162
 30
0.0
 11
5619.1561156051147918
 21
406.2953443322169846
 31
0.0
  0
ARC
  5
2B849
  8
0
 10
5619.1561560331338114
 20
406.2853847615779159
 30
0.0
 40
0.0099596526916466
 50
359.7693375032666836
 51
90.2325744888085097
  0
LINE
  5
2B84A
  8
0
 10
5619.1661156051159196
 20
406.2853446659169094
 30
0.0
 11
5619.1661156051159196
 21
404.8803681098169136
 31
0.0
  0
ARC
  5
2B84B
  8
0
 10
5619.1561156051157013
 20
404.8803681098169136
 30
0.0
 40
0.0099999999999416
 50
269.999999999687418
 51
0.0000000001335324
  0
LINE
  5
2B84C
  8
0
 10
5619.1561156051147918
 20
404.8703681098169795
 30
0.0
 11
5619.1271148128271307
 21
404.8703681098169227
 31
0.0
  0
ARC
  5
2B84D
  8
0
 10
5619.0247533619949536
 20
404.4997624373714871
 30
0.0
 40
0.3844820295735555
 50
74.5598238943795906
 51
105.4401761056187041
  0
LINE
  5
2B84E
  8
0
 10
5618.9223919111645955
 20
404.8703681098169795
 30
0.0
 11
5618.7121727673165879
 21
404.8703681098169795
 31
0.0
  0
ARC
  5
2B84F
  8
0
 10
5618.7122343039336556
 20
404.8804610918768958
 30
0.0
 40
0.0100931696516677
 50
203.3551548515407887
 51
269.6506736274002947
  0
LINE
  5
2B850
  8
0
 10
5618.7029681162166526
 20
404.8764598622169046
 30
0.0
 11
5618.4093957216955459
 21
405.5680730822613782
 31
0.0
  0
ARC
  5
2B851
  8
0
 10
5618.4821156036932734
 20
405.5989408412315811
 30
0.0
 40
0.0789999985767373
 50
179.9999998655817137
 51
203.0000002827864023
  0
LINE
  5
2B852
  8
0
 10
5618.4031156051169091
 20
405.5989408414170043
 30
0.0
 11
5618.4031156067267148
 21
406.285368109817
 31
0.0
  0
ARC
  5
2B853
  8
0
 10
5618.4131156067905977
 20
406.28536810979341
 30
0.0
 40
0.0100000000642231
 50
91.3950470571447369
 51
179.9999998655817137
  0
ARC
  5
2B854
  8
0
 10
5618.3441171258573377
 20
406.2853688440424094
 30
0.0
 40
0.0099982273876738
 50
359.995792452250214
 51
90.009719562048474
  0
LINE
  5
2B855
  8
0
 10
5618.3541153532160024
 20
406.285368109817
 30
0.0
 11
5618.3541153532160024
 21
404.8803681098169136
 31
0.0
  0
ARC
  5
2B856
  8
0
 10
5618.3436796160503945
 20
404.880803846983099
 30
0.0
 40
0.0104448301602882
 50
272.3909577866633072
 51
357.6090422131434252
  0
LINE
  5
2B857
  8
0
 10
5618.3441153532166936
 20
404.8703681098169795
 30
0.0
 11
5617.9731154085111484
 21
404.8703681098169795
 31
0.0
  0
ARC
  5
2B858
  8
0
 10
5617.9765264425795976
 20
404.7879570248784944
 30
0.0
 40
0.0824816468929319
 50
92.3701467406688579
 51
177.6299276026165899
  0
LINE
  5
2B859
  8
0
 10
5617.894115353215966
 20
404.7913679520169126
 30
0.0
 11
5617.894115353215966
 21
403.6858681098169086
 31
0.0
  0
ARC
  5
2B85A
  8
0
 10
5618.2571783453167882
 20
405.5828681098169
 30
0.0
 40
0.6617170096000033
 50
278.4237760453746091
 51
304.7131005796458112
  0
ARC
  5
2B85B
  8
0
 10
5618.2571783453167882
 20
405.5828681098167863
 30
0.0
 40
0.6617170096001227
 50
77.259053781651005
 51
81.5762463389937551
  0
ARC
  5
2B85C
  8
0
 10
5619.1861156051172657
 20
406.1903681098169159
 30
0.0
 40
0.0200000000000023
 50
180.0
 51
270.0
  0
LINE
  5
2B85D
  8
0
 10
5619.1861156051172657
 20
406.1703681098169909
 30
0.0
 11
5619.2261156051172293
 21
406.1703681098169909
 31
0.0
  0
ARC
  5
2B85E
  8
0
 10
5619.2261156051172293
 20
406.1603680697563163
 30
0.0
 40
0.0100000400606648
 50
359.8378204931757978
 51
90.0
  0
LINE
  5
2B85F
  8
0
 10
5619.2361156051147191
 20
406.1603397640170101
 30
0.0
 11
5619.2361156051147191
 21
405.0053681098169136
 31
0.0
  0
ARC
  5
2B860
  8
0
 10
5619.2261156051172293
 20
405.0053681098169136
 30
0.0
 40
0.0099999999999998
 50
270.0
 51
0.0000000000065138
  0
LINE
  5
2B861
  8
0
 10
5619.2261156051172293
 20
404.9953681098169795
 30
0.0
 11
5619.1861156051172657
 21
404.9953681098169795
 31
0.0
  0
ARC
  5
2B862
  8
0
 10
5619.1861156051172657
 20
404.975368109816884
 30
0.0
 40
0.0200000000000014
 50
90.0
 51
179.9999999999967031
  0
ARC
  5
2B863
  8
0
 10
5619.2561156051160651
 20
405.0653681098169159
 30
0.0
 40
0.0200000000000023
 50
90.0
 51
179.9999999999934914
  0
LINE
  5
2B864
  8
0
 10
5619.2561156051160651
 20
405.0853681098168977
 30
0.0
 11
5619.2961156051160287
 21
405.0853681098168977
 31
0.0
  0
ARC
  5
2B865
  8
0
 10
5619.2961156051160287
 20
405.0953681098168886
 30
0.0
 40
0.0100000000000007
 50
270.0
 51
359.9999999999772058
  0
LINE
  5
2B866
  8
0
 10
5619.3061156051171565
 20
405.0953681098168886
 30
0.0
 11
5619.3061156051171565
 21
406.0703347411169943
 31
0.0
  0
ARC
  5
2B867
  8
0
 10
5619.2960821807428147
 20
406.0703347411169943
 30
0.0
 40
0.0100334243735008
 50
359.9999999999805027
 51
89.8091300654826341
  0
LINE
  5
2B868
  8
0
 10
5619.2961156051160287
 20
406.0803681098169022
 30
0.0
 11
5619.2561158270691521
 21
406.0803681098169022
 31
0.0
  0
ARC
  5
2B869
  8
0
 10
5619.2561156051197031
 20
406.1003681098204083
 30
0.0
 40
0.0200000000047314
 50
180.0
 51
270.0006358353645055
  0
LINE
  5
2B86A
  8
0
 10
5619.3061156051171565
 20
405.8328681098170136
 30
0.0
 11
5619.4081155417788978
 21
405.8328681622771796
 31
0.0
  0
ARC
  5
2B86B
  8
0
 10
5619.4081155011472219
 20
405.9118697622753871
 30
0.0
 40
0.0790015999982702
 50
270.0000294681661899
 51
359.9988325939738729
  0
ARC
  5
2B86C
  8
0
 10
1447.7251790103800886
 20
405.9968681312142849
 30
0.0
 40
4171.7619389566898462
 50
359.9988325939738729
 51
0.0011674060260869
  0
LINE
  5
2B86D
  8
0
 10
5619.3061156051171565
 20
405.3328681098170136
 30
0.0
 11
5619.9481104791157122
 21
405.3328681098170136
 31
0.0
  0
ARC
  5
2B86E
  8
0
 10
5619.9481104791157122
 20
405.3718728739510766
 30
0.0
 40
0.0390047641341584
 50
270.0
 51
358.7829403269050772
  0
LINE
  5
2B86F
  8
0
 10
5619.987106443914854
 20
405.3710444088169993
 30
0.0
 11
5619.9871296314886422
 21
406.0818681098169804
 31
0.0
  0
LINE
  5
2B870
  8
0
 10
5620.0171156051173966
 20
406.1308681098170155
 30
0.0
 11
5620.0171156051173966
 21
406.0818681098169804
 31
0.0
  0
LINE
  5
2B871
  8
0
 10
5620.0171156051173966
 20
406.0818681098169804
 30
0.0
 11
5619.4571156051169964
 21
406.0818681098169804
 31
0.0
  0
LINE
  5
2B872
  8
0
 10
5619.4571156051169964
 20
406.0818681098169804
 30
0.0
 11
5619.4571156052170409
 21
406.1308681098170155
 31
0.0
  0
ARC
  5
2B873
  8
0
 10
5619.4366906898321758
 20
406.1308681098586248
 30
0.0
 40
0.0204249153840612
 50
359.9999998830712116
 51
78.2924897113523173
  0
LINE
  5
2B874
  8
0
 10
5619.4246156051149228
 20
408.4638681098168718
 30
0.0
 11
5619.452916004315739
 21
408.4638681098168718
 31
0.0
  0
ARC
  5
2B875
  8
0
 10
5619.452916004315739
 20
408.4814448264208977
 30
0.0
 40
0.0175767166039882
 50
270.0
 51
318.8756843262654002
  0
ARC
  5
2B876
  8
0
 10
5619.4738099385012902
 20
408.4303902746815993
 30
0.0
 40
0.040229204643266
 50
79.0325353045778343
 51
100.9674650846554016
  0
ARC
  5
2B877
  8
0
 10
5619.461881122705563
 20
408.4901382486893908
 30
0.0
 40
0.0281723197758048
 50
291.1751585323285099
 51
314.0349172356815757
  0
LINE
  5
2B878
  8
0
 10
5619.4661562697156114
 20
408.4698847080168775
 30
0.0
 11
5619.4661562697156114
 21
408.4638681098168718
 31
0.0
  0
LINE
  5
2B879
  8
0
 10
5619.4566488095169916
 20
408.4638681098168718
 30
0.0
 11
5619.4874633988156347
 21
408.4638681098168718
 31
0.0
  0
ARC
  5
2B87A
  8
0
 10
5619.4874633988156347
 20
408.4776221749646083
 30
0.0
 40
0.0137540651477015
 50
270.0
 51
325.7670761411786771
  0
ARC
  5
2B87B
  8
0
 10
5619.511009903167178
 20
408.3693797619237102
 30
0.0
 40
0.1012397174009999
 50
83.0928119621630685
 51
96.9071880383091866
  0
LINE
  5
2B87C
  8
0
 10
5619.5018761820156215
 20
408.4638681098168718
 30
0.0
 11
5619.5018761820156215
 21
406.1508681098168836
 31
0.0
  0
LINE
  5
2B87D
  8
0
 10
5619.4988346746149546
 20
408.4698847080168775
 30
0.0
 11
5619.4988346746149546
 21
406.1508681098168836
 31
0.0
  0
LINE
  5
2B87E
  8
0
 10
5619.5018761820156215
 20
408.4638681098168718
 30
0.0
 11
5619.5390297492158425
 21
408.4638681098168718
 31
0.0
  0
ARC
  5
2B87F
  8
0
 10
5619.5380314046742569
 20
408.4746457378399782
 30
0.0
 40
0.0108235051181036
 50
275.2772193194076067
 51
333.9038552953894055
  0
ARC
  5
2B880
  8
0
 10
5619.5099855429325544
 20
408.4800345980190741
 30
0.0
 40
0.0166508081228772
 50
283.8530208034064231
 51
322.4413353798386197
  0
ARC
  5
2B881
  8
0
 10
5619.5703001175388636
 20
408.4738705376831831
 30
0.0
 40
0.010013047242874
 50
272.6390182836897225
 51
336.5428193393371998
  0
ARC
  5
2B882
  8
0
 10
5619.5636185739404027
 20
408.2989314083816907
 30
0.0
 40
0.171688070943185
 50
84.6972648267536385
 51
95.3027197242477939
  0
LINE
  5
2B883
  8
0
 10
5619.5477515311158641
 20
408.4698847080165933
 30
0.0
 11
5619.5477515311158641
 21
406.1508681098168836
 31
0.0
  0
LINE
  5
2B884
  8
0
 10
5619.5314005988157078
 20
408.4638681098168718
 30
0.0
 11
5619.5314005988157078
 21
406.1508681098168836
 31
0.0
  0
LINE
  5
2B885
  8
0
 10
5619.5631347325161187
 20
406.1508681098168836
 30
0.0
 11
5619.5631347325161187
 21
408.4638681098168718
 31
0.0
  0
LINE
  5
2B886
  8
0
 10
5619.5631347325161187
 20
408.4638681098168718
 30
0.0
 11
5619.6040888332172472
 21
408.4638681098168718
 31
0.0
  0
ARC
  5
2B887
  8
0
 10
5619.6016776297774413
 20
408.4715739721182786
 30
0.0
 40
0.0080742935192795
 50
287.3751665445838057
 51
347.9236411040120061
  0
ARC
  5
2B888
  8
0
 10
5619.6280508269674101
 20
408.2379203786356925
 30
0.0
 40
0.2326991006889946
 50
85.4456047689090639
 51
94.5543952310909503
  0
ARC
  5
2B889
  8
0
 10
5619.6409762042567309
 20
408.4672868375620283
 30
0.0
 40
0.00341938826057
 50
271.1261906164377251
 51
305.809158336244991
  0
ARC
  5
2B88A
  8
0
 10
5619.6387081978973583
 20
408.4704304466984013
 30
0.0
 40
0.0072957436691373
 50
305.809158336244991
 51
329.116488766213422
  0
ARC
  5
2B88B
  8
0
 10
5619.6275629957908677
 20
408.4771470884124938
 30
0.0
 40
0.0203083577386056
 50
328.9936544860451022
 51
339.0467858768204792
  0
LINE
  5
2B88C
  8
0
 10
5619.678220274116029
 20
408.4638681098168718
 30
0.0
 11
5619.6362497919162706
 21
408.4638681098168718
 31
0.0
  0
LINE
  5
2B88D
  8
0
 10
5619.6362497919162706
 20
408.4638681098168718
 30
0.0
 11
5619.6362497919162706
 21
406.1508681098168836
 31
0.0
  0
LINE
  5
2B88E
  8
0
 10
5619.6095732363173738
 20
408.4698847080168775
 30
0.0
 11
5619.6095732363173738
 21
406.1508681098168836
 31
0.0
  0
LINE
  5
2B88F
  8
0
 10
5619.599294610616198
 20
408.4638681098168718
 30
0.0
 11
5619.599294610616198
 21
406.1508681098168836
 31
0.0
  0
ARC
  5
2B890
  8
0
 10
5619.6496024571415546
 20
408.4735362936588103
 30
0.0
 40
0.030702211183829
 50
344.130300646980686
 51
353.1693228384550025
  0
ARC
  5
2B891
  8
0
 10
5619.6760864161406062
 20
408.4660072796369832
 30
0.0
 40
0.0031688471248611
 50
324.4804683041655835
 51
344.1303006469743764
  0
ARC
  5
2B892
  8
0
 10
5619.6780480103170703
 20
408.4646070789485748
 30
0.0
 40
0.0007587820463705
 50
283.1220852457354908
 51
324.4804683041630256
  0
ARC
  5
2B893
  8
0
 10
5619.6999156403671805
 20
408.2026959425728023
 30
0.0
 40
0.2679235367520521
 50
85.7556851392724724
 51
94.2443148607275134
  0
ARC
  5
2B894
  8
0
 10
5619.7177799255077844
 20
408.4644881958553242
 30
0.0
 40
0.0006271300529957
 50
278.5956018946603194
 51
324.3357332489118789
  0
ARC
  5
2B895
  8
0
 10
5619.7148395026597427
 20
408.4665983245336065
 30
0.0
 40
0.004246346758189
 50
324.3357332489118789
 51
351.2002173251206045
  0
ARC
  5
2B896
  8
0
 10
5619.6401372074296887
 20
408.4821861214339265
 30
0.0
 40
0.0805521681354931
 50
348.3708452617664193
 51
351.2157821351423763
  0
LINE
  5
2B897
  8
0
 10
5619.7579925205182008
 20
408.4638681098168718
 30
0.0
 11
5619.7162386898162367
 21
408.4638681098168718
 31
0.0
  0
LINE
  5
2B898
  8
0
 10
5619.7162386898162367
 20
408.4638681098168718
 30
0.0
 11
5619.7162386898162367
 21
406.1508681098168836
 31
0.0
  0
LINE
  5
2B899
  8
0
 10
5619.6800867431156803
 20
408.4698847076768971
 30
0.0
 11
5619.6800867431156803
 21
406.1508681098168836
 31
0.0
  0
LINE
  5
2B89A
  8
0
 10
5619.6765808953159649
 20
408.4638681098168718
 30
0.0
 11
5619.6765808953159649
 21
406.1508681098168836
 31
0.0
  0
LINE
  5
2B89B
  8
0
 10
5619.4571156051169964
 20
408.5358681098169882
 30
0.0
 11
5619.4571156052170409
 21
408.4838681098553934
 31
0.0
  0
ARC
  5
2B89C
  8
0
 10
5619.4371156052166043
 20
408.4838681098169104
 30
0.0
 40
0.0200000000000005
 50
270.0
 51
0.0000001101837777
  0
LINE
  5
2B89D
  8
0
 10
5619.4246156051149228
 20
408.4638681098168718
 30
0.0
 11
5619.4246156051149228
 21
406.1508681098168836
 31
0.0
  0
LINE
  5
2B89E
  8
0
 10
5619.4305347856170556
 20
408.4638681098168718
 30
0.0
 11
5619.4305347856170556
 21
406.1508681098168836
 31
0.0
  0
LINE
  5
2B89F
  8
0
 10
5619.4413414722166635
 20
408.4638681098168718
 30
0.0
 11
5619.4413414722166635
 21
406.1508681098168836
 31
0.0
  0
LINE
  5
2B8A0
  8
0
 10
5619.4566488095169916
 20
408.4638681098168718
 30
0.0
 11
5619.4566488095169916
 21
406.1508681098168836
 31
0.0
  0
LINE
  5
2B8A1
  8
0
 10
5619.4775257248165872
 20
408.4638681098168718
 30
0.0
 11
5619.4775257248165872
 21
406.1508681098168836
 31
0.0
  0
ARC
  5
2B8A2
  8
0
 10
5619.4418048501411249
 20
408.4866732531494904
 30
0.0
 40
0.0229800694954315
 50
277.0740027107382275
 51
296.1794680233555823
  0
ARC
  5
2B8A3
  8
0
 10
5619.4438028898239281
 20
408.4826090245134083
 30
0.0
 40
0.01845125983052
 50
296.1794680233555823
 51
316.3581843575415178
  0
ARC
  5
2B8A4
  8
0
 10
5619.4371132252799725
 20
408.4866410058064048
 30
0.0
 40
0.0228327792995044
 50
274.1505543372679767
 51
283.9753669644629213
  0
ARC
  5
2B8A5
  8
0
 10
5619.4380640151130137
 20
408.4828205996010979
 30
0.0
 40
0.0188958382432977
 50
283.9753669644629213
 51
300.0531091484456283
  0
ARC
  5
2B8A6
  8
0
 10
5619.4370871644778163
 20
408.4845089384483003
 30
0.0
 40
0.0208464087300046
 50
300.0531091484456283
 51
315.4506953967999152
  0
ARC
  5
2B8A7
  8
0
 10
5619.4545414677613735
 20
408.4656585492535896
 30
0.0
 40
0.0049609388730604
 50
58.2024501402062029
 51
121.5825078769851046
  0
LINE
  5
2B8A8
  8
0
 10
5619.4519432958168181
 20
408.4698847078303743
 30
0.0
 11
5619.4519432958168181
 21
408.4660505590169919
 31
0.0
  0
LINE
  5
2B8A9
  8
0
 10
5619.4571156051169964
 20
408.5358681098169882
 30
0.0
 11
5620.0170500210169848
 21
408.5358681098169882
 31
0.0
  0
LINE
  5
2B8AA
  8
0
 10
5619.4246156051149228
 20
406.1508681098168836
 30
0.0
 11
5619.452916004315739
 21
406.1508681098168836
 31
0.0
  0
ARC
  5
2B8AB
  8
0
 10
5619.452916004315739
 20
406.1332913932130282
 30
0.0
 40
0.0175767166039882
 50
41.1243156737345785
 51
90.0
  0
ARC
  5
2B8AC
  8
0
 10
5619.4738099384967427
 20
406.18333399196149
 30
0.0
 40
0.0392362069430408
 50
258.7513928006246147
 51
281.2486068107230039
  0
ARC
  5
2B8AD
  8
0
 10
5619.461881122705563
 20
406.1245979709444214
 30
0.0
 40
0.0281723197758048
 50
45.9650827643184385
 51
68.8248414676715043
  0
LINE
  5
2B8AE
  8
0
 10
5619.4661562697156114
 20
406.1448515116168778
 30
0.0
 11
5619.4661562697156114
 21
406.1508681098168836
 31
0.0
  0
LINE
  5
2B8AF
  8
0
 10
5619.4566488095169916
 20
406.1508681098168836
 30
0.0
 11
5619.4874633988156347
 21
406.1508681098168836
 31
0.0
  0
ARC
  5
2B8B0
  8
0
 10
5619.4874633988156347
 20
406.1371140446692038
 30
0.0
 40
0.0137540651477015
 50
34.2329238588213229
 51
90.0
  0
ARC
  5
2B8B1
  8
0
 10
5619.511009903167178
 20
406.2428101739233171
 30
0.0
 40
0.0987123888429834
 50
262.9150721687930172
 51
277.084927830944423
  0
LINE
  5
2B8B2
  8
0
 10
5619.5018761820156215
 20
406.1508681098168836
 30
0.0
 11
5619.5390297492158425
 21
406.1508681098168836
 31
0.0
  0
ARC
  5
2B8B3
  8
0
 10
5619.5380314046742569
 20
406.1400904817940045
 30
0.0
 40
0.0108235051181036
 50
26.0961447046106301
 51
84.7227806805922938
  0
ARC
  5
2B8B4
  8
0
 10
5619.5099855429325544
 20
406.1347016216147949
 30
0.0
 40
0.0166508081228772
 50
37.55866462016143
 51
76.1469791965935627
  0
ARC
  5
2B8B5
  8
0
 10
5619.5703001175388636
 20
406.1408656819506859
 30
0.0
 40
0.010013047242874
 50
23.4571806606628392
 51
87.360981716310306
  0
ARC
  5
2B8B6
  8
0
 10
5619.5636185739404027
 20
406.315804811252292
 30
0.0
 40
0.171688070943185
 50
264.6972802757522913
 51
275.3027351732463899
  0
LINE
  5
2B8B7
  8
0
 10
5619.5631347325161187
 20
406.1508681098168836
 30
0.0
 11
5619.6040888332172472
 21
406.1508681098168836
 31
0.0
  0
ARC
  5
2B8B8
  8
0
 10
5619.6016776297774413
 20
406.1431622475155905
 30
0.0
 40
0.0080742935192795
 50
12.0763588959879602
 51
72.6248334554162085
  0
ARC
  5
2B8B9
  8
0
 10
5619.6280508269674101
 20
406.3803674913561963
 30
0.0
 40
0.2362397046831023
 50
265.5140039160069136
 51
274.4859960839932
  0
ARC
  5
2B8BA
  8
0
 10
5619.6409762042567309
 20
406.1474493820718976
 30
0.0
 40
0.00341938826057
 50
54.1908416637550232
 51
88.8738093835622749
  0
ARC
  5
2B8BB
  8
0
 10
5619.6387081978973583
 20
406.1443057729354109
 30
0.0
 40
0.0072957436691373
 50
30.8835112337865603
 51
54.1908416637550232
  0
ARC
  5
2B8BC
  8
0
 10
5619.6275629957908677
 20
406.137589131221489
 30
0.0
 40
0.0203083577386056
 50
20.9532141231794604
 51
31.0063455139548694
  0
LINE
  5
2B8BD
  8
0
 10
5619.678220274116029
 20
406.1508681098168836
 30
0.0
 11
5619.6362497919162706
 21
406.1508681098168836
 31
0.0
  0
ARC
  5
2B8BE
  8
0
 10
5619.6496024571415546
 20
406.1411999259751155
 30
0.0
 40
0.030702211183829
 50
6.8306771615449904
 51
15.86969935301933
  0
ARC
  5
2B8BF
  8
0
 10
5619.6760864161406062
 20
406.1487289399968859
 30
0.0
 40
0.0031688471248611
 50
15.8696993530256005
 51
35.5195316958343668
  0
ARC
  5
2B8C0
  8
0
 10
5619.6780480103170703
 20
406.1501291406854079
 30
0.0
 40
0.0007587820463705
 50
35.5195316958370313
 51
76.8779147542645376
  0
ARC
  5
2B8C1
  8
0
 10
5619.6999156403671805
 20
406.4116288337156107
 30
0.0
 40
0.26751322350915
 50
265.7491632244473863
 51
274.2508367755525001
  0
ARC
  5
2B8C2
  8
0
 10
5619.7177799255077844
 20
406.1502480237786017
 30
0.0
 40
0.0006271300529957
 50
35.6642667510880784
 51
81.4043981053397232
  0
ARC
  5
2B8C3
  8
0
 10
5619.7148395026597427
 20
406.1481378951003194
 30
0.0
 40
0.004246346758189
 50
8.7997826748793617
 51
35.6642667510880784
  0
ARC
  5
2B8C4
  8
0
 10
5619.6401372074296887
 20
406.1325500981999994
 30
0.0
 40
0.0805521681354931
 50
8.7842178648575526
 51
11.6291547382335505
  0
LINE
  5
2B8C5
  8
0
 10
5619.7579925205182008
 20
406.1508681098168836
 30
0.0
 11
5619.7162386898162367
 21
406.1508681098168836
 31
0.0
  0
ARC
  5
2B8C6
  8
0
 10
5619.4371156052166043
 20
406.1308681098170155
 30
0.0
 40
0.0200000000000005
 50
359.9999998898161948
 51
90.0
  0
ARC
  5
2B8C7
  8
0
 10
5619.4418048501411249
 20
406.1280629664843786
 30
0.0
 40
0.0229800694954315
 50
63.8205319766443893
 51
82.9259972892617725
  0
ARC
  5
2B8C8
  8
0
 10
5619.4438028898239281
 20
406.1321271951205176
 30
0.0
 40
0.01845125983052
 50
43.6418156424584467
 51
63.8205319766443893
  0
ARC
  5
2B8C9
  8
0
 10
5619.4371132252799725
 20
406.1280952138274074
 30
0.0
 40
0.0228327792995044
 50
76.0246330355371498
 51
85.8494456627319238
  0
ARC
  5
2B8CA
  8
0
 10
5619.4380640151130137
 20
406.131915620032828
 30
0.0
 40
0.0188958382432977
 50
59.9468908515544499
 51
76.0246330355371498
  0
ARC
  5
2B8CB
  8
0
 10
5619.4370871644778163
 20
406.1302272811856824
 30
0.0
 40
0.0208464087300046
 50
44.549304603200099
 51
59.9468908515544499
  0
ARC
  5
2B8CC
  8
0
 10
5619.4545417009030643
 20
406.1489534337384839
 30
0.0
 40
0.0048556640399935
 50
237.6473614176262004
 51
302.5676805728163004
  0
LINE
  5
2B8CD
  8
0
 10
5619.4519432958168181
 20
406.1448515118034948
 30
0.0
 11
5619.4519432958168181
 21
406.1486856606169908
 31
0.0
  0
ARC
  5
2B8CE
  8
0
 10
5620.0375405205022616
 20
406.1308681098586248
 30
0.0
 40
0.0204249153840612
 50
101.7075102886476969
 51
180.0000001169287032
  0
LINE
  5
2B8CF
  8
0
 10
5620.0496155665960032
 20
408.4638681098168718
 30
0.0
 11
5620.0213152060168795
 21
408.4638681098168718
 31
0.0
  0
ARC
  5
2B8D0
  8
0
 10
5620.0213152060168795
 20
408.4814448264208977
 30
0.0
 40
0.0175767166039882
 50
221.1243156737345998
 51
270.0
  0
ARC
  5
2B8D1
  8
0
 10
5620.0004212718340568
 20
408.4303902746815993
 30
0.0
 40
0.0402292046431875
 50
79.0325349166182036
 51
100.9674646966957994
  0
ARC
  5
2B8D2
  8
0
 10
5620.0123500876270555
 20
408.4901382486893908
 30
0.0
 40
0.0281723197758048
 50
225.9650827643183959
 51
248.8248414676714901
  0
LINE
  5
2B8D3
  8
0
 10
5620.0080749406170071
 20
408.4698847080168775
 30
0.0
 11
5620.0080749406170071
 21
408.4638681098168718
 31
0.0
  0
LINE
  5
2B8D4
  8
0
 10
5620.0175824008174459
 20
408.4638681098168718
 30
0.0
 11
5619.9867678115169838
 21
408.4638681098168718
 31
0.0
  0
ARC
  5
2B8D5
  8
0
 10
5619.9867678115169838
 20
408.4776221749646083
 30
0.0
 40
0.0137540651477015
 50
214.2329238588212945
 51
270.0
  0
ARC
  5
2B8D6
  8
0
 10
5619.9632213071654405
 20
408.3693797619299062
 30
0.0
 40
0.1012397173950113
 50
83.0928119607459337
 51
96.9071880377319133
  0
LINE
  5
2B8D7
  8
0
 10
5619.9723550283160876
 20
408.4638681098168718
 30
0.0
 11
5619.9723550283160876
 21
406.1508681098168836
 31
0.0
  0
LINE
  5
2B8D8
  8
0
 10
5619.9753965357158449
 20
408.4698847080168775
 30
0.0
 11
5619.9753965357158449
 21
406.1508681098168836
 31
0.0
  0
LINE
  5
2B8D9
  8
0
 10
5619.9723550283160876
 20
408.4638681098168718
 30
0.0
 11
5619.9352014611158666
 21
408.4638681098168718
 31
0.0
  0
ARC
  5
2B8DA
  8
0
 10
5619.9361998056601806
 20
408.4746457378399782
 30
0.0
 40
0.0108235051181036
 50
206.0961447046105945
 51
264.7227806805922796
  0
ARC
  5
2B8DB
  8
0
 10
5619.9642456674009736
 20
408.4800345980190741
 30
0.0
 40
0.0166508081228772
 50
217.5586646201614087
 51
256.1469791965935769
  0
ARC
  5
2B8DC
  8
0
 10
5619.9039310927946644
 20
408.4738705376831831
 30
0.0
 40
0.010013047242874
 50
203.4571806606629139
 51
267.3609817163102775
  0
ARC
  5
2B8DD
  8
0
 10
5619.9106126363922158
 20
408.2989314083816907
 30
0.0
 40
0.171688070943185
 50
84.6972802757522061
 51
95.3027351732463472
  0
LINE
  5
2B8DE
  8
0
 10
5619.9264796792149355
 20
408.4698847080165933
 30
0.0
 11
5619.9264796792149355
 21
406.1508681098168836
 31
0.0
  0
LINE
  5
2B8DF
  8
0
 10
5619.9428306115169107
 20
408.4638681098168718
 30
0.0
 11
5619.9428306115169107
 21
406.1508681098168836
 31
0.0
  0
LINE
  5
2B8E0
  8
0
 10
5619.9110964778155903
 20
406.1508681098168836
 30
0.0
 11
5619.9110964778155903
 21
408.4638681098168718
 31
0.0
  0
LINE
  5
2B8E1
  8
0
 10
5619.9110964778155903
 20
408.4638681098168718
 30
0.0
 11
5619.8701423771162808
 21
408.4638681098168718
 31
0.0
  0
ARC
  5
2B8E2
  8
0
 10
5619.8725535805569962
 20
408.4715739721182786
 30
0.0
 40
0.0080742935192795
 50
192.0763588959879087
 51
252.6248334554161943
  0
ARC
  5
2B8E3
  8
0
 10
5619.8461803833670274
 20
408.2379203786604194
 30
0.0
 40
0.2326991006645158
 50
85.4456047684386846
 51
94.5543952315613296
  0
ARC
  5
2B8E4
  8
0
 10
5619.8332550060740687
 20
408.4672868375620283
 30
0.0
 40
0.00341938826057
 50
234.190841663755009
 51
268.8738093835622749
  0
ARC
  5
2B8E5
  8
0
 10
5619.8355230124370792
 20
408.4704304466984013
 30
0.0
 40
0.0072957436691373
 50
210.8835112337866065
 51
234.190841663755009
  0
ARC
  5
2B8E6
  8
0
 10
5619.8466682145426603
 20
408.4771470884124938
 30
0.0
 40
0.0203083577386056
 50
200.9532141231794924
 51
211.0063455139548125
  0
LINE
  5
2B8E7
  8
0
 10
5619.79601093621568
 20
408.4638681098168718
 30
0.0
 11
5619.8379814184172574
 21
408.4638681098168718
 31
0.0
  0
LINE
  5
2B8E8
  8
0
 10
5619.8379814184172574
 20
408.4638681098168718
 30
0.0
 11
5619.8379814184172574
 21
406.1508681098168836
 31
0.0
  0
LINE
  5
2B8E9
  8
0
 10
5619.8646579740161542
 20
408.4698847080168775
 30
0.0
 11
5619.8646579740161542
 21
406.1508681098168836
 31
0.0
  0
LINE
  5
2B8EA
  8
0
 10
5619.8749365997182394
 20
408.4638681098168718
 30
0.0
 11
5619.8749365997182394
 21
406.1508681098168836
 31
0.0
  0
ARC
  5
2B8EB
  8
0
 10
5619.8246287531910639
 20
408.4735362936588103
 30
0.0
 40
0.030702211183829
 50
186.8306771615449975
 51
195.869699353019314
  0
ARC
  5
2B8EC
  8
0
 10
5619.7981447941920123
 20
408.4660072796369832
 30
0.0
 40
0.0031688471248611
 50
195.8696993530255952
 51
215.5195316958343028
  0
ARC
  5
2B8ED
  8
0
 10
5619.7961832000146387
 20
408.4646070789485748
 30
0.0
 40
0.0007587820463705
 50
215.5195316958370029
 51
256.8779147542645092
  0
ARC
  5
2B8EE
  8
0
 10
5619.7743155699663475
 20
408.2026959425728023
 30
0.0
 40
0.2679235367520521
 50
85.7556851392724724
 51
94.2443148607275134
  0
ARC
  5
2B8EF
  8
0
 10
5619.7564512848257436
 20
408.4644881958553242
 30
0.0
 40
0.0006271300529957
 50
215.6642667510880074
 51
261.4043981053392258
  0
ARC
  5
2B8F0
  8
0
 10
5619.7593917076737853
 20
408.4665983245336065
 30
0.0
 40
0.004246346758189
 50
188.7997826748793102
 51
215.6642667510880074
  0
ARC
  5
2B8F1
  8
0
 10
5619.8340940029029298
 20
408.4821861214339265
 30
0.0
 40
0.0805521681354931
 50
188.78421786485751
 51
191.6291547382334954
  0
LINE
  5
2B8F2
  8
0
 10
5619.7579925205182008
 20
408.4638681098168718
 30
0.0
 11
5619.7579925205182008
 21
406.1508681098168836
 31
0.0
  0
LINE
  5
2B8F3
  8
0
 10
5619.7941444672160287
 20
408.4698847076768971
 30
0.0
 11
5619.7941444672160287
 21
406.1508681098168836
 31
0.0
  0
LINE
  5
2B8F4
  8
0
 10
5619.7976503150166536
 20
408.4638681098168718
 30
0.0
 11
5619.7976503150166536
 21
406.1508681098168836
 31
0.0
  0
ARC
  5
2B8F5
  8
0
 10
5620.0371156051169237
 20
408.4838681098169104
 30
0.0
 40
0.0200000000000005
 50
179.9999998898161948
 51
270.0
  0
LINE
  5
2B8F6
  8
0
 10
5620.0496155665960032
 20
408.4638681098168718
 30
0.0
 11
5620.0496155665960032
 21
406.1508681098168836
 31
0.0
  0
LINE
  5
2B8F7
  8
0
 10
5620.0436964247155629
 20
408.4638681098168718
 30
0.0
 11
5620.0436964247155629
 21
406.1508681098168836
 31
0.0
  0
LINE
  5
2B8F8
  8
0
 10
5620.0328897381168645
 20
408.4638681098168718
 30
0.0
 11
5620.0328897381168645
 21
406.1508681098168836
 31
0.0
  0
LINE
  5
2B8F9
  8
0
 10
5620.0175824008174459
 20
408.4638681098168718
 30
0.0
 11
5620.0175824008174459
 21
406.1508681098168836
 31
0.0
  0
LINE
  5
2B8FA
  8
0
 10
5619.9967054855169408
 20
408.4638681098168718
 30
0.0
 11
5619.9967054855169408
 21
406.1508681098168836
 31
0.0
  0
ARC
  5
2B8FB
  8
0
 10
5620.0324263601933126
 20
408.4866732531494904
 30
0.0
 40
0.0229800694954315
 50
243.8205319766443893
 51
262.9259972892617157
  0
ARC
  5
2B8FC
  8
0
 10
5620.0304283205095999
 20
408.4826090245134083
 30
0.0
 40
0.01845125983052
 50
223.641815642458397
 51
243.8205319766443893
  0
ARC
  5
2B8FD
  8
0
 10
5620.037117985052646
 20
408.4866410058064048
 30
0.0
 40
0.0228327792995044
 50
256.0246330355370787
 51
265.8494456627320233
  0
ARC
  5
2B8FE
  8
0
 10
5620.0361671952196048
 20
408.4828205996010979
 30
0.0
 40
0.0188958382432977
 50
239.9468908515544001
 51
256.0246330355370787
  0
ARC
  5
2B8FF
  8
0
 10
5620.0371440458529833
 20
408.4845089384483003
 30
0.0
 40
0.0208464087300046
 50
224.5493046032001132
 51
239.9468908515544001
  0
ARC
  5
2B900
  8
0
 10
5620.0196897425721545
 20
408.4656585484671041
 30
0.0
 40
0.004960939543015
 50
58.41749688952941
 51
121.7975450804411963
  0
LINE
  5
2B901
  8
0
 10
5620.0222879145158004
 20
408.4698847078303743
 30
0.0
 11
5620.0222879145158004
 21
408.4660505590169919
 31
0.0
  0
LINE
  5
2B902
  8
0
 10
5620.0496155665960032
 20
406.1508681098168836
 30
0.0
 11
5620.0213152060168795
 21
406.1508681098168836
 31
0.0
  0
ARC
  5
2B903
  8
0
 10
5620.0213152060168795
 20
406.1332913932130282
 30
0.0
 40
0.0175767166039882
 50
90.0
 51
138.8756843262654002
  0
ARC
  5
2B904
  8
0
 10
5620.0004212718358758
 20
406.18333399196149
 30
0.0
 40
0.0392362069430408
 50
258.7513931892763139
 51
281.2486071993753853
  0
ARC
  5
2B905
  8
0
 10
5620.0123500876270555
 20
406.1245979709444214
 30
0.0
 40
0.0281723197758048
 50
111.1751585323284957
 51
134.0349172356814904
  0
LINE
  5
2B906
  8
0
 10
5620.0080749406170071
 20
406.1448515116168778
 30
0.0
 11
5620.0080749406170071
 21
406.1508681098168836
 31
0.0
  0
LINE
  5
2B907
  8
0
 10
5620.0175824008174459
 20
406.1508681098168836
 30
0.0
 11
5619.9867678115169838
 21
406.1508681098168836
 31
0.0
  0
ARC
  5
2B908
  8
0
 10
5619.9867678115169838
 20
406.1371140446692038
 30
0.0
 40
0.0137540651477015
 50
90.0
 51
145.7670761411787055
  0
ARC
  5
2B909
  8
0
 10
5619.9632213071654405
 20
406.2428101739233171
 30
0.0
 40
0.0987123888429834
 50
262.9150721690555201
 51
277.0849278312069828
  0
LINE
  5
2B90A
  8
0
 10
5619.9723550283160876
 20
406.1508681098168836
 30
0.0
 11
5619.9352014611158666
 21
406.1508681098168836
 31
0.0
  0
ARC
  5
2B90B
  8
0
 10
5619.9361998056601806
 20
406.1400904817940045
 30
0.0
 40
0.0108235051181036
 50
95.277219319407692
 51
153.9038552953894055
  0
ARC
  5
2B90C
  8
0
 10
5619.9642456674009736
 20
406.1347016216147949
 30
0.0
 40
0.0166508081228772
 50
103.8530208034063946
 51
142.4413353798385913
  0
ARC
  5
2B90D
  8
0
 10
5619.9039310927946644
 20
406.1408656819506859
 30
0.0
 40
0.010013047242874
 50
92.639018283689694
 51
156.5428193393370861
  0
ARC
  5
2B90E
  8
0
 10
5619.9106126363922158
 20
406.315804811252292
 30
0.0
 40
0.171688070943185
 50
264.6972648267536101
 51
275.3027197242478223
  0
LINE
  5
2B90F
  8
0
 10
5619.9110964778155903
 20
406.1508681098168836
 30
0.0
 11
5619.8701423771162808
 21
406.1508681098168836
 31
0.0
  0
ARC
  5
2B910
  8
0
 10
5619.8725535805569962
 20
406.1431622475155905
 30
0.0
 40
0.0080742935192795
 50
107.3751665445838057
 51
167.9236411040120061
  0
ARC
  5
2B911
  8
0
 10
5619.8461803833670274
 20
406.3803674913561963
 30
0.0
 40
0.2362397046831023
 50
265.5140039160069136
 51
274.4859960839932
  0
ARC
  5
2B912
  8
0
 10
5619.8332550060740687
 20
406.1474493820718976
 30
0.0
 40
0.00341938826057
 50
91.1261906164377251
 51
125.8091583362449057
  0
ARC
  5
2B913
  8
0
 10
5619.8355230124370792
 20
406.1443057729354109
 30
0.0
 40
0.0072957436691373
 50
125.8091583362449057
 51
149.1164887662133935
  0
ARC
  5
2B914
  8
0
 10
5619.8466682145426603
 20
406.137589131221489
 30
0.0
 40
0.0203083577386056
 50
148.9936544860451022
 51
159.0467858768205076
  0
LINE
  5
2B915
  8
0
 10
5619.79601093621568
 20
406.1508681098168836
 30
0.0
 11
5619.8379814184172574
 21
406.1508681098168836
 31
0.0
  0
ARC
  5
2B916
  8
0
 10
5619.8246287531910639
 20
406.1411999259751155
 30
0.0
 40
0.030702211183829
 50
164.130300646980686
 51
173.1693228384550025
  0
ARC
  5
2B917
  8
0
 10
5619.7981447941920123
 20
406.1487289399968859
 30
0.0
 40
0.0031688471248611
 50
144.4804683041656119
 51
164.1303006469744048
  0
ARC
  5
2B918
  8
0
 10
5619.7961832000146387
 20
406.1501291406854079
 30
0.0
 40
0.0007587820463705
 50
103.1220852457354056
 51
144.4804683041629971
  0
ARC
  5
2B919
  8
0
 10
5619.7743155699663475
 20
406.4116288337156107
 30
0.0
 40
0.26751322350915
 50
265.7491632244473863
 51
274.2508367755525001
  0
ARC
  5
2B91A
  8
0
 10
5619.7564512848257436
 20
406.1502480237786017
 30
0.0
 40
0.0006271300529957
 50
98.5956018946602626
 51
144.3357332489119074
  0
ARC
  5
2B91B
  8
0
 10
5619.7593917076737853
 20
406.1481378951003194
 30
0.0
 40
0.004246346758189
 50
144.3357332489119074
 51
171.2002173251206898
  0
ARC
  5
2B91C
  8
0
 10
5619.8340940029029298
 20
406.1325500981999994
 30
0.0
 40
0.0805521681354931
 50
168.3708452617665046
 51
171.2157821351424047
  0
ARC
  5
2B91D
  8
0
 10
5620.0371156051169237
 20
406.1308681098170155
 30
0.0
 40
0.0200000000000005
 50
90.0
 51
180.0000001101836915
  0
ARC
  5
2B91E
  8
0
 10
5620.0324263601933126
 20
406.1280629664843786
 30
0.0
 40
0.0229800694954315
 50
97.0740027107382417
 51
116.1794680233555965
  0
ARC
  5
2B91F
  8
0
 10
5620.0304283205095999
 20
406.1321271951205176
 30
0.0
 40
0.01845125983052
 50
116.1794680233555965
 51
136.3581843575414894
  0
ARC
  5
2B920
  8
0
 10
5620.037117985052646
 20
406.1280952138274074
 30
0.0
 40
0.0228327792995044
 50
94.1505543372680762
 51
103.9753669644627934
  0
ARC
  5
2B921
  8
0
 10
5620.0361671952196048
 20
406.131915620032828
 30
0.0
 40
0.0188958382432977
 50
103.9753669644627934
 51
120.0531091484455004
  0
ARC
  5
2B922
  8
0
 10
5620.0371440458529833
 20
406.1302272811856824
 30
0.0
 40
0.0208464087300046
 50
120.0531091484455004
 51
135.4506953967998868
  0
ARC
  5
2B923
  8
0
 10
5620.0196895094286447
 20
406.1489534337384839
 30
0.0
 40
0.0048556640399935
 50
237.4323194271836996
 51
302.3526385823737996
  0
LINE
  5
2B924
  8
0
 10
5620.0222879145158004
 20
406.1448515118034948
 30
0.0
 11
5620.0222879145158004
 21
406.1486856606169908
 31
0.0
  0
LINE
  5
2B925
  8
0
 10
5620.0170500210169848
 20
408.4838681098169104
 30
0.0
 11
5620.0170500210169848
 21
408.5358681098169882
 31
0.0
  0
LINE
  5
2B926
  8
0
 10
5619.4639775134910451
 20
405.856006640458304
 30
0.0
 11
5619.9739240257931669
 21
405.3426319363268249
 31
0.0
  0
ARC
  5
2B927
  8
0
 10
5623.7979709098490275
 20
400.4596362456042016
 30
0.0
 40
8.2452841473002412
 50
134.9465715952104006
 51
136.2537337407777045
  0
ARC
  5
2B928
  8
0
 10
5620.3601591872502468
 20
403.750195715617906
 30
0.0
 40
3.4864680061021822
 50
136.2537337407777045
 51
142.6027129004980054
  0
ARC
  5
2B929
  8
0
 10
5618.1043722734229959
 20
405.474705801511675
 30
0.0
 40
0.6470121362318607
 50
142.6027129004980054
 51
158.0481038635898017
  0
ARC
  5
2B92A
  8
0
 10
5617.8365495733742137
 20
405.5826517238369888
 30
0.0
 40
0.3582538968548335
 50
158.0481038635898017
 51
205.2262089295938097
  0
ARC
  5
2B92B
  8
0
 10
5621.91403490382163
 20
408.8374318560988741
 30
0.0
 40
5.5918191347343402
 50
220.2371001294557971
 51
225.1894224780014042
  0
ARC
  5
2B92C
  8
0
 10
5618.3854320395203104
 20
405.8516125747556771
 30
0.0
 40
0.9694653020216678
 50
205.7806206536442062
 51
220.2371001296176019
  0
LINE
  5
2B92D
  8
0
 10
5618.2051153532156604
 20
403.5558681098169131
 30
0.0
 11
5618.2051153532156604
 21
403.3318681098169804
 31
0.0
  0
ARC
  5
2B92E
  8
0
 10
5617.9141153532164026
 20
403.6858681098169086
 30
0.0
 40
0.0200000000000009
 50
180.0
 51
270.0
  0
ARC
  5
2B92F
  8
0
 10
5618.1951153532172611
 20
403.3318681098169804
 30
0.0
 40
0.0100000000000007
 50
270.0
 51
0.0
  0
ARC
  5
2B930
  8
0
 10
5618.1951153532172611
 20
403.5558681098169131
 30
0.0
 40
0.0099999999999993
 50
359.9999999999968168
 51
90.0
  0
ARC
  5
2B931
  8
0
 10
5618.1311153532169556
 20
403.5858681098169995
 30
0.0
 40
0.02
 50
180.0
 51
270.0
  0
LINE
  5
2B932
  8
0
 10
5618.1111153532156095
 20
403.5858681098169995
 30
0.0
 11
5618.1111153532156095
 21
403.6058681098169245
 31
0.0
  0
ARC
  5
2B933
  8
0
 10
5618.1011153532163007
 20
403.6058681098169245
 30
0.0
 40
0.0099999999999989
 50
359.9999999999935199
 51
90.0
  0
ARC
  5
2B934
  8
0
 10
5618.0641153532169483
 20
403.6358681098168972
 30
0.0
 40
0.02
 50
180.0
 51
270.0
  0
LINE
  5
2B935
  8
0
 10
5618.0441153532156022
 20
403.6358681098168972
 30
0.0
 11
5618.0441153532156022
 21
403.6558681098169927
 31
0.0
  0
ARC
  5
2B936
  8
0
 10
5618.0341153603276325
 20
403.6558681169283886
 30
0.0
 40
0.009999992888471
 50
359.9999592538982824
 51
90.000040746117989
  0
ARC
  5
2B937
  8
0
 10
5617.8016153532171302
 20
406.7758681098169973
 30
0.0
 40
0.0200000000000003
 50
180.0
 51
269.8192132465724171
  0
LINE
  5
2B938
  8
0
 10
5617.7816153532166936
 20
406.7758681098169973
 30
0.0
 11
5617.7816153532166936
 21
406.7958681098169222
 31
0.0
  0
ARC
  5
2B939
  8
0
 10
5617.7716153532155658
 20
406.7958681098169222
 30
0.0
 40
0.0099999999999998
 50
0.0000000000032569
 51
90.0
  0
ARC
  5
2B93A
  8
0
 10
5617.7366153532166209
 20
406.8258681098170086
 30
0.0
 40
0.0199999999999997
 50
180.0
 51
270.0
  0
LINE
  5
2B93B
  8
0
 10
5617.7166153532161843
 20
406.8258681098170086
 30
0.0
 11
5617.7166153532161843
 21
406.8458681098168768
 31
0.0
  0
ARC
  5
2B93C
  8
0
 10
5617.706615353215966
 20
406.8458681098168768
 30
0.0
 40
0.0099999999999998
 50
0.0000000000032569
 51
90.0
  0
LINE
  5
2B93D
  8
0
 10
5617.5003653532157841
 20
406.8558681098169814
 30
0.0
 11
5617.5003653532157841
 21
414.9149875268170149
 31
0.0
  0
LINE
  5
2B93E
  8
0
 10
5616.719107505534339
 20
411.1844812550738766
 30
0.0
 11
5616.7191153535950434
 21
411.1539752258921112
 31
0.0
  0
ARC
  5
2B93F
  8
0
 10
5616.7300657419082199
 20
411.1539493768946727
 30
0.0
 40
0.0109486310404882
 50
179.8493426830600868
 51
212.1365299172597929
  0
ARC
  5
2B940
  8
0
 10
5616.7320046325594376
 20
411.1551673640096283
 30
0.0
 40
0.0132383449031062
 50
212.1365299172597929
 51
244.2304006011682134
  0
ARC
  5
2B941
  8
0
 10
5616.742921208982807
 20
411.1777799983548789
 30
0.0
 40
0.0383481611682088
 50
244.2304006011682134
 51
254.4034302372186005
  0
ARC
  5
2B942
  8
0
 10
5616.7912412441528431
 20
411.4002721663625266
 30
0.0
 40
0.2659709880603487
 50
257.265175415215424
 51
265.3344250331497278
  0
ARC
  5
2B943
  8
0
 10
5616.9180669538145594
 20
412.7426439285025026
 30
0.0
 40
1.614302500045131
 50
264.7233243709520139
 51
267.5306045382324101
  0
ARC
  5
2B944
  8
0
 10
5616.8649424264358458
 20
410.7580528444200922
 30
0.0
 40
0.3952025575567276
 50
94.8804091527189541
 51
96.7841253202132776
  0
ARC
  5
2B945
  8
0
 10
5616.849200208162074
 20
410.8903828887011969
 30
0.0
 40
0.2619394416707609
 50
96.7841253202132776
 51
101.0580528853561049
  0
ARC
  5
2B946
  8
0
 10
5616.8040377871420787
 20
411.1214730780149011
 30
0.0
 40
0.0264775129658673
 50
101.0580528853561049
 51
112.4553843697676001
  0
ARC
  5
2B947
  8
0
 10
5616.7970631358639366
 20
411.1383485313713777
 30
0.0
 40
0.0082175379816494
 50
112.4553843697676001
 51
126.3850378638941976
  0
ARC
  5
2B948
  8
0
 10
5616.7931023125947831
 20
411.1437237996054819
 30
0.0
 40
0.0015405903585455
 50
126.3850378638961018
 51
157.6917375888116908
  0
ARC
  5
2B949
  8
0
 10
5616.7924910818674107
 20
411.1439745865719146
 30
0.0
 40
0.0008799110830698
 50
157.6917375888268111
 51
222.7764702918169917
  0
ARC
  5
2B94A
  8
0
 10
5616.7953376961759204
 20
411.1466084096970803
 30
0.0
 40
0.0047580855599133
 50
222.7764702918169917
 51
249.2965447482322077
  0
ARC
  5
2B94B
  8
0
 10
5616.8183915987056025
 20
411.2159422362918235
 30
0.0
 40
0.0778205992496909
 50
251.4664604343016947
 51
263.3923772231905787
  0
ARC
  5
2B94C
  8
0
 10
5616.8802428931267059
 20
411.6572820918084972
 30
0.0
 40
0.5234544943165167
 50
262.2259473638786176
 51
265.0332562216092924
  0
ARC
  5
2B94D
  8
0
 10
5616.9670690318680499
 20
409.5544931978923273
 30
0.0
 40
1.6030873061740769
 50
91.9565398715652265
 51
94.8576067012454871
  0
ARC
  5
2B94E
  8
0
 10
5617.2814620315375578
 20
400.3513126441746977
 30
0.0
 40
10.8116363375127307
 50
91.6862810634845005
 51
91.9565398715652265
  0
ARC
  5
2B94F
  8
0
 10
5617.0686810704282834
 20
407.5790109461016755
 30
0.0
 40
3.580806614646233
 50
89.8375737219903385
 51
91.6862810634845005
  0
ARC
  5
2B950
  8
0
 10
5617.0890598653386405
 20
407.700891973178102
 30
0.0
 40
3.4589263200951561
 50
89.9162577646343095
 51
90.1694177405949233
  0
ARC
  5
2B951
  8
0
 10
5617.094708197269938
 20
415.9698335250292871
 30
0.0
 40
4.8501312121938449
 50
269.4611244977566002
 51
270.0516616491893842
  0
ARC
  5
2B952
  8
0
 10
5617.0852821800071979
 20
414.9500805240656973
 30
0.0
 40
3.8303346647282202
 50
267.6593758450115956
 51
269.4586535155507931
  0
ARC
  5
2B953
  8
0
 10
5616.977561363141831
 20
412.3146661972434117
 30
0.0
 40
1.192719748102574
 50
265.3257452428683791
 51
267.6593758450115956
  0
ARC
  5
2B954
  8
0
 10
5616.91913601100714
 20
411.6000931788432808
 30
0.0
 40
0.4757622037544488
 50
262.5227707526385075
 51
265.3257452428683791
  0
ARC
  5
2B955
  8
0
 10
5616.873187256912388
 20
411.2500026475776167
 30
0.0
 40
0.1226692017211513
 50
258.3963513059431989
 51
262.5227707526385075
  0
ARC
  5
2B956
  8
0
 10
5616.8608010763782659
 20
411.1896813835144826
 30
0.0
 40
0.0610893968631299
 50
252.177082187586791
 51
258.3963513059431989
  0
ARC
  5
2B957
  8
0
 10
5616.8482090664128918
 20
411.1505156949486945
 30
0.0
 40
0.019949271975292
 50
240.1999959238978875
 51
252.177082187586791
  0
ARC
  5
2B958
  8
0
 10
5616.8461572108863038
 20
411.1469332791232887
 30
0.0
 40
0.015820856514349
 50
224.760484711913108
 51
240.2005814009388018
  0
ARC
  5
2B959
  8
0
 10
5616.8433182821427181
 20
411.1441175406669117
 30
0.0
 40
0.0118224127954311
 50
201.0816376070023921
 51
224.7719340418514946
  0
ARC
  5
2B95A
  8
0
 10
5616.845865378552844
 20
411.1450994456428134
 30
0.0
 40
0.0145522181923444
 50
181.7666770774143004
 51
201.0816376070023921
  0
LINE
  5
2B95B
  8
0
 10
5616.8313200776146914
 20
411.1446508088168912
 30
0.0
 11
5616.8313200776146914
 21
411.1518326376864252
 31
0.0
  0
ARC
  5
2B95C
  8
0
 10
5617.0941067693765945
 20
406.3398176759924922
 30
0.0
 40
4.8061736234638266
 50
89.9998976695693216
 51
90.1493746693196982
  0
ARC
  5
2B95D
  8
0
 10
5617.0938858105173495
 20
406.4245708772681951
 30
0.0
 40
4.7214201341592092
 50
90.1493746693196982
 51
90.4810662233201271
  0
ARC
  5
2B95E
  8
0
 10
5617.0906767337546626
 20
406.8067682234870972
 30
0.0
 40
4.3392093158528002
 50
90.4810662233201271
 51
91.2959948675557484
  0
ARC
  5
2B95F
  8
0
 10
5617.0562494692439941
 20
408.3285339244494025
 30
0.0
 40
2.8170542366420981
 50
91.2959948675557484
 51
92.9459055484158938
  0
ARC
  5
2B960
  8
0
 10
5616.9560969834092248
 20
410.2747121697125863
 30
0.0
 40
0.8683007163746708
 50
92.9459055484158938
 51
96.009489391134565
  0
ARC
  5
2B961
  8
0
 10
5616.8813041965086086
 20
410.9851860652210007
 30
0.0
 40
0.1539008863276992
 50
96.009489391134565
 51
102.394564774988396
  0
ARC
  5
2B962
  8
0
 10
5616.851965922574891
 20
411.1186845698401271
 30
0.0
 40
0.0172166332004454
 50
102.394564774988396
 51
117.4885795794147043
  0
ARC
  5
2B963
  8
0
 10
5616.8449655112781329
 20
411.1321387817596928
 30
0.0
 40
0.0020501709660811
 50
117.4885795793563972
 51
145.8502787753120913
  0
ARC
  5
2B964
  8
0
 10
5616.8439061501649121
 20
411.1328573646667905
 30
0.0
 40
0.0007700899674461
 50
145.8502787753039911
 51
207.7008039333819056
  0
ARC
  5
2B965
  8
0
 10
5616.8444003022295874
 20
411.1331168091459745
 30
0.0
 40
0.0013282097588605
 50
207.7008039333790919
 51
232.1611768085670917
  0
ARC
  5
2B966
  8
0
 10
5616.8471814108361286
 20
411.1366971806750144
 30
0.0
 40
0.0058618203911511
 50
232.1611768085670917
 51
248.8067838181273999
  0
ARC
  5
2B967
  8
0
 10
5616.8609787377208704
 20
411.1722813087785084
 30
0.0
 40
0.0440272026379836
 50
248.8067838181273999
 51
258.3294917570758003
  0
ARC
  5
2B968
  8
0
 10
5616.8581543948293984
 20
411.1303538294769737
 30
0.0
 40
0.0042662257695091
 50
110.7287186341907983
 51
134.1631676471428136
  0
ARC
  5
2B969
  8
0
 10
5616.8685301401246761
 20
411.1029367851277811
 30
0.0
 40
0.0335809048789689
 50
100.9009311676736047
 51
110.7287186341907983
  0
ARC
  5
2B96A
  8
0
 10
5616.8950069261591125
 20
410.9654568176356975
 30
0.0
 40
0.1735871963814404
 50
95.9143460918448056
 51
100.9009311676736047
  0
ARC
  5
2B96B
  8
0
 10
5616.9597987691249728
 20
410.3400107550176017
 30
0.0
 40
0.8023802944347572
 50
93.7611894050676966
 51
95.9143460918448056
  0
ARC
  5
2B96C
  8
0
 10
5617.0024702868504392
 20
409.6909115795174898
 30
0.0
 40
1.4528805619673311
 50
92.0841532360301045
 51
93.7611894050676966
  0
ARC
  5
2B96D
  8
0
 10
5617.1012966335138117
 20
406.975259558239884
 30
0.0
 40
4.1703302022484081
 50
91.3642737412211261
 51
92.0841532360301045
  0
ARC
  5
2B96E
  8
0
 10
5617.0641737426703912
 20
408.5340251581512803
 30
0.0
 40
2.6111226136023058
 50
90.6406171157000813
 51
91.3642737412211261
  0
ARC
  5
2B96F
  8
0
 10
5617.1465785109558055
 20
401.164180407823892
 30
0.0
 40
9.9814280475557933
 50
90.4526836385164756
 51
90.6406171157000813
  0
ARC
  5
2B970
  8
0
 10
5617.0885364491268774
 20
408.510361485575288
 30
0.0
 40
2.6350176786713302
 50
89.8786923139289939
 51
90.4526836385164756
  0
ARC
  5
2B971
  8
0
 10
5617.2375055805114243
 20
421.7824821678735248
 30
0.0
 40
10.6636763570171809
 50
268.5581242441535892
 51
269.2562279526400744
  0
ARC
  5
2B972
  8
0
 10
5617.0200576153411021
 20
412.8338457142197058
 30
0.0
 40
1.7124194772936101
 50
265.5242625750630054
 51
268.297349432437386
  0
ARC
  5
2B973
  8
0
 10
5616.9051453403808409
 20
411.3657992002691799
 30
0.0
 40
0.2398824156008814
 50
259.7222125367795229
 51
265.5242625750630054
  0
ARC
  5
2B974
  8
0
 10
5616.8678387947347801
 20
411.1600611804665277
 30
0.0
 40
0.030789347470133
 50
248.2870549192417968
 51
259.7222125367795229
  0
ARC
  5
2B975
  8
0
 10
5616.857825173126912
 20
411.1349145998788117
 30
0.0
 40
0.0037223355745186
 50
225.4408852515061028
 51
248.2870549192417968
  0
ARC
  5
2B976
  8
0
 10
5616.855796606126205
 20
411.1328545709218929
 30
0.0
 40
0.000831176052007
 50
137.6738482490266904
 51
225.4408852515038006
  0
ARC
  5
2B977
  8
0
 10
5617.0941009407761157
 20
415.7891310503520117
 30
0.0
 40
4.6514092550573221
 50
269.5017696277025721
 51
270.0001775315575969
  0
ARC
  5
2B978
  8
0
 10
5617.0901681273917347
 20
415.3368745410916176
 30
0.0
 40
4.199135646287683
 50
268.7024335940978972
 51
269.5017696277025721
  0
ARC
  5
2B979
  8
0
 10
5617.0624807699769008
 20
414.1145112733802875
 30
0.0
 40
2.9764588500695339
 50
267.6730481730460269
 51
268.7024335940978972
  0
ARC
  5
2B97A
  8
0
 10
5616.9715486642890028
 20
411.892169704910998
 30
0.0
 40
0.7522580623574314
 50
266.2128949528637918
 51
267.7207305285512007
  0
ARC
  5
2B97B
  8
0
 10
5617.0633265068090623
 20
411.1470139749819168
 30
0.0
 40
0.0021350468175386
 50
235.6560309610376009
 51
266.0358238408223883
  0
LINE
  5
2B97C
  8
0
 10
5617.0631789051731175
 20
411.1448840363278237
 30
0.0
 11
5617.0785450802150081
 21
411.1434911151168876
 31
0.0
  0
ARC
  5
2B97D
  8
0
 10
5617.0783328210864056
 20
411.1454663538355021
 30
0.0
 40
0.0019866106753134
 50
276.1334698387195772
 51
312.4025264499733225
  0
ARC
  5
2B97E
  8
0
 10
5617.0764829342197118
 20
411.1474920590620172
 30
0.0
 40
0.004729886650839
 50
312.4025264499733225
 51
333.309581899206421
  0
LINE
  5
2B97F
  8
0
 10
5617.109389437317077
 20
411.1434910418170148
 30
0.0
 11
5617.0785450802150081
 21
411.1434911151168876
 31
0.0
  0
LINE
  5
2B980
  8
0
 10
5617.0788412691163103
 20
411.1434910418170148
 30
0.0
 11
5617.0626786182174328
 21
411.1420796193169167
 31
0.0
  0
LINE
  5
2B981
  8
0
 10
5617.0626786182174328
 20
411.1420796193169167
 30
0.0
 11
5617.0321304500157567
 21
411.1420796193169167
 31
0.0
  0
LINE
  5
2B982
  8
0
 10
5617.0321304500157567
 20
411.1420796193169167
 30
0.0
 11
5617.0159677992160141
 21
411.1434910418170148
 31
0.0
  0
LINE
  5
2B983
  8
0
 10
5617.0159677992160141
 20
411.1434910418170148
 30
0.0
 11
5617.0324407445441466
 21
411.1449549389180902
 31
0.0
  0
ARC
  5
2B984
  8
0
 10
5617.0167306603416364
 20
411.1463079438951809
 30
0.0
 40
0.0028496480394663
 50
215.0046533236381094
 51
259.0099375874332281
  0
LINE
  5
2B985
  8
0
 10
5617.0159677992160141
 20
411.1434910418170148
 30
0.0
 11
5616.9854196310170664
 21
411.1434910418170148
 31
0.0
  0
LINE
  5
2B986
  8
0
 10
5616.9854196310170664
 20
411.1434910418170148
 30
0.0
 11
5616.9701453996167402
 21
411.1421049827168872
 31
0.0
  0
LINE
  5
2B987
  8
0
 10
5616.9701453996167402
 20
411.1421049827168872
 30
0.0
 11
5616.9318428784517891
 21
411.142074456842181
 31
0.0
  0
LINE
  5
2B988
  8
0
 10
5616.9387088120165572
 20
411.1420796193169167
 30
0.0
 11
5616.9284337689196036
 21
411.1411482017707044
 31
0.0
  0
ARC
  5
2B989
  8
0
 10
5616.9826041757751227
 20
411.1448609482475831
 30
0.0
 40
0.0052019330520311
 50
318.1215498135042026
 51
344.7313259184682011
  0
ARC
  5
2B98A
  8
0
 10
5616.9848172254187375
 20
411.1428767943173739
 30
0.0
 40
0.0022296518490394
 50
277.8938569337021249
 51
318.1215498135042026
  0
LINE
  5
2B98B
  8
0
 10
5616.9851234421157642
 20
411.1406682702170201
 30
0.0
 11
5616.9694557207130856
 21
411.1421044330650716
 31
0.0
  0
ARC
  5
2B98C
  8
0
 10
5616.9700166576330957
 20
411.1446602340377012
 30
0.0
 40
0.0026166331113445
 50
207.5685039006621082
 51
257.6212227518161058
  0
LINE
  5
2B98D
  8
0
 10
5616.9677912871811714
 20
411.1421031065652869
 30
0.0
 11
5616.9688467074156506
 21
411.1406728483169104
 31
0.0
  0
ARC
  5
2B98E
  8
0
 10
5616.9712651965091936
 20
411.1424575066690181
 30
0.0
 40
0.0030056771157365
 50
216.4244635697997978
 51
268.049070987163077
  0
LINE
  5
2B98F
  8
0
 10
5616.9719903385139332
 20
411.1394282883240976
 30
0.0
 11
5616.9851234422949346
 21
411.1406682702170201
 31
0.0
  0
LINE
  5
2B990
  8
0
 10
5616.9851234422949346
 20
411.1406682702170201
 30
0.0
 11
5617.0162639881164068
 21
411.1406682702170201
 31
0.0
  0
LINE
  5
2B991
  8
0
 10
5617.0162639881164068
 20
411.1406682702170201
 30
0.0
 11
5617.0321304500157567
 21
411.1420796193169167
 31
0.0
  0
LINE
  5
2B992
  8
0
 10
5617.0137643677117012
 20
411.1434911151168876
 30
0.0
 11
5617.0144020113166334
 21
411.142047295616976
 31
0.0
  0
ARC
  5
2B993
  8
0
 10
5617.0165444250051223
 20
411.142993464017195
 30
0.0
 40
0.0023420442048737
 50
203.8280102605079946
 51
263.1228897969887726
  0
LINE
  5
2B994
  8
0
 10
5617.0159677992160141
 20
411.1406681969169199
 30
0.0
 11
5617.0312419967158348
 21
411.1392822832169145
 31
0.0
  0
LINE
  5
2B995
  8
0
 10
5617.0312419967158348
 20
411.1392822832169145
 30
0.0
 11
5617.0318342612963534
 21
411.1392568478169096
 31
0.0
  0
LINE
  5
2B996
  8
0
 10
5617.0318342612963534
 20
411.1392568478169096
 30
0.0
 11
5617.0626786182174328
 21
411.1392567744169924
 31
0.0
  0
LINE
  5
2B997
  8
0
 10
5617.0626786182174328
 20
411.1392567744169924
 30
0.0
 11
5617.0788412691163103
 21
411.1406681969169199
 31
0.0
  0
LINE
  5
2B998
  8
0
 10
5617.0788412691163103
 20
411.1406681969169199
 30
0.0
 11
5617.109389437317077
 21
411.1406681969169199
 31
0.0
  0
ARC
  5
2B999
  8
0
 10
5617.0754923911172227
 20
411.1451881191017037
 30
0.0
 40
0.0058185909129539
 50
319.2292955579060845
 51
343.0430505881564045
  0
ARC
  5
2B99A
  8
0
 10
5617.0780242260480009
 20
411.1430049558812243
 30
0.0
 40
0.0024754801219769
 50
289.2720764752580749
 51
319.229295557910973
  0
LINE
  5
2B99B
  8
0
 10
5617.0788412691163103
 20
411.1406681969169199
 30
0.0
 11
5617.0626786182174328
 21
411.1420796193169167
 31
0.0
  0
ARC
  5
2B99C
  8
0
 10
5617.0663606281050306
 20
411.1438249579975945
 30
0.0
 40
0.0061387754824214
 50
196.5178364210865993
 51
212.5835865519050003
  0
ARC
  5
2B99D
  8
0
 10
5617.0639776287598579
 20
411.1423019280172184
 30
0.0
 40
0.0033106477979217
 50
212.5835865519078141
 51
246.8977321479665079
  0
LINE
  5
2B99E
  8
0
 10
5617.0626786182174328
 20
411.1392567744169924
 30
0.0
 11
5617.0793547347821004
 21
411.1377451088729913
 31
0.0
  0
ARC
  5
2B99F
  8
0
 10
5617.0797936943372406
 20
411.1440400817327827
 30
0.0
 40
0.0063036541305482
 50
272.6021771719891262
 51
309.0351919712499011
  0
ARC
  5
2B9A0
  8
0
 10
5617.077603433920558
 20
411.1454094430105783
 30
0.0
 40
0.0087868748782654
 50
314.5135748467354802
 51
327.3447607837849773
  0
ARC
  5
2B9A1
  8
0
 10
5617.0299774465884184
 20
411.1432095276446148
 30
0.0
 40
0.0045010756315325
 50
298.5764452183310027
 51
345.4614858064834948
  0
LINE
  5
2B9A2
  8
0
 10
5617.0321304500157567
 20
411.1392567744169924
 30
0.0
 11
5617.0217437997953311
 21
411.1382964142351284
 31
0.0
  0
ARC
  5
2B9A3
  8
0
 10
5617.0215532039401296
 20
411.1437017157876994
 30
0.0
 40
0.0054140804307978
 50
215.4500854018851896
 51
265.1485012860184725
  0
ARC
  5
2B9A4
  8
0
 10
5617.093956379933843
 20
404.2139129120669168
 30
0.0
 40
6.9596915383230851
 50
89.9522176236407347
 51
90.9795522603418476
  0
ARC
  5
2B9A5
  8
0
 10
5617.0577349829964078
 20
406.3330720329561814
 30
0.0
 40
4.8402228857989513
 50
90.9796960764585663
 51
92.6314402496292075
  0
ARC
  5
2B9A6
  8
0
 10
5616.9011862482493598
 20
409.7392958075475917
 30
0.0
 40
1.4304035490975719
 50
92.6314402496292075
 51
96.2625464871006642
  0
ARC
  5
2B9A7
  8
0
 10
5616.759566656845891
 20
411.0298037231336821
 30
0.0
 40
0.1321482626230084
 50
96.2625464871006642
 51
106.0857685401324062
  0
ARC
  5
2B9A8
  8
0
 10
5616.7253274025270002
 20
411.148539085009304
 30
0.0
 40
0.0085747513186286
 50
106.0857685401324062
 51
136.424978600521996
  0
ARC
  5
2B9A9
  8
0
 10
5617.0911811617434068
 20
405.1907580341012931
 30
0.0
 40
6.9006296824078088
 50
89.9287660690804813
 51
91.8749154180602972
  0
ARC
  5
2B9AA
  8
0
 10
5616.9557099660723907
 20
409.330897527831894
 30
0.0
 40
2.7582743784368589
 50
91.8760950622104247
 51
94.0480159534855744
  0
ARC
  5
2B9AB
  8
0
 10
5616.8140441067180291
 20
411.3327043615802268
 30
0.0
 40
0.7514610300291023
 50
94.0480159534855744
 51
98.3938095557348049
  0
ARC
  5
2B9AC
  8
0
 10
5616.7144601558766226
 20
412.007590109714215
 30
0.0
 40
0.0692677023721776
 50
98.3938095557348049
 51
109.6876153041855986
  0
ARC
  5
2B9AD
  8
0
 10
5616.6941204482900503
 20
412.0644354236159757
 30
0.0
 40
0.0088930933271943
 50
109.6876153041855986
 51
127.0184511626218011
  0
ARC
  5
2B9AE
  8
0
 10
5616.6905261098518167
 20
412.0692020772863202
 30
0.0
 40
0.0029231472621462
 50
127.0184511626218011
 51
149.0671473342125921
  0
ARC
  5
2B9AF
  8
0
 10
5616.6890046601301947
 20
412.0701138314237824
 30
0.0
 40
0.001149420995092
 50
149.0671473342125921
 51
172.3935800426056062
  0
ARC
  5
2B9B0
  8
0
 10
5616.6993885012107057
 20
412.0702980597819192
 30
0.0
 40
0.0115627497811063
 50
184.7433862689750868
 51
215.929768459714893
  0
ARC
  5
2B9B1
  8
0
 10
5616.7008573292841902
 20
412.0713624774505774
 30
0.0
 40
0.0133767070251476
 50
215.929768459714893
 51
238.076874110645889
  0
ARC
  5
2B9B2
  8
0
 10
5616.7065021344569686
 20
412.0804230825062859
 30
0.0
 40
0.0240518365052386
 50
238.076874110645889
 51
253.330918461523197
  0
ARC
  5
2B9B3
  8
0
 10
5616.7302705983620399
 20
412.1598031037943883
 30
0.0
 40
0.106913936744888
 50
253.330918461523197
 51
260.1950713563832096
  0
ARC
  5
2B9B4
  8
0
 10
5616.7676439044444123
 20
412.3760605555780216
 30
0.0
 40
0.326377030360891
 50
260.1950713563832096
 51
261.6718549625085188
  0
ARC
  5
2B9B5
  8
0
 10
5616.7596929233632181
 20
412.0430539025089729
 30
0.0
 40
0.0405776249471177
 50
172.6789177414428025
 51
180.0941650219305075
  0
ARC
  5
2B9B6
  8
0
 10
5616.7615984698841203
 20
412.0428090836746833
 30
0.0
 40
0.0424988338919224
 50
165.9516871122118005
 51
172.6789177414428025
  0
ARC
  5
2B9B7
  8
0
 10
5616.7589004928968279
 20
412.0434841818064911
 30
0.0
 40
0.0397176763410859
 50
151.5909202301575078
 51
165.9516871122118005
  0
ARC
  5
2B9B8
  8
0
 10
5616.7936364443958155
 20
412.0246954082981006
 30
0.0
 40
0.0792095025406663
 50
149.077490885848988
 51
151.5909202301575078
  0
ARC
  5
2B9B9
  8
0
 10
5616.7351486943862255
 20
412.1123180030375011
 30
0.0
 40
0.0582714288535473
 50
249.6574897431515865
 51
256.0765276765620229
  0
ARC
  5
2B9BA
  8
0
 10
5616.7176389990663665
 20
412.065090862303407
 30
0.0
 40
0.0079028647270436
 50
233.781622869354095
 51
249.6574897431515865
  0
ARC
  5
2B9BB
  8
0
 10
5616.7149735532248087
 20
412.0614514422488242
 30
0.0
 40
0.003391769532374
 50
214.796718913356699
 51
233.781622869354095
  0
ARC
  5
2B9BC
  8
0
 10
5616.7134872208862362
 20
412.060119118753903
 30
0.0
 40
0.0014321724554836
 50
130.7599560982210107
 51
204.9110272103436046
  0
ARC
  5
2B9BD
  8
0
 10
5616.7735742828972434
 20
411.8324946600059207
 30
0.0
 40
0.2377771540567558
 50
101.6189445393553967
 51
103.3948297670968941
  0
ARC
  5
2B9BE
  8
0
 10
5616.7233061862580143
 20
412.0435825353893051
 30
0.0
 40
0.0207864338092255
 50
103.3948297670968941
 51
114.1383482482316936
  0
ARC
  5
2B9BF
  8
0
 10
5616.7193814825714071
 20
412.0523405893480913
 30
0.0
 40
0.0111892046166711
 50
114.1383482482316936
 51
127.6149839150342018
  0
ARC
  5
2B9C0
  8
0
 10
5616.7697730206673441
 20
411.8356406843853961
 30
0.0
 40
0.2339504186064603
 50
95.8386852310491548
 51
100.8622242069336039
  0
ARC
  5
2B9C1
  8
0
 10
5616.9020201029670716
 20
410.5423781155889174
 30
0.0
 40
1.5339570965228111
 50
94.1630965340584822
 51
95.8386852310491548
  0
ARC
  5
2B9C2
  8
0
 10
5616.9996448668971425
 20
408.7712399636652094
 30
0.0
 40
3.307656395860056
 50
91.3709939191195843
 51
93.6224626206596469
  0
ARC
  5
2B9C3
  8
0
 10
5617.4256871519683045
 20
377.9598611328875108
 30
0.0
 40
34.1218282147725276
 50
90.5472891566977438
 51
90.8483081929086183
  0
LINE
  5
2B9C4
  8
0
 10
5617.4691237426623047
 20
411.1865871318854033
 30
0.0
 11
5617.4691153528392533
 21
411.1539752258921112
 31
0.0
  0
ARC
  5
2B9C5
  8
0
 10
5617.4581649645260768
 20
411.1539493768946727
 30
0.0
 40
0.0109486310404882
 50
327.8634700827402071
 51
0.1506573169398697
  0
ARC
  5
2B9C6
  8
0
 10
5617.4562260738730401
 20
411.1551673640096283
 30
0.0
 40
0.0132383449031062
 50
295.7695993988318151
 51
327.8634700827402071
  0
ARC
  5
2B9C7
  8
0
 10
5617.4453094974487612
 20
411.1777799983548789
 30
0.0
 40
0.0383481611682088
 50
285.5965697627814279
 51
295.7695993988318151
  0
ARC
  5
2B9C8
  8
0
 10
5617.3969894622778156
 20
411.4002721663625266
 30
0.0
 40
0.2659709880603487
 50
274.6655749668502722
 51
282.734824584784576
  0
ARC
  5
2B9C9
  8
0
 10
5617.2701637526188279
 20
412.7426439285025026
 30
0.0
 40
1.614302500045131
 50
272.4693954617674763
 51
275.2766756290479861
  0
ARC
  5
2B9CA
  8
0
 10
5617.3232882799966319
 20
410.7580528444200922
 30
0.0
 40
0.3952025575567276
 50
83.2158746797867082
 51
85.1195908472810459
  0
ARC
  5
2B9CB
  8
0
 10
5617.3390304982713133
 20
410.8903828887011969
 30
0.0
 40
0.2619394416707609
 50
78.9419471146438951
 51
83.2158746797867082
  0
ARC
  5
2B9CC
  8
0
 10
5617.384192919292218
 20
411.1214730780149011
 30
0.0
 40
0.0264775129658673
 50
67.5446156302323431
 51
78.9419471146438951
  0
ARC
  5
2B9CD
  8
0
 10
5617.3911675705667221
 20
411.1383485313713777
 30
0.0
 40
0.0082175379816494
 50
53.6149621361057882
 51
67.5446156302323431
  0
ARC
  5
2B9CE
  8
0
 10
5617.3951283938376946
 20
411.1437237996054819
 30
0.0
 40
0.0015405903585455
 50
22.3082624111882701
 51
53.6149621361038626
  0
ARC
  5
2B9CF
  8
0
 10
5617.3957396245659766
 20
411.1439745865719146
 30
0.0
 40
0.0008799110830698
 50
317.2235297081829799
 51
22.3082624111731995
  0
ARC
  5
2B9D0
  8
0
 10
5617.3928930102583763
 20
411.1466084096970803
 30
0.0
 40
0.0047580855599133
 50
290.7034552517678776
 51
317.2235297081829799
  0
ARC
  5
2B9D1
  8
0
 10
5617.3698391077268752
 20
411.2159422362918235
 30
0.0
 40
0.0778205992496909
 50
276.6076227768094213
 51
288.5335395656982769
  0
ARC
  5
2B9D2
  8
0
 10
5617.3079878133057719
 20
411.6572820918084972
 30
0.0
 40
0.5234544943165167
 50
274.9667437784428898
 51
277.7740526361213824
  0
ARC
  5
2B9D3
  8
0
 10
5617.2211616745644278
 20
409.5544931978923273
 30
0.0
 40
1.6030873061740769
 50
85.1423932987545129
 51
88.0434601284347593
  0
ARC
  5
2B9D4
  8
0
 10
5616.906768674893101
 20
400.3513126441746977
 30
0.0
 40
10.8116363375127307
 50
88.0434601284347593
 51
88.3137189365155137
  0
ARC
  5
2B9D5
  8
0
 10
5617.1195496360041943
 20
407.5790109461016755
 30
0.0
 40
3.580806614646233
 50
88.3137189365155137
 51
90.1624262780096757
  0
ARC
  5
2B9D6
  8
0
 10
5617.0991708410947467
 20
407.700891973178102
 30
0.0
 40
3.4589263200951561
 50
89.8305822594050625
 51
90.0837422353656763
  0
ARC
  5
2B9D7
  8
0
 10
5617.0929369733248677
 20
416.0524833200645958
 30
0.0
 40
4.9327828624862367
 50
270.0713693467992016
 51
270.5366475419169774
  0
ARC
  5
2B9D8
  8
0
 10
5617.1029485264261893
 20
414.9500805240656973
 30
0.0
 40
3.8303346647282202
 50
270.5413464844493205
 51
272.3406241549884044
  0
ARC
  5
2B9D9
  8
0
 10
5617.2106693432906468
 20
412.3146661972434117
 30
0.0
 40
1.192719748102574
 50
272.3406241549884044
 51
274.6742547571316209
  0
ARC
  5
2B9DA
  8
0
 10
5617.2690946954262472
 20
411.6000931788432808
 30
0.0
 40
0.4757622037544488
 50
274.6742547571316209
 51
277.4772292473614925
  0
ARC
  5
2B9DB
  8
0
 10
5617.3150434495219088
 20
411.2500026475776167
 30
0.0
 40
0.1226692017211513
 50
277.4772292473614925
 51
281.6036486940566874
  0
ARC
  5
2B9DC
  8
0
 10
5617.3274296300551214
 20
411.1896813835144826
 30
0.0
 40
0.0610893968631299
 50
281.6036486940566874
 51
287.8229178124130954
  0
ARC
  5
2B9DD
  8
0
 10
5617.3400216400186764
 20
411.1505156949486945
 30
0.0
 40
0.019949271975292
 50
287.8229178124130954
 51
299.8000040761020273
  0
ARC
  5
2B9DE
  8
0
 10
5617.3420734955470834
 20
411.1469332791232887
 30
0.0
 40
0.015820856514349
 50
299.7994185990610845
 51
315.2395152880869205
  0
ARC
  5
2B9DF
  8
0
 10
5617.3449124242897597
 20
411.1441175406669117
 30
0.0
 40
0.0118224127954311
 50
315.228065958148477
 51
338.9183623929977216
  0
ARC
  5
2B9E0
  8
0
 10
5617.3423653278796337
 20
411.1450994456428134
 30
0.0
 40
0.0145522181923444
 50
338.9183623929977216
 51
358.2333229225857281
  0
LINE
  5
2B9E1
  8
0
 10
5617.3569106288159674
 20
411.1446508088168912
 30
0.0
 11
5617.3569106288159674
 21
411.1518326376864252
 31
0.0
  0
ARC
  5
2B9E2
  8
0
 10
5617.0941239370567928
 20
406.3398176759924922
 30
0.0
 40
4.8061736234638266
 50
89.8506253306802876
 51
90.0001023304306784
  0
ARC
  5
2B9E3
  8
0
 10
5617.0943448959169473
 20
406.4245708772681951
 30
0.0
 40
4.7214201341592092
 50
89.5189337766798872
 51
89.8506253306802876
  0
ARC
  5
2B9E4
  8
0
 10
5617.0975539726759962
 20
406.8067682234870972
 30
0.0
 40
4.3392093158528002
 50
88.7040051324442658
 51
89.5189337766798872
  0
ARC
  5
2B9E5
  8
0
 10
5617.1319812371893931
 20
408.3285339244494025
 30
0.0
 40
2.8170542366420981
 50
87.0540944515841062
 51
88.7040051324442658
  0
ARC
  5
2B9E6
  8
0
 10
5617.2321337230223435
 20
410.2747121697125863
 30
0.0
 40
0.8683007163746708
 50
83.9905106088654492
 51
87.0540944515841062
  0
ARC
  5
2B9E7
  8
0
 10
5617.3069265099238692
 20
410.9851860652210007
 30
0.0
 40
0.1539008863276992
 50
77.6054352250115755
 51
83.9905106088654492
  0
ARC
  5
2B9E8
  8
0
 10
5617.3362647838575867
 20
411.1186845698401271
 30
0.0
 40
0.0172166332004454
 50
62.5114204205852815
 51
77.6054352250115755
  0
ARC
  5
2B9E9
  8
0
 10
5617.3432651951552543
 20
411.1321387817596928
 30
0.0
 40
0.0020501709660811
 50
34.1497212246879087
 51
62.5114204206435531
  0
ARC
  5
2B9EA
  8
0
 10
5617.3443245562693846
 20
411.1328573646667905
 30
0.0
 40
0.0007700899674461
 50
332.2991960666179807
 51
34.1497212246959876
  0
ARC
  5
2B9EB
  8
0
 10
5617.3438304042028903
 20
411.1331168091459745
 30
0.0
 40
0.0013282097588605
 50
307.8388231914328799
 51
332.2991960666208797
  0
ARC
  5
2B9EC
  8
0
 10
5617.3410492955972586
 20
411.1366971806750144
 30
0.0
 40
0.0058618203911511
 50
291.1932161818725717
 51
307.8388231914328799
  0
ARC
  5
2B9ED
  8
0
 10
5617.3272519687116073
 20
411.1722813087785084
 30
0.0
 40
0.0440272026379836
 50
281.6705082429240861
 51
291.1932161818725717
  0
ARC
  5
2B9EE
  8
0
 10
5617.3300763116039889
 20
411.1303538294769737
 30
0.0
 40
0.0042662257695091
 50
45.8368323528571509
 51
69.2712813658091164
  0
ARC
  5
2B9EF
  8
0
 10
5617.3197005663078016
 20
411.1029367851277811
 30
0.0
 40
0.0335809048789689
 50
69.2712813658091164
 51
79.0990688323264521
  0
ARC
  5
2B9F0
  8
0
 10
5617.2932237802742748
 20
410.9654568176356975
 30
0.0
 40
0.1735871963814404
 50
79.0990688323264521
 51
84.0856539081551944
  0
ARC
  5
2B9F1
  8
0
 10
5617.2284319373084145
 20
410.3400107550176017
 30
0.0
 40
0.8023802944347572
 50
84.0856539081551944
 51
86.238810594932346
  0
ARC
  5
2B9F2
  8
0
 10
5617.1857604195829481
 20
409.6909115795174898
 30
0.0
 40
1.4528805619673311
 50
86.238810594932346
 51
87.9158467639698955
  0
ARC
  5
2B9F3
  8
0
 10
5617.0869340729186661
 20
406.975259558239884
 30
0.0
 40
4.1703302022484081
 50
87.9158467639698955
 51
88.6357262587788739
  0
ARC
  5
2B9F4
  8
0
 10
5617.124056963762996
 20
408.5340251581512803
 30
0.0
 40
2.6111226136023058
 50
88.6357262587788739
 51
89.3593828842999187
  0
ARC
  5
2B9F5
  8
0
 10
5617.0416521954775817
 20
401.164180407823892
 30
0.0
 40
9.9814280475557933
 50
89.3593828842999187
 51
89.5473163614835244
  0
ARC
  5
2B9F6
  8
0
 10
5617.0996942573046908
 20
408.510361485575288
 30
0.0
 40
2.6350176786713302
 50
89.5473163614835244
 51
90.1213076860710203
  0
ARC
  5
2B9F7
  8
0
 10
5616.7841209539610645
 20
429.2738449954188127
 30
0.0
 40
18.1568726666777387
 50
270.9939381868188093
 51
271.3726027434937009
  0
ARC
  5
2B9F8
  8
0
 10
5617.1681730910931947
 20
412.8338457142197058
 30
0.0
 40
1.7124194772936101
 50
271.7026505675625003
 51
274.4757374249369946
  0
ARC
  5
2B9F9
  8
0
 10
5617.2830853660525463
 20
411.3657992002691799
 30
0.0
 40
0.2398824156008814
 50
274.4757374249369946
 51
280.2777874632204771
  0
ARC
  5
2B9FA
  8
0
 10
5617.3203919116976977
 20
411.1600611804665277
 30
0.0
 40
0.030789347470133
 50
280.2777874632204771
 51
291.7129450807581748
  0
ARC
  5
2B9FB
  8
0
 10
5617.3304055333046563
 20
411.1349145998788117
 30
0.0
 40
0.0037223355745186
 50
291.7129450807581748
 51
314.5591147484939256
  0
ARC
  5
2B9FC
  8
0
 10
5617.3324341003080917
 20
411.1328545709218929
 30
0.0
 40
0.000831176052007
 50
314.5591147484961994
 51
42.3261517509732528
  0
ARC
  5
2B9FD
  8
0
 10
5617.0941297656554525
 20
415.7891310503520117
 30
0.0
 40
4.6514092550573221
 50
269.9998224684424031
 51
270.4982303722974279
  0
ARC
  5
2B9FE
  8
0
 10
5617.0980625790416525
 20
415.3368745410916176
 30
0.0
 40
4.199135646287683
 50
270.4982303722974279
 51
271.2975664059021028
  0
ARC
  5
2B9FF
  8
0
 10
5617.125749936455577
 20
414.1145112733802875
 30
0.0
 40
2.9764588500695339
 50
271.2975664059021028
 51
272.3269518269539731
  0
ARC
  5
2BA00
  8
0
 10
5617.2166820421443845
 20
411.892169704910998
 30
0.0
 40
0.7522580623574314
 50
272.2792694714487993
 51
273.7871050471360945
  0
ARC
  5
2BA01
  8
0
 10
5617.1249041996252345
 20
411.1470139749819168
 30
0.0
 40
0.0021350468175386
 50
273.9641761591776117
 51
304.3439690389623138
  0
LINE
  5
2BA02
  8
0
 10
5617.1250518012602697
 20
411.1448840363278237
 30
0.0
 11
5617.1096856262156507
 21
411.1434911151168876
 31
0.0
  0
ARC
  5
2BA03
  8
0
 10
5617.1098978853460721
 20
411.1454663538355021
 30
0.0
 40
0.0019866106753134
 50
227.5974735500267059
 51
263.8665301612804228
  0
ARC
  5
2BA04
  8
0
 10
5617.111747772212766
 20
411.1474920590620172
 30
0.0
 40
0.004729886650839
 50
206.6904181007936074
 51
227.5974735500267059
  0
LINE
  5
2BA05
  8
0
 10
5617.109389437317077
 20
411.1434910418170148
 30
0.0
 11
5617.1255520882168639
 21
411.1420796193169167
 31
0.0
  0
LINE
  5
2BA06
  8
0
 10
5617.1255520882168639
 20
411.1420796193169167
 30
0.0
 11
5617.1561002564158116
 21
411.1420796193169167
 31
0.0
  0
LINE
  5
2BA07
  8
0
 10
5617.1561002564158116
 20
411.1420796193169167
 30
0.0
 11
5617.1722629072173731
 21
411.1434910418170148
 31
0.0
  0
LINE
  5
2BA08
  8
0
 10
5617.1722629072173731
 20
411.1434910418170148
 30
0.0
 11
5617.1557899618901502
 21
411.1449549389180902
 31
0.0
  0
ARC
  5
2BA09
  8
0
 10
5617.1715000460917508
 20
411.1463079438951809
 30
0.0
 40
0.0028496480394663
 50
280.9900624125667719
 51
324.995346676361919
  0
LINE
  5
2BA0A
  8
0
 10
5617.1722629072173731
 20
411.1434910418170148
 30
0.0
 11
5617.2028110754163208
 21
411.1434910418170148
 31
0.0
  0
LINE
  5
2BA0B
  8
0
 10
5617.2028110754163208
 20
411.1434910418170148
 30
0.0
 11
5617.2180853068157376
 21
411.1421049827168872
 31
0.0
  0
LINE
  5
2BA0C
  8
0
 10
5617.2180853068157376
 20
411.1421049827168872
 30
0.0
 11
5617.2563878279815981
 21
411.142074456842181
 31
0.0
  0
LINE
  5
2BA0D
  8
0
 10
5617.24952189441683
 20
411.1420796193169167
 30
0.0
 11
5617.2597969375128741
 21
411.1411482017707044
 31
0.0
  0
ARC
  5
2BA0E
  8
0
 10
5617.2056265306582645
 20
411.1448609482475831
 30
0.0
 40
0.0052019330520311
 50
195.2686740815317137
 51
221.8784501864957974
  0
ARC
  5
2BA0F
  8
0
 10
5617.2034134810128307
 20
411.1428767943173739
 30
0.0
 40
0.0022296518490394
 50
221.8784501864957974
 51
262.1061430662978751
  0
LINE
  5
2BA10
  8
0
 10
5617.2031072643158041
 20
411.1406682702170201
 30
0.0
 11
5617.2187749857203016
 21
411.1421044330650716
 31
0.0
  0
ARC
  5
2BA11
  8
0
 10
5617.218214048801201
 20
411.1446602340377012
 30
0.0
 40
0.0026166331113445
 50
282.3787772481838942
 51
332.4314960993378918
  0
LINE
  5
2BA12
  8
0
 10
5617.2204394192522159
 20
411.1421031065652869
 30
0.0
 11
5617.2193839990159177
 21
411.1406728483169104
 31
0.0
  0
ARC
  5
2BA13
  8
0
 10
5617.2169655099251031
 20
411.1424575066690181
 30
0.0
 40
0.0030056771157365
 50
271.950929012836923
 51
323.5755364302002022
  0
LINE
  5
2BA14
  8
0
 10
5617.2162403679203635
 20
411.1394282883240976
 30
0.0
 11
5617.2031072641384526
 21
411.1406682702170201
 31
0.0
  0
LINE
  5
2BA15
  8
0
 10
5617.2031072641384526
 20
411.1406682702170201
 30
0.0
 11
5617.1719667183160709
 21
411.1406682702170201
 31
0.0
  0
LINE
  5
2BA16
  8
0
 10
5617.1719667183160709
 20
411.1406682702170201
 30
0.0
 11
5617.1561002564158116
 21
411.1420796193169167
 31
0.0
  0
LINE
  5
2BA17
  8
0
 10
5617.1744663387198671
 20
411.1434911151168876
 30
0.0
 11
5617.1738286951167538
 21
411.142047295616976
 31
0.0
  0
ARC
  5
2BA18
  8
0
 10
5617.1716862814273554
 20
411.142993464017195
 30
0.0
 40
0.0023420442048737
 50
276.8771102030112274
 51
336.1719897394920054
  0
LINE
  5
2BA19
  8
0
 10
5617.1722629072173731
 20
411.1406681969169199
 30
0.0
 11
5617.1569887097157334
 21
411.1392822832169145
 31
0.0
  0
LINE
  5
2BA1A
  8
0
 10
5617.1569887097157334
 20
411.1392822832169145
 30
0.0
 11
5617.1563964451379434
 21
411.1392568478169096
 31
0.0
  0
LINE
  5
2BA1B
  8
0
 10
5617.1563964451379434
 20
411.1392568478169096
 30
0.0
 11
5617.1255520882168639
 21
411.1392567744169924
 31
0.0
  0
LINE
  5
2BA1C
  8
0
 10
5617.1255520882168639
 20
411.1392567744169924
 30
0.0
 11
5617.109389437317077
 21
411.1406681969169199
 31
0.0
  0
ARC
  5
2BA1D
  8
0
 10
5617.1127383153161645
 20
411.1451881191017037
 30
0.0
 40
0.0058185909129539
 50
196.9569494118435955
 51
220.7707044420938871
  0
ARC
  5
2BA1E
  8
0
 10
5617.1102064803853864
 20
411.1430049558812243
 30
0.0
 40
0.0024754801219769
 50
220.7707044420889133
 51
250.7279235247418967
  0
LINE
  5
2BA1F
  8
0
 10
5617.109389437317077
 20
411.1406681969169199
 30
0.0
 11
5617.1255520882168639
 21
411.1420796193169167
 31
0.0
  0
ARC
  5
2BA20
  8
0
 10
5617.1218700783283566
 20
411.1438249579975945
 30
0.0
 40
0.0061387754824214
 50
327.4164134480949997
 51
343.4821635789134007
  0
ARC
  5
2BA21
  8
0
 10
5617.1242530776726198
 20
411.1423019280172184
 30
0.0
 40
0.0033106477979217
 50
293.1022678520334921
 51
327.4164134480923281
  0
LINE
  5
2BA22
  8
0
 10
5617.1255520882168639
 20
411.1392567744169924
 30
0.0
 11
5617.1088759716512868
 21
411.1377451088729913
 31
0.0
  0
ARC
  5
2BA23
  8
0
 10
5617.1084370120970561
 20
411.1440400817327827
 30
0.0
 40
0.0063036541305482
 50
230.9648080287502125
 51
267.3978228280108738
  0
ARC
  5
2BA24
  8
0
 10
5617.1106272725101007
 20
411.1454094430105783
 30
0.0
 40
0.0087868748782654
 50
212.6552392162149943
 51
225.4864251532644914
  0
ARC
  5
2BA25
  8
0
 10
5617.1582532598440594
 20
411.1432095276446148
 30
0.0
 40
0.0045010756315325
 50
194.5385141935132935
 51
241.4235547816689973
  0
LINE
  5
2BA26
  8
0
 10
5617.1561002564158116
 20
411.1392567744169924
 30
0.0
 11
5617.1664869066371466
 21
411.1382964142351284
 31
0.0
  0
ARC
  5
2BA27
  8
0
 10
5617.1666775024932576
 20
411.1437017157876994
 30
0.0
 40
0.0054140804307978
 50
274.8514987139815275
 51
324.5499145981148104
  0
ARC
  5
2BA28
  8
0
 10
5617.0943266091608166
 20
404.2179919817976952
 30
0.0
 40
6.9556121709273873
 50
89.0203039235414764
 51
89.9552393069436818
  0
ARC
  5
2BA29
  8
0
 10
5617.132366546987214
 20
406.3924188971935791
 30
0.0
 40
4.7808527861594561
 50
87.3583030932592948
 51
89.0305605806352105
  0
ARC
  5
2BA2A
  8
0
 10
5617.287044458183118
 20
409.7392958075475917
 30
0.0
 40
1.4304035490975719
 50
83.7374535128993642
 51
87.3685597503707783
  0
ARC
  5
2BA2B
  8
0
 10
5617.4286640495847678
 20
411.0298037231336821
 30
0.0
 40
0.1321482626230084
 50
73.9142314598675654
 51
83.7374535128993642
  0
ARC
  5
2BA2C
  8
0
 10
5617.462903303906387
 20
411.148539085009304
 30
0.0
 40
0.0085747513186286
 50
43.575021399477933
 51
73.9142314598675654
  0
ARC
  5
2BBAE
  8
0
 10
5616.6997988683242511
 20
411.1839195628327275
 30
0.0
 40
0.019316805354293
 50
1.666276132851028
 51
24.2436081928389413
  0
ARC
  5
2BBAF
  8
0
 10
5616.7001688515028945
 20
411.1833284676507105
 30
0.0
 40
0.0192345775769264
 50
26.3020577050697284
 51
53.5967600911614568
  0
ARC
  5
2BBB0
  8
0
 10
5616.7010250790171995
 20
411.1821046476862875
 30
0.0
 40
0.0197621954938415
 50
57.7039995241986432
 51
92.9637914909236827
  0
ARC
  5
2BBB1
  8
0
 10
5616.6995193758502865
 20
411.211186813653228
 30
0.0
 40
0.0093589226053431
 50
234.6526366088577902
 51
272.9637914909237111
  0
ARC
  5
2BBB2
  8
0
 10
5616.6984043781903893
 20
411.2125472972074931
 30
0.0
 40
0.0099689734840423
 50
216.510816027917997
 51
244.4510500383358931
  0
ARC
  5
2BBB3
  8
0
 10
5616.698424809919743
 20
411.2125676490250044
 30
0.0
 40
0.0099975050710477
 50
179.993335456910188
 51
216.5348937347341973
  0
LINE
  5
2BBB4
  8
0
 10
5616.6884273049163312
 20
411.212568811916924
 30
0.0
 11
5616.6884270534173993
 21
411.9825121832168975
 31
0.0
  0
ARC
  5
2BBB5
  8
0
 10
5616.6984075669197409
 20
411.9825164019301269
 30
0.0
 40
0.0099802628945004
 50
159.6371876112361008
 51
180.0242192482185999
  0
ARC
  5
2BBB6
  8
0
 10
5612.2451854685523358
 20
412.0387763593662953
 30
0.0
 40
4.4739318662886642
 50
359.6579823502862041
 51
0.0539266623546676
  0
ARC
  5
2BBB7
  8
0
 10
5616.7044043093237633
 20
412.0121574761662941
 30
0.0
 40
0.0146335767770576
 50
330.4820721341977787
 51
359.6579823502862041
  0
ARC
  5
2BBB8
  8
0
 10
5616.7009748058799232
 20
412.0140992126969195
 30
0.0
 40
0.0185746216421478
 50
308.9819682849234823
 51
330.4820721341977787
  0
LINE
  5
2BBBA
  8
0
 10
5617.1077144176169895
 20
412.0145901646170046
 30
0.0
 11
5617.0918065467167253
 21
412.0145901646170046
 31
0.0
  0
ARC
  5
2BBBB
  8
0
 10
5617.0917999903531381
 20
412.0046001138777001
 30
0.0
 40
0.0099900528906739
 50
89.9623973998351119
 51
180.057058966899092
  0
LINE
  5
2BBBC
  8
0
 10
5617.08180994241593
 20
412.0045901651168947
 30
0.0
 11
5617.0818136861016683
 21
411.2343606104544165
 31
0.0
  0
ARC
  5
2BBBD
  8
0
 10
5617.0918361090243707
 20
411.2346881681871196
 30
0.0
 40
0.0100277741954162
 50
181.8719024180078065
 51
269.5972630337067812
  0
LINE
  5
2BBBE
  8
0
 10
5617.0917656235160393
 20
411.2246606417169232
 30
0.0
 11
5617.107755340816766
 21
411.2246606417169232
 31
0.0
  0
ARC
  5
2BBBF
  8
0
 10
5617.1817201041558292
 20
411.279166575656518
 30
0.0
 40
0.1457829608875046
 50
197.8661737949088035
 51
205.5465635539702873
  0
ARC
  5
2BBC0
  8
0
 10
5617.0793209254161411
 20
411.2303059391016973
 30
0.0
 40
0.0323240342212742
 50
205.6800325866066999
 51
219.9226621124790029
  0
LINE
  5
2BBC1
  8
0
 10
5617.0545312557178477
 20
411.2095618926168754
 30
0.0
 11
5617.0734700564180457
 21
411.2095618926168754
 31
0.0
  0
ARC
  5
2BBC2
  8
0
 10
5617.0704925424015528
 20
411.2141621622088223
 30
0.0
 40
0.0054797874071582
 50
302.912871231855604
 51
333.944686325307714
  0
ARC
  5
2BBC3
  8
0
 10
5616.9824135882035989
 20
411.2572264477414024
 30
0.0
 40
0.1035228129669595
 50
333.944686325307714
 51
345.2832994461554108
  0
LINE
  5
2BBC4
  8
0
 10
5617.04296690524734
 20
412.0043452633669858
 30
0.0
 11
5617.0429674252636687
 21
411.234441126685681
 31
0.0
  0
ARC
  5
2BBC5
  8
0
 10
5617.0329329961932672
 20
411.2344470680130257
 30
0.0
 40
0.0100344307825846
 50
270.380513026972892
 51
359.9660756831486879
  0
LINE
  5
2BBC6
  8
0
 10
5617.0329996364180261
 20
411.2244128585169278
 30
0.0
 11
5617.0188123525667834
 21
411.2242833259164172
 31
0.0
  0
ARC
  5
2BBC7
  8
0
 10
5617.0189019872123026
 20
411.2342718438712268
 30
0.0
 40
0.0099889201268806
 50
179.4917961233055053
 51
269.4858547508998186
  0
LINE
  5
2BBC8
  8
0
 10
5617.008913460016629
 20
411.2343604427420019
 30
0.0
 11
5617.0089217610620835
 21
412.0046212328787192
 31
0.0
  0
ARC
  5
2BBC9
  8
0
 10
5617.0179778001338491
 20
412.0046211352824912
 30
0.0
 40
0.0090560390737143
 50
132.955514989818397
 51
179.9993825274976018
  0
ARC
  5
2BBCA
  8
0
 10
5617.0193765152853302
 20
412.0031188601532222
 30
0.0
 40
0.0111086556078742
 50
92.9109816884123489
 51
132.955514989818397
  0
LINE
  5
2BBCB
  8
0
 10
5617.0188123693169473
 20
412.014213181616924
 30
0.0
 11
5617.0332573409168617
 21
412.0143385004170113
 31
0.0
  0
ARC
  5
2BBCC
  8
0
 10
5617.0330066150891071
 20
412.0043695561125219
 30
0.0
 40
0.0099720967698546
 50
36.6018156139873199
 51
88.559275342375372
  0
ARC
  5
2BBCD
  8
0
 10
5617.0330539535552816
 20
412.0044047150875031
 30
0.0
 40
0.0099131299664298
 50
359.6563796596344105
 51
36.6018156139899418
  0
ARC
  5
2BBCE
  8
0
 10
5616.9618052280729898
 20
412.0035894663161002
 30
0.0
 40
0.0098225409261735
 50
359.7201294974937014
 51
93.8332251520967162
  0
LINE
  5
2BBCF
  8
0
 10
5616.9611485666300723
 20
412.0133900329321932
 30
0.0
 11
5616.9477943455240165
 21
412.0131109673542937
 31
0.0
  0
ARC
  5
2BBD0
  8
0
 10
5616.9485839179169488
 20
412.0031421873169961
 30
0.0
 40
0.01
 50
94.5286303502739287
 51
180.0
  0
LINE
  5
2BBD1
  8
0
 10
5616.9385839179167306
 20
412.0031421873169961
 30
0.0
 11
5616.9385839179167306
 21
411.2331988160169089
 31
0.0
  0
ARC
  5
2BBD2
  8
0
 10
5616.9485702227339061
 20
411.2331988160169089
 30
0.0
 40
0.0099863048175184
 50
180.0
 51
270.0785766504308185
  0
LINE
  5
2BBD3
  8
0
 10
5616.9485839181606934
 20
411.2232125205904936
 30
0.0
 11
5616.9621206499687105
 21
411.2234777552711762
 31
0.0
  0
ARC
  5
2BBD4
  8
0
 10
5616.9617128518839309
 20
411.2333864267520198
 30
0.0
 40
0.0099170595335181
 50
272.3567166124843197
 51
1.2231234776509849
  0
LINE
  5
2BBD5
  8
0
 10
5616.9716276518165614
 20
411.2335981154170099
 30
0.0
 11
5616.9716276518165614
 21
412.0035414867169266
 31
0.0
  0
ARC
  5
2BBD6
  8
0
 10
5616.8832206951892658
 20
412.0014116550848939
 30
0.0
 40
0.0099994745732278
 50
92.1946188505663855
 51
179.9996279474133019
  0
LINE
  5
2BBD7
  8
0
 10
5616.8828377757163253
 20
412.0114037952170065
 30
0.0
 11
5616.8946759801719963
 21
412.0117788831539087
 31
0.0
  0
ARC
  5
2BBD8
  8
0
 10
5616.8949369676338392
 20
412.0022485294477974
 30
0.0
 40
0.0095339265897002
 50
358.6628722768950865
 51
91.568645215760327
  0
LINE
  5
2BBD9
  8
0
 10
5616.9044682981157166
 20
412.0020260537169179
 30
0.0
 11
5616.9044345464180878
 21
411.2312217861467047
 31
0.0
  0
ARC
  5
2BBDA
  8
0
 10
5616.8943569416423998
 20
411.2319086153942749
 30
0.0
 40
0.0101009827459186
 50
276.2985413036711861
 51
356.1010917782895149
  0
LINE
  5
2BBDB
  8
0
 10
5616.8954651104168079
 20
411.2218686047169172
 30
0.0
 11
5616.8825131763169338
 21
411.2214934495169132
 31
0.0
  0
ARC
  5
2BBDC
  8
0
 10
5616.8832598197786865
 20
411.2314703042517863
 30
0.0
 40
0.0100046939326366
 50
179.7646993299071028
 51
265.8102510338554794
  0
LINE
  5
2BBDD
  8
0
 10
5616.8732552102137561
 20
411.2315113911274125
 30
0.0
 11
5616.8732212206168697
 21
412.0014117200169039
 31
0.0
  0
ARC
  5
2BBDE
  8
0
 10
5616.8346183627227219
 20
412.000415228643476
 30
0.0
 40
0.0091781485724721
 50
356.7188992897919206
 51
85.8450968462444735
  0
LINE
  5
2BBDF
  8
0
 10
5616.8352833489561817
 20
412.0095692553273921
 30
0.0
 11
5616.82484580091932
 21
412.0090829186349879
 31
0.0
  0
ARC
  5
2BBE0
  8
0
 10
5616.8250742370528314
 20
411.9990675509731091
 30
0.0
 40
0.0100179724730337
 50
91.3066077912901335
 51
179.9201148430684896
  0
LINE
  5
2BBE1
  8
0
 10
5616.8150562743157934
 20
411.9990815186168902
 30
0.0
 11
5616.815096515228106
 21
411.2282419336742123
 31
0.0
  0
ARC
  5
2BBE2
  8
0
 10
5616.8250562742468901
 20
411.2291381472965099
 30
0.0
 40
0.0099999999293637
 50
185.1418247548153033
 51
267.2059501712329848
  0
LINE
  5
2BBE3
  8
0
 10
5616.8245688138167679
 20
411.2191500353168863
 30
0.0
 11
5616.836501948597288
 21
411.2197256531019889
 31
0.0
  0
ARC
  5
2BBE4
  8
0
 10
5616.8326120236206407
 20
411.2301988857033734
 30
0.0
 40
0.0111722923984498
 50
290.3757965504477738
 51
358.7058090626659919
  0
LINE
  5
2BBE5
  8
0
 10
5616.8437814660155709
 20
411.2299465486169083
 30
0.0
 11
5616.8437814660155709
 21
411.9998899199169955
 31
0.0
  0
ARC
  5
2BBE6
  8
0
 10
5616.7823652138677062
 20
411.997835937967011
 30
0.0
 40
0.0092945131991565
 50
356.1137233750930022
 51
75.2193781693806613
  0
LINE
  5
2BBE7
  8
0
 10
5616.7847364184699472
 20
412.0068228931993985
 30
0.0
 11
5616.7753728254338057
 21
412.0062064927071788
 31
0.0
  0
ARC
  5
2BBE8
  8
0
 10
5616.7760731293310528
 20
411.9962316153367965
 30
0.0
 40
0.0099990801274269
 50
94.0159609594140875
 51
180.0028880868183023
  0
LINE
  5
2BBE9
  8
0
 10
5616.7660740492156037
 20
411.9962311113170017
 30
0.0
 11
5616.7661128594627371
 21
411.2262877409950761
 31
0.0
  0
ARC
  5
2BBEA
  8
0
 10
5616.7761057791067287
 20
411.2262882447045058
 30
0.0
 40
0.0099929196580261
 50
180.002888086821514
 51
268.899717326253608
  0
LINE
  5
2BBEB
  8
0
 10
5616.7759138913161223
 20
411.2162971675670065
 30
0.0
 11
5616.7850818555180012
 21
411.2168807032873019
 31
0.0
  0
ARC
  5
2BBEC
  8
0
 10
5616.7798600438791254
 20
411.2274397113459941
 30
0.0
 40
0.0117796420995067
 50
296.3140617415598967
 51
359.1385950101843036
  0
LINE
  5
2BBED
  8
0
 10
5616.7916383547162695
 20
411.2272626187169067
 30
0.0
 11
5616.7916383547162695
 21
411.9972059900168802
 31
0.0
  0
LINE
  5
2BBEE
  8
0
 10
5616.68905099029962
 20
411.9859891704808774
 30
0.0
 11
5616.6890448887170351
 21
411.2156564640168881
 31
0.0
  0
ARC
  5
2BBEF
  8
0
 10
5616.6990512210541056
 20
411.2156563847595976
 30
0.0
 40
0.0100063323377907
 50
179.9995461766384892
 51
266.835947420931177
  0
ARC
  5
2BBF0
  8
0
 10
5616.7003209990680261
 20
411.1863630799496718
 30
0.0
 40
0.0193880351329309
 50
47.6621878020027481
 51
95.3925878527799256
  0
ARC
  5
2BBF1
  8
0
 10
5616.7005544766898311
 20
411.1875981811284078
 30
0.0
 40
0.0183296768682439
 50
357.9978042016127802
 51
45.6010041330274305
  0
ARC
  5
2BBF2
  8
0
 10
5616.7380329110055754
 20
411.2231248047654049
 30
0.0
 40
0.0101125317501948
 50
179.9739859468315899
 51
268.3239708498506957
  0
LINE
  5
2BBF3
  8
0
 10
5616.7377371391166889
 20
411.2130165993169157
 30
0.0
 11
5616.7449479712158791
 21
411.2137763485986284
 31
0.0
  0
ARC
  5
2BBF4
  8
0
 10
5616.7421555427426938
 20
411.2202472015005128
 30
0.0
 40
0.007047665859074
 50
293.3421045106808265
 51
350.5932021215501777
  0
ARC
  5
2BBF5
  8
0
 10
5616.64408756658122
 20
411.23649420410311
 30
0.0
 40
0.1064523591176204
 50
350.5932021215501777
 51
353.3261010077480933
  0
LINE
  5
2BBF6
  8
0
 10
5616.7498185721169648
 20
411.2241224932168961
 30
0.0
 11
5616.7498185721169648
 21
411.9940658645169833
 31
0.0
  0
ARC
  5
2BBF7
  8
0
 10
5616.7396918922740952
 20
411.9947474249570973
 30
0.0
 40
0.0101495896115168
 50
356.1496034298411928
 51
61.1031667267618133
  0
LINE
  5
2BBF8
  8
0
 10
5616.7445965190163406
 20
412.0036333017170023
 30
0.0
 11
5616.7345377803176234
 21
412.0023589059392748
 31
0.0
  0
ARC
  5
2BBF9
  8
0
 10
5616.7379464221166927
 20
411.992957780416873
 30
0.0
 40
0.0100000000000035
 50
109.9295333177395975
 51
179.9999410617720059
  0
LINE
  5
2BBFA
  8
0
 10
5616.7279464221155649
 20
411.9929577907035991
 30
0.0
 11
5616.7279203802982011
 21
411.2231293961668825
 31
0.0
  0
ARC
  5
2BBFB
  8
0
 10
5616.7119990724067975
 20
411.2194443801035959
 30
0.0
 40
0.0100245267904837
 50
180.082926434359706
 51
258.8947282971976165
  0
ARC
  5
2BBFC
  8
0
 10
5616.7097942851078187
 20
411.1684837471274818
 30
0.0
 40
0.0411247283880645
 50
78.4189263231797327
 51
89.6183377392014648
  0
ARC
  5
2BBFD
  8
0
 10
5616.7151808225571585
 20
411.1965184885121971
 30
0.0
 40
0.0125842603932623
 50
5.7416529833924406
 51
76.8196263801243902
  0
ARC
  5
2BBFE
  8
0
 10
5616.7614945906334469
 20
411.1960654244896887
 30
0.0
 40
0.0338359820740847
 50
177.0997104682622023
 51
186.3836223594217927
  0
ARC
  5
2BBFF
  8
0
 10
5616.7246249277623065
 20
411.1969059152725094
 30
0.0
 40
0.0056305850696232
 50
264.437657801772275
 51
305.1728752547460886
  0
ARC
  5
2BC00
  8
0
 10
5616.7367746087102205
 20
411.2026349448091196
 30
0.0
 40
0.0170180364600116
 50
209.1268181273267999
 51
221.7549801086373975
  0
ARC
  5
2BC01
  8
0
 10
5616.7001746801815898
 20
411.1809084187801204
 30
0.0
 40
0.0255554278815267
 50
31.7380614361717583
 51
85.9259852826705952
  0
ARC
  5
2BC02
  8
0
 10
5616.7007783322496834
 20
411.216517567716096
 30
0.0
 40
0.0101906191542397
 50
180.3009973490833033
 51
276.830154157051993
  0
LINE
  5
2BC03
  8
0
 10
5616.6905878537163517
 20
411.2164640326168978
 30
0.0
 11
5616.6905878537163517
 21
411.986407403916985
 31
0.0
  0
ARC
  5
2BC04
  8
0
 10
5616.7005117373983012
 20
411.986420603261422
 30
0.0
 40
0.0099238924587252
 50
97.5589668559612306
 51
180.0762066858164872
  0
ARC
  5
2BC05
  8
0
 10
5616.699453096124671
 20
411.9853421550687926
 30
0.0
 40
0.0104222087173999
 50
112.3048172905403987
 51
176.4407634906642102
  0
ARC
  5
2BC06
  8
0
 10
5616.6991055954722469
 20
412.0613393050842888
 30
0.0
 40
0.0650811258510425
 50
270.0886438509867844
 51
275.1825494867039765
  0
ARC
  5
2BC07
  8
0
 10
5616.7182862648942319
 20
411.9657700514458725
 30
0.0
 40
0.0343747157395979
 50
99.356590770722903
 51
107.0940293104536067
  0
ARC
  5
2BC08
  8
0
 10
5616.7119745561167292
 20
411.9893732425168764
 30
0.0
 40
0.0100000000000271
 50
112.2867382489612993
 51
134.34867697803449
  0
ARC
  5
2BC09
  8
0
 10
5616.7119745561167292
 20
411.9893732425168764
 30
0.0
 40
0.0100000000000028
 50
134.3486769781013948
 51
180.0
  0
LINE
  5
2BC0A
  8
0
 10
5616.7019745561156014
 20
411.9893732425168764
 30
0.0
 11
5616.7019745561156014
 21
411.2194298712170166
 31
0.0
  0
ARC
  5
2BC0B
  8
0
 10
5616.716994088451429
 20
411.1926335758154778
 30
0.0
 40
0.0175026799167853
 50
68.1750466108957625
 51
105.1841268132941991
  0
ARC
  5
2BC0C
  8
0
 10
5616.7096786883093955
 20
411.174366846840087
 30
0.0
 40
0.0371797850574198
 50
44.051942595070642
 51
68.1750466108957625
  0
ARC
  5
2BC0D
  8
0
 10
5616.8113191045604253
 20
411.272698085451907
 30
0.0
 40
0.1042408877695133
 50
224.0519425950706989
 51
228.3497182052796859
  0
LINE
  5
2BC0E
  8
0
 10
5616.742042464817132
 20
411.1948077146170135
 30
0.0
 11
5616.7492874085583026
 21
411.1957557143409758
 31
0.0
  0
ARC
  5
2BC0F
  8
0
 10
5616.7006491292104329
 20
411.2000730856327095
 30
0.0
 40
0.0488295013453868
 50
354.927436828706675
 51
9.0325053958423496
  0
ARC
  5
2BC10
  8
0
 10
5616.7382591918012622
 20
411.1997305467887145
 30
0.0
 40
0.0132963052261648
 50
37.0356168261449525
 51
92.2501863983976165
  0
ARC
  5
2BC11
  8
0
 10
5616.7442483329632523
 20
411.19629965290261
 30
0.0
 40
0.017490694272445
 50
66.8608298686210674
 51
87.7075228596681882
  0
ARC
  5
2BC12
  8
0
 10
5616.7333102432803571
 20
411.1707041625159036
 30
0.0
 40
0.0453254016367397
 50
51.2633170136714114
 51
66.8608298686210674
  0
ARC
  5
2BC13
  8
0
 10
5616.6472390887183792
 20
411.0634106495764968
 30
0.0
 40
0.1828759071484618
 50
48.3243122674683576
 51
51.2633170136714114
  0
ARC
  5
2BC14
  8
0
 10
5616.7755907242226385
 20
411.2075924981112962
 30
0.0
 40
0.0101591875463512
 50
228.3243122674684003
 51
249.4330557480342065
  0
ARC
  5
2BC15
  8
0
 10
5616.7745294505530183
 20
411.231482042110315
 30
0.0
 40
0.0334952107642405
 50
265.7064560700536049
 51
283.7224228908277723
  0
ARC
  5
2BC16
  8
0
 10
5616.7769714832365935
 20
411.2031574494424149
 30
0.0
 40
0.013200372745339
 50
54.9833265248788905
 51
95.2932845591912638
  0
ARC
  5
2BC17
  8
0
 10
5616.7789377901326588
 20
411.2079580021102174
 30
0.0
 40
0.0082205220519291
 50
335.7185225134184066
 51
46.9820839626964997
  0
ARC
  5
2BC18
  8
0
 10
5616.7775922673035893
 20
411.2065770845410952
 30
0.0
 40
0.0090621714408061
 50
302.6032100454671081
 51
347.2530787932738008
  0
ARC
  5
2BC19
  8
0
 10
5616.7843685134666885
 20
411.2013499193001849
 30
0.0
 40
0.0155471575581543
 50
54.7880142230804807
 51
87.3702046266440675
  0
ARC
  5
2BC1A
  8
0
 10
5617.158877605370435
 20
411.7320146887831243
 30
0.0
 40
0.6339620090354071
 50
234.788014223080495
 51
236.1576831176508904
  0
ARC
  5
2BC1B
  8
0
 10
5616.8725917528099671
 20
411.3050484851028727
 30
0.0
 40
0.1199000201066551
 50
236.1576831176508904
 51
240.1941464221071953
  0
ARC
  5
2BC1C
  8
0
 10
5616.8166596672463129
 20
411.254599894914918
 30
0.0
 40
0.053715643647004
 50
266.0869067305624185
 51
280.3376667620780722
  0
ARC
  5
2BC1D
  8
0
 10
5616.8257175741628089
 20
411.2091014111834966
 30
0.0
 40
0.0100924078952877
 50
45.8505654619654379
 51
92.4994552157170347
  0
ARC
  5
2BC1E
  8
0
 10
5616.827618641393201
 20
411.2131142508748098
 30
0.0
 40
0.006060311553929
 50
343.4083339034633013
 51
32.1924597230169596
  0
ARC
  5
2BC1F
  8
0
 10
5616.8169783099692722
 20
411.215489313231501
 30
0.0
 40
0.016952961078807
 50
327.1120215370057167
 51
345.985072053568274
  0
ARC
  5
2BC20
  8
0
 10
5616.8225683523251064
 20
411.2107381902300745
 30
0.0
 40
0.0097258924157424
 50
292.5548169544360917
 51
332.7428885951590019
  0
ARC
  5
2BC21
  8
0
 10
5616.8340632812796684
 20
411.207746721671981
 30
0.0
 40
0.0122246430004083
 50
62.0913594094064294
 51
78.4929905666336936
  0
ARC
  5
2BC22
  8
0
 10
5616.8140813864920347
 20
411.1700212481761127
 30
0.0
 40
0.054915244656654
 50
53.4502854409599877
 51
62.0913594094064294
  0
ARC
  5
2BC23
  8
0
 10
5617.0245370929460478
 20
411.4539203014455211
 30
0.0
 40
0.2984829398691765
 50
233.4502854409599877
 51
235.917753535265291
  0
ARC
  5
2BC24
  8
0
 10
5616.8734670389503663
 20
411.2306417687369162
 30
0.0
 40
0.0288990672381189
 50
235.917753535265291
 51
249.9527048482383123
  0
ARC
  5
2BC25
  8
0
 10
5616.8685540475908056
 20
411.2778597902267279
 30
0.0
 40
0.0745335546446159
 50
266.1585078853731829
 51
278.2608917156355801
  0
ARC
  5
2BC26
  8
0
 10
5616.8832377009557604
 20
411.2159169130279111
 30
0.0
 40
0.0056234060336711
 50
21.4532448143271495
 51
97.4026192477482056
  0
ARC
  5
2BC27
  8
0
 10
5616.8825061475481562
 20
411.2156294358562718
 30
0.0
 40
0.0064094171730937
 50
330.8257128794675737
 51
21.4532448143301799
  0
ARC
  5
2BC28
  8
0
 10
5616.8668801768999401
 20
411.2243532950906797
 30
0.0
 40
0.0243056927267626
 50
309.5343448071777175
 51
330.8257128794675737
  0
ARC
  5
2BC29
  8
0
 10
5616.8776688033731261
 20
411.2112816169528742
 30
0.0
 40
0.0073568511572127
 50
282.5156924593350141
 51
309.5343448071798207
  0
ARC
  5
2BC2A
  8
0
 10
5616.8953045577081866
 20
411.217028674700714
 30
0.0
 40
0.0048425922473572
 50
44.2905492922224369
 51
88.100049916826805
  0
ARC
  5
2BC2B
  8
0
 10
5617.6910247921587143
 20
412.3094921888957742
 30
0.0
 40
1.346761180076818
 50
233.9659424258923934
 51
234.6563482313478914
  0
ARC
  5
2BC2C
  8
0
 10
5616.9308273363540138
 20
411.2335228927655066
 30
0.0
 40
0.0294304711502045
 50
230.1056589266607944
 51
252.5378574449206042
  0
ARC
  5
2BC2D
  8
0
 10
5616.9307779897653745
 20
411.4046498581145102
 30
0.0
 40
0.1993946347902353
 50
267.4756820958319281
 51
272.5243179041680719
  0
ARC
  5
2BC2E
  8
0
 10
5616.9196403157720852
 20
411.2377162747234252
 30
0.0
 40
0.0379208354397174
 50
301.6882249934508877
 51
331.2117511518692936
  0
ARC
  5
2BC2F
  8
0
 10
5616.9483951224819975
 20
411.2186688209836802
 30
0.0
 40
0.004547620248635
 50
9.9498761881204807
 51
87.6206664821826706
  0
ARC
  5
2BC30
  8
0
 10
5616.9616924610891147
 20
411.2213207931462762
 30
0.0
 40
0.0021725853063019
 50
31.2482226858473986
 51
82.4615208433503994
  0
ARC
  5
2BC31
  8
0
 10
5616.9812900396209443
 20
411.2372353650719106
 30
0.0
 40
0.0230951389114765
 50
219.8133308440966971
 51
234.3192129252489053
  0
ARC
  5
2BC32
  8
0
 10
5617.0131777904325645
 20
411.2698615905511019
 30
0.0
 40
0.0685412297112954
 50
228.5651120767568045
 51
246.9172842022182977
  0
ARC
  5
2BC33
  8
0
 10
5616.9942074455193506
 20
411.3132252661206962
 30
0.0
 40
0.1067104513784833
 50
265.7533633749990258
 51
275.8759112905046891
  0
ARC
  5
2BC34
  8
0
 10
5616.9925899366089652
 20
411.2382882817141194
 30
0.0
 40
0.0336383547756658
 50
291.8912331259917892
 51
325.835241009341928
  0
ARC
  5
2BC35
  8
0
 10
5617.0187046484443272
 20
411.2215432913988025
 30
0.0
 40
0.0027488833484636
 50
308.695274665288423
 51
85.6475714066075682
  0
ARC
  5
2BC36
  8
0
 10
5616.7055928378604222
 20
412.0140887341984239
 30
0.0
 40
0.0160660614505385
 50
296.0949285492521881
 51
323.0591011303347955
  0
ARC
  5
2BC37
  8
0
 10
5616.6553541672892607
 20
412.0518651026969223
 30
0.0
 40
0.0789228672689942
 50
323.059101130366173
 51
330.550180934492289
  0
ARC
  5
2BC38
  8
0
 10
5616.7154971548416142
 20
412.0131506943146746
 30
0.0
 40
0.0135201920986391
 50
285.0095400956184903
 51
310.9246760257827873
  0
ARC
  5
2BC39
  8
0
 10
5616.7179634099684336
 20
412.0103060480101931
 30
0.0
 40
0.0097552980836831
 50
310.9246760257827873
 51
340.9959468022253759
  0
ARC
  5
2BC3A
  8
0
 10
5616.7129652397634345
 20
412.0120274515371079
 30
0.0
 40
0.0150415950395124
 50
340.9959468022285023
 51
7.7789648640146991
  0
ARC
  5
2BC3B
  8
0
 10
5616.7271262286803903
 20
412.0092024419186032
 30
0.0
 40
0.0049172508688239
 50
81.3188604729155742
 51
128.2921933069204954
  0
ARC
  5
2BC3C
  8
0
 10
5616.7224887148586276
 20
411.9410008311600109
 30
0.0
 40
0.0594977449244828
 50
96.9200581622378934
 51
99.4717620515353218
  0
ARC
  5
2BC3D
  8
0
 10
5616.7157816976614413
 20
412.1904090807190073
 30
0.0
 40
0.190344491952602
 50
269.8610738125556736
 51
270.9683727442655936
  0
ARC
  5
2BC3E
  8
0
 10
5616.7177153978518618
 20
412.0175637096721744
 30
0.0
 40
0.0175262230489078
 50
274.0365983082795083
 51
286.0664167948979184
  0
ARC
  5
2BC3F
  8
0
 10
5616.7148532360079116
 20
412.0257653152655735
 30
0.0
 40
0.0262040009901022
 50
287.1172420740285247
 51
312.4267930227127863
  0
ARC
  5
2BC40
  8
0
 10
5616.6899352917844226
 20
412.0530283320658782
 30
0.0
 40
0.0631387546693214
 50
312.4267930227127863
 51
322.1528604534582882
  0
ARC
  5
2BC41
  8
0
 10
5616.7504904991583317
 20
412.0059770498725129
 30
0.0
 40
0.0135473346572975
 50
128.5788915596230879
 51
142.1528604534927922
  0
ARC
  5
2BC42
  8
0
 10
5616.7416362578478584
 20
412.0132996450548148
 30
0.0
 40
0.0101094678254422
 50
287.026901272995417
 51
348.2834548407176953
  0
ARC
  5
2BC43
  8
0
 10
5616.7424358672860762
 20
412.011521721717088
 30
0.0
 40
0.0091033744869367
 50
358.2688695035355977
 51
41.180442963257299
  0
ARC
  5
2BC44
  8
0
 10
5616.7476913550826794
 20
412.0015552678439121
 30
0.0
 40
0.016040019104867
 50
84.289293138622142
 51
110.6202787216616059
  0
ARC
  5
2BC45
  8
0
 10
5616.7460929640346876
 20
412.0185722605839942
 30
0.0
 40
0.0150137217146978
 50
264.2797270710565272
 51
281.0690726442123832
  0
ARC
  5
2BC46
  8
0
 10
5616.741365858768404
 20
412.0318569202908066
 30
0.0
 40
0.0290340284641973
 50
285.1943058159117754
 51
306.7961730887262775
  0
ARC
  5
2BC47
  8
0
 10
5616.7004808549409063
 20
412.0861138383839943
 30
0.0
 40
0.0969706111720878
 50
306.9387284314011026
 51
316.0640148611907989
  0
ARC
  5
2BC48
  8
0
 10
5616.7736459005973302
 20
412.0151370242027724
 30
0.0
 40
0.0049762508845403
 50
109.0480361197375032
 51
132.0813370321141917
  0
ARC
  5
2BC49
  8
0
 10
5616.7799105359026726
 20
411.9879924962635869
 30
0.0
 40
0.0328107600622184
 50
85.5169648323088865
 51
103.9119157336509005
  0
ARC
  5
2BC4A
  8
0
 10
5616.7780995462162537
 20
412.0186165614207994
 30
0.0
 40
0.0125187584073672
 50
286.6385031490918891
 51
299.5657933146330834
  0
ARC
  5
2BC4B
  8
0
 10
5616.7815574263486269
 20
412.0125211211965848
 30
0.0
 40
0.0055108110231903
 50
299.5657933146330834
 51
1.3300018565197089
  0
ARC
  5
2BC4C
  8
0
 10
5616.7764113204857495
 20
412.0124016436363945
 30
0.0
 40
0.0106583036592544
 50
1.3300018565197089
 51
27.2790281327230097
  0
ARC
  5
2BC4D
  8
0
 10
5616.7749144970894122
 20
412.0116297691748741
 30
0.0
 40
0.0123424267150591
 50
27.2790281327230097
 51
41.3091218757074969
  0
ARC
  5
2BC4E
  8
0
 10
5616.7821046935614504
 20
412.0179750513050863
 30
0.0
 40
0.0027528619440143
 50
40.8946347872204186
 51
82.2660950483355009
  0
ARC
  5
2BC4F
  8
0
 10
5616.7860774728978868
 20
412.0224073821818251
 30
0.0
 40
0.0156420818251037
 50
265.0817799652176063
 51
285.8265864083857082
  0
ARC
  5
2BC50
  8
0
 10
5616.7644618628210083
 20
412.061618852239917
 30
0.0
 40
0.0601171314538844
 50
295.5005610575365154
 51
303.8448347077700191
  0
ARC
  5
2BC51
  8
0
 10
5616.9827571757423357
 20
411.7764332110357941
 30
0.0
 40
0.299167316124559
 50
124.5727611668552015
 51
128.1526768481564034
  0
ARC
  5
2BC52
  8
0
 10
5616.8225844203379893
 20
411.9707949643063216
 30
0.0
 40
0.0528518978413879
 50
85.9698313235887497
 51
100.4547433759750987
  0
ARC
  5
2BC53
  8
0
 10
5616.8274508053918908
 20
412.0143976817543034
 30
0.0
 40
0.0052005003904948
 50
277.2360612752593738
 51
8.8207745889900657
  0
ARC
  5
2BC54
  8
0
 10
5616.8003618708053182
 20
412.0042657376271791
 30
0.0
 40
0.0340307411892591
 50
18.7332647248132709
 51
30.51318900338239
  0
ARC
  5
2BC55
  8
0
 10
5616.8252852734631233
 20
412.0178938250803071
 30
0.0
 40
0.0057129919615436
 50
39.7168562163637304
 51
79.7797650948146924
  0
ARC
  5
2BC56
  8
0
 10
5616.8365388095626258
 20
412.0398016790907718
 30
0.0
 40
0.0302587304880075
 50
267.6220880386338195
 51
273.3479181584336857
  0
ARC
  5
2BC57
  8
0
 10
5616.8363106179258466
 20
412.0187634255967168
 30
0.0
 40
0.0093834236649967
 50
282.2769736895093047
 51
298.9532007919524972
  0
ARC
  5
2BC58
  8
0
 10
5616.8122515350232788
 20
412.0660837401662207
 30
0.0
 40
0.062463875365431
 50
297.2510037759345209
 51
304.2154161894338813
  0
ARC
  5
2BC59
  8
0
 10
5616.6488235236902256
 20
412.2991957627456827
 30
0.0
 40
0.3471513519394213
 50
304.886035924148473
 51
307.3605888464783789
  0
ARC
  5
2BC5A
  8
0
 10
5616.8660980089107397
 20
412.0148675908783957
 30
0.0
 40
0.0106915227691154
 50
103.7286302908482014
 51
128.2079223200138927
  0
ARC
  5
2BC5B
  8
0
 10
5616.8742272886756837
 20
411.9525917442039145
 30
0.0
 40
0.0734406669705778
 50
86.0681360777315803
 51
98.3512623737179723
  0
ARC
  5
2BC5C
  8
0
 10
5616.8767876995698316
 20
412.0153249078180124
 30
0.0
 40
0.0108215753707071
 50
39.5268724832798526
 51
76.7765681054707159
  0
ARC
  5
2BC5D
  8
0
 10
5616.8768120289660146
 20
412.0183032825721057
 30
0.0
 40
0.0091948802518973
 50
311.4000726075382204
 51
25.1581336198415997
  0
ARC
  5
2BC5E
  8
0
 10
5616.8884606631399947
 20
412.0333866659594833
 30
0.0
 40
0.0232702164443022
 50
290.7090903817477852
 51
307.0694688744559926
  0
ARC
  5
2BC5F
  8
0
 10
5617.0364373889824492
 20
411.8375094987151783
 30
0.0
 40
0.2222190420547983
 50
122.8860425810975983
 51
127.0694688744560068
  0
ARC
  5
2BC60
  8
0
 10
5616.9325449529633261
 20
411.9981885665612253
 30
0.0
 40
0.0308779824105319
 50
109.9766944123282997
 51
122.8860425810975983
  0
ARC
  5
2BC61
  8
0
 10
5616.9330908139936582
 20
411.9360112179626867
 30
0.0
 40
0.0918698729320584
 50
85.9620891096374464
 51
96.9364336694486042
  0
ARC
  5
2BC62
  8
0
 10
5616.933876919031718
 20
412.0091549199850078
 30
0.0
 40
0.0193514216907527
 50
51.2748001372890982
 51
72.9218283667613889
  0
ARC
  5
2BC63
  8
0
 10
5616.9267787899825635
 20
412.000302988143801
 30
0.0
 40
0.0306977926225682
 50
38.2259340219795192
 51
51.2748001372890982
  0
ARC
  5
2BC64
  8
0
 10
5616.9475197411229601
 20
412.0166397142762094
 30
0.0
 40
0.0042956019009675
 50
305.8476687591743257
 51
38.2259340219795192
  0
ARC
  5
2BC65
  8
0
 10
5617.0180695329490845
 20
411.9485730594058737
 30
0.0
 40
0.0849881976299626
 50
123.9736509924373991
 51
130.3583609859257137
  0
ARC
  5
2BC66
  8
0
 10
5616.8277515287591086
 20
412.2310111919802011
 30
0.0
 40
0.2555881395565458
 50
303.9736509924373991
 51
306.4691975464547795
  0
ARC
  5
2BC67
  8
0
 10
5616.990617464431125
 20
412.0106628649336926
 30
0.0
 40
0.0184167841846072
 50
103.540534674753502
 51
126.4691975464547937
  0
ARC
  5
2BC68
  8
0
 10
5616.9972127216033186
 20
411.9236371957180722
 30
0.0
 40
0.1054959155080346
 50
85.6949484685682563
 51
95.9344239433716552
  0
ARC
  5
2BC69
  8
0
 10
5616.9991963613802
 20
412.0072493209706863
 30
0.0
 40
0.022387327039451
 50
45.7108466234154918
 51
74.6252360182137409
  0
ARC
  5
2BC6A
  8
0
 10
5617.0058552238660923
 20
412.0151243299068824
 30
0.0
 40
0.0121225935721206
 50
355.3135922605342785
 51
42.2472449044264877
  0
ARC
  5
2BC6B
  8
0
 10
5617.0517036642986568
 20
412.0014266192272885
 30
0.0
 40
0.02251655519721
 50
124.9994680087480958
 51
145.0074085639116959
  0
ARC
  5
2BC6C
  8
0
 10
5616.9416751972958082
 20
412.1585666604069047
 30
0.0
 40
0.1693147667829109
 50
304.9994680087481811
 51
307.9824187063629211
  0
ARC
  5
2BC6D
  8
0
 10
5617.0602228516791001
 20
412.0067365740761147
 30
0.0
 40
0.0233142068290801
 50
104.7305423939142059
 51
127.9824187063629068
  0
ARC
  5
2BC6E
  8
0
 10
5617.0644892583213732
 20
411.917328807663182
 30
0.0
 40
0.1124188873064758
 50
85.2795931064156036
 51
95.2029572080603685
  0
ARC
  5
2BC6F
  8
0
 10
5617.0647482332751679
 20
412.000150359617578
 30
0.0
 40
0.0305685921904304
 50
47.6253234563275711
 51
72.8922205424419332
  0
ARC
  5
2BC70
  8
0
 10
5617.0384322547761258
 20
411.9627405581896937
 30
0.0
 40
0.0761606015795086
 50
47.675975519976447
 51
51.9719976987310091
  0
ARC
  5
2BC71
  8
0
 10
5617.0871745911290418
 20
412.0154405026460154
 30
0.0
 40
0.0044124995195438
 50
348.8307460688001811
 51
54.8824371405651235
  0
ARC
  5
2BC72
  8
0
 10
5616.7166337123753692
 20
411.9902138271980903
 30
0.0
 40
0.0101334775009247
 50
109.1598133509062052
 51
179.8042474976026028
  0
LINE
  5
2BC73
  8
0
 10
5616.7065002940171325
 20
411.9902484484168781
 30
0.0
 11
5616.7066075638940674
 21
411.2188135590567981
 31
0.0
  0
ARC
  5
2BC74
  8
0
 10
5616.7168789481520434
 20
411.2202752899372058
 30
0.0
 40
0.0103748730943109
 50
188.0994337024442871
 51
260.5435510578649883
  0
ARC
  5
2BC75
  8
0
 10
5616.7455246921472281
 20
411.2233955794728217
 30
0.0
 40
0.0098972242541524
 50
176.9198709102822988
 51
259.847994051106582
  0
LINE
  5
2BC76
  8
0
 10
5616.7356417657647398
 20
411.2239273821189158
 30
0.0
 11
5616.7356417656892518
 21
411.9938707534086006
 31
0.0
  0
ARC
  5
2BC77
  8
0
 10
5616.7457387422819011
 20
411.9940701074928029
 30
0.0
 40
0.0100989443909784
 50
114.732230554987396
 51
181.1310973384078977
  0
ARC
  5
2BC78
  8
0
 10
5616.7504912803224215
 20
411.9992331836505741
 30
0.0
 40
0.00496165078736
 50
38.3266211959783618
 51
93.9673652596376741
  0
ARC
  5
2BC79
  8
0
 10
5616.7373536775003231
 20
411.9888478152229823
 30
0.0
 40
0.0217083664435175
 50
16.4046862513882807
 51
38.3266211959783618
  0
LINE
  5
2BC7A
  8
0
 10
5616.7581783154164441
 20
411.9949786903085851
 30
0.0
 11
5616.7581783154164441
 21
411.2236452716991835
 31
0.0
  0
ARC
  5
2BC7B
  8
0
 10
5616.7438571701031833
 20
411.2246893488648993
 30
0.0
 40
0.0143591538828357
 50
300.7579879464685177
 51
355.8302520041639241
  0
ARC
  5
2BC7C
  8
0
 10
5616.8355872143501983
 20
412.0047406404531785
 30
0.0
 40
0.004838166669924
 50
93.6009538534277539
 51
136.7573448865805972
  0
ARC
  5
2BC7D
  8
0
 10
5616.8408160523731567
 20
412.000429673538008
 30
0.0
 40
0.0116089704984148
 50
138.9386647384577032
 51
182.2380691038445093
  0
LINE
  5
2BC7E
  8
0
 10
5616.8292159373158938
 20
411.999976323016881
 30
0.0
 11
5616.8293012423091568
 21
411.2284202888675964
 31
0.0
  0
ARC
  5
2BC7F
  8
0
 10
5616.8365692780880636
 20
411.225762323537424
 30
0.0
 40
0.0061875001086601
 50
206.1994893734483014
 51
259.6591481890324076
  0
ARC
  5
2BC80
  8
0
 10
5616.8481124140362226
 20
411.2314421228006722
 30
0.0
 40
0.0190523400668331
 50
189.1260490395735019
 51
206.1994893734483014
  0
ARC
  5
2BC81
  8
0
 10
5616.8390937719696012
 20
411.9994442875827758
 30
0.0
 40
0.0106332794256438
 50
6.5830423034199379
 51
86.1783346713962146
  0
LINE
  5
2BC82
  8
0
 10
5616.849656943417358
 20
412.0006633201169279
 30
0.0
 11
5616.849656943417358
 21
411.2288559215822943
 31
0.0
  0
ARC
  5
2BC83
  8
0
 10
5616.8376404268656188
 20
411.2301174076500843
 30
0.0
 40
0.0120825501078336
 50
282.2004521237217887
 51
354.0070774457694824
  0
LINE
  5
2BC84
  8
0
 10
5617.0545312578169614
 20
412.0293057894460276
 30
0.0
 11
5617.0545312578169614
 21
411.2095616906568125
 31
0.0
  0
LINE
  5
2BC85
  8
0
 10
5617.0734700564180457
 20
412.0293883966717772
 30
0.0
 11
5617.0734700564180457
 21
411.2095618926168754
 31
0.0
  0
LINE
  5
2BC86
  8
0
 10
5616.9864956599167272
 20
411.2067938384490731
 30
0.0
 11
5616.9864956599167272
 21
412.0285873399661796
 31
0.0
  0
LINE
  5
2BC87
  8
0
 10
5617.0048309733174392
 20
411.2070449426585128
 30
0.0
 11
5617.0048309733174392
 21
412.0288576805568823
 31
0.0
  0
LINE
  5
2BC88
  8
0
 10
5616.9221330470163593
 20
412.0272252568789781
 30
0.0
 11
5616.9221330470163593
 21
411.2054399035046117
 31
0.0
  0
LINE
  5
2BC89
  8
0
 10
5616.8636400702171159
 20
411.203488400604499
 30
0.0
 11
5616.8636400702171159
 21
412.0252652770089981
 31
0.0
  0
ARC
  5
2BC8A
  8
0
 10
5617.1083398025912174
 20
405.1907580341039079
 30
0.0
 40
6.900629682405186
 50
88.1250845819395749
 51
90.0712339309195045
  0
ARC
  5
2BC8B
  8
0
 10
5617.2438109982613241
 20
409.330897527831894
 30
0.0
 40
2.7582743784368589
 50
85.9519840465144398
 51
88.1239049377895896
  0
ARC
  5
2BC8C
  8
0
 10
5617.433216605089001
 20
411.8640081137049833
 30
0.0
 40
0.2183470854457412
 50
72.9605642598781969
 51
88.6070796155746621
  0
ARC
  5
2BC8D
  8
0
 10
5617.4643722699456703
 20
412.1123180030375011
 30
0.0
 40
0.0582714288535473
 50
283.9234723234379771
 51
290.3425102568482998
  0
ARC
  5
2BC8E
  8
0
 10
5617.4818819652673483
 20
412.065090862303407
 30
0.0
 40
0.0079028647270436
 50
290.3425102568482998
 51
306.2183771306458766
  0
ARC
  5
2BC8F
  8
0
 10
5617.4845474111070871
 20
412.0614514422488242
 30
0.0
 40
0.003391769532374
 50
306.2183771306458766
 51
325.2032810866431873
  0
ARC
  5
2BC90
  8
0
 10
5617.4860337434456596
 20
412.060119118753903
 30
0.0
 40
0.0014321724554836
 50
335.0889727896562817
 51
49.2400439017789822
  0
ARC
  5
2BC91
  8
0
 10
5617.4259466814355619
 20
411.8324946600059207
 30
0.0
 40
0.2377771540567558
 50
76.6051702329030633
 51
78.3810554606446317
  0
ARC
  5
2BC92
  8
0
 10
5617.4762147780757005
 20
412.0435825353893051
 30
0.0
 40
0.0207864338092255
 50
65.8616517517682638
 51
76.6051702329030633
  0
ARC
  5
2BC93
  8
0
 10
5617.4801394817623077
 20
412.0523405893480913
 30
0.0
 40
0.0111892046166711
 50
52.3850160849657271
 51
65.8616517517682638
  0
ARC
  5
2BC94
  8
0
 10
5617.4297479436645517
 20
411.8356406843853961
 30
0.0
 40
0.2339504186064603
 50
79.1377757930663535
 51
84.1613147689508736
  0
ARC
  5
2BC95
  8
0
 10
5617.2975008613657337
 20
410.5423781155889174
 30
0.0
 40
1.5339570965228111
 50
84.1613147689508736
 51
85.8369034659415036
  0
ARC
  5
2BC96
  8
0
 10
5617.1998760974365723
 20
408.7712399636652094
 30
0.0
 40
3.307656395860056
 50
86.3775373793403958
 51
88.6290060808804157
  0
ARC
  5
2BC97
  8
0
 10
5616.7738338123726862
 20
377.9598611333884151
 30
0.0
 40
34.1218282142716234
 50
89.1516918070913817
 51
89.452710843302242
  0
ARC
  5
2BC98
  8
0
 10
5617.1077209739787577
 20
412.0046001138777001
 30
0.0
 40
0.0099900528906739
 50
359.942941033100908
 51
90.0376026001648881
  0
LINE
  5
2BC99
  8
0
 10
5617.1177110219168753
 20
412.0045901651168947
 30
0.0
 11
5617.1177072782320465
 21
411.2343606104544165
 31
0.0
  0
ARC
  5
2BC9A
  8
0
 10
5617.1076848553093441
 20
411.2346881681871196
 30
0.0
 40
0.0100277741954162
 50
270.4027369662932188
 51
358.1280975819922219
  0
ARC
  5
2BC9B
  8
0
 10
5617.0178008601778856
 20
411.279166575656518
 30
0.0
 40
0.1457829608875046
 50
334.4534364460296274
 51
342.1338262050912249
  0
ARC
  5
2BC9C
  8
0
 10
5617.1202000389175737
 20
411.2303059391016973
 30
0.0
 40
0.0323240342212742
 50
320.0773378875210256
 51
334.3199674133932717
  0
LINE
  5
2BC9D
  8
0
 10
5617.1449897086158671
 20
411.2095618926168754
 30
0.0
 11
5617.1260509079156691
 21
411.2095618926168754
 31
0.0
  0
ARC
  5
2BC9E
  8
0
 10
5617.129028421932162
 20
411.2141621622088223
 30
0.0
 40
0.0054797874071582
 50
206.055313674692286
 51
237.087128768144396
  0
ARC
  5
2BC9F
  8
0
 10
5617.2171073761292064
 20
411.2572264477414024
 30
0.0
 40
0.1035228129669595
 50
194.7167005538445039
 51
206.055313674692286
  0
LINE
  5
2BCA0
  8
0
 10
5617.1565540590872843
 20
412.0043452633669858
 30
0.0
 11
5617.1565535390682271
 21
411.234441126685681
 31
0.0
  0
ARC
  5
2BCA1
  8
0
 10
5617.1665879681404476
 20
411.2344470680130257
 30
0.0
 40
0.0100344307825846
 50
180.0339243168511985
 51
269.619486973027108
  0
LINE
  5
2BCA2
  8
0
 10
5617.1665213279156887
 20
411.2244128585169278
 30
0.0
 11
5617.1807086117660219
 21
411.2242833259164172
 31
0.0
  0
ARC
  5
2BCA3
  8
0
 10
5617.1806189771195932
 20
411.2342718438712268
 30
0.0
 40
0.0099889201268806
 50
270.5141452491001814
 51
0.5082038766944375
  0
LINE
  5
2BCA4
  8
0
 10
5617.1906075043170858
 20
411.2343604427420019
 30
0.0
 11
5617.1905992032716313
 21
412.0046212328787192
 31
0.0
  0
ARC
  5
2BCA5
  8
0
 10
5617.1815431641980467
 20
412.0046211352824912
 30
0.0
 40
0.0090560390737143
 50
0.0006174725023728
 51
47.0444850101815604
  0
ARC
  5
2BCA6
  8
0
 10
5617.1801444490465656
 20
412.0031188601532222
 30
0.0
 40
0.0111086556078742
 50
47.0444850101815604
 51
87.0890183115876511
  0
LINE
  5
2BCA7
  8
0
 10
5617.1807085950167675
 20
412.014213181616924
 30
0.0
 11
5617.1662636234168531
 21
412.0143385004170113
 31
0.0
  0
ARC
  5
2BCA8
  8
0
 10
5617.1665143492436982
 20
412.0043695561125219
 30
0.0
 40
0.0099720967698546
 50
91.4407246576246138
 51
143.3981843860127015
  0
ARC
  5
2BCA9
  8
0
 10
5617.1664670107793427
 20
412.0044047150875031
 30
0.0
 40
0.0099131299664298
 50
143.3981843860100867
 51
180.3436203403655895
  0
ARC
  5
2BCAA
  8
0
 10
5617.237715736260725
 20
412.0035894663161002
 30
0.0
 40
0.0098225409261735
 50
86.1667748479032838
 51
180.2798705025062134
  0
LINE
  5
2BCAB
  8
0
 10
5617.2383723977036425
 20
412.0133900329321932
 30
0.0
 11
5617.2517266188096983
 21
412.0131109673542937
 31
0.0
  0
ARC
  5
2BCAC
  8
0
 10
5617.250937046416766
 20
412.0031421873169961
 30
0.0
 40
0.01
 50
0.0
 51
85.4713696497260571
  0
LINE
  5
2BCAD
  8
0
 10
5617.2609370464169842
 20
412.0031421873169961
 30
0.0
 11
5617.2609370464169842
 21
411.2331988160169089
 31
0.0
  0
ARC
  5
2BCAE
  8
0
 10
5617.2509507415988992
 20
411.2331988160169089
 30
0.0
 40
0.0099863048175184
 50
269.9214233495691815
 51
0.0
  0
LINE
  5
2BCAF
  8
0
 10
5617.2509370461730214
 20
411.2232125205904936
 30
0.0
 11
5617.2374003143650043
 21
411.2234777552711762
 31
0.0
  0
ARC
  5
2BCB0
  8
0
 10
5617.2378081124488745
 20
411.2333864267520198
 30
0.0
 40
0.0099170595335181
 50
178.7768765223489993
 51
267.6432833875156803
  0
LINE
  5
2BCB1
  8
0
 10
5617.2278933125171534
 20
411.2335981154170099
 30
0.0
 11
5617.2278933125171534
 21
412.0035414867169266
 31
0.0
  0
ARC
  5
2BCB2
  8
0
 10
5617.316300269144449
 20
412.0014116550848939
 30
0.0
 40
0.0099994745732278
 50
0.0003720525866781
 51
87.8053811494336287
  0
LINE
  5
2BCB3
  8
0
 10
5617.3166831886155705
 20
412.0114037952170065
 30
0.0
 11
5617.304844984160809
 21
412.0117788831539087
 31
0.0
  0
ARC
  5
2BCB4
  8
0
 10
5617.3045839966980566
 20
412.0022485294477974
 30
0.0
 40
0.0095339265897002
 50
88.431354784239673
 51
181.3371277231047998
  0
LINE
  5
2BCB5
  8
0
 10
5617.2950526662170887
 20
412.0020260537169179
 30
0.0
 11
5617.295086417913808
 21
411.2312217861467047
 31
0.0
  0
ARC
  5
2BCB6
  8
0
 10
5617.3051640226904055
 20
411.2319086153942749
 30
0.0
 40
0.0101009827459186
 50
183.8989082217105135
 51
263.7014586963287002
  0
LINE
  5
2BCB7
  8
0
 10
5617.3040558539169069
 20
411.2218686047169172
 30
0.0
 11
5617.317007788016781
 21
411.2214934495169132
 31
0.0
  0
ARC
  5
2BCB8
  8
0
 10
5617.3162611445550283
 20
411.2314703042517863
 30
0.0
 40
0.0100046939326366
 50
274.1897489661444069
 51
0.2353006700928681
  0
LINE
  5
2BCB9
  8
0
 10
5617.3262657541199587
 20
411.2315113911274125
 30
0.0
 11
5617.3262997437168451
 21
412.0014117200169039
 31
0.0
  0
ARC
  5
2BCBA
  8
0
 10
5617.3649026016100834
 20
412.000415228643476
 30
0.0
 40
0.0091781485724721
 50
94.1549031537555123
 51
183.2811007102081078
  0
LINE
  5
2BCBB
  8
0
 10
5617.3642376153784426
 20
412.0095692553273921
 30
0.0
 11
5617.3746751634153043
 21
412.0090829186349879
 31
0.0
  0
ARC
  5
2BCBC
  8
0
 10
5617.3744467272808834
 20
411.9990675509731091
 30
0.0
 40
0.0100179724730337
 50
0.0798851569314791
 51
88.6933922087098665
  0
LINE
  5
2BCBD
  8
0
 10
5617.3844646900170119
 20
411.9990815186168902
 30
0.0
 11
5617.3844244491056088
 21
411.2282419336742123
 31
0.0
  0
ARC
  5
2BCBE
  8
0
 10
5617.3744646900859152
 20
411.2291381472965099
 30
0.0
 40
0.0099999999293637
 50
272.7940498287670721
 51
354.8581752451847251
  0
LINE
  5
2BCBF
  8
0
 10
5617.3749521505169469
 20
411.2191500353168863
 30
0.0
 11
5617.3630190157373363
 21
411.2197256531019889
 31
0.0
  0
ARC
  5
2BCC0
  8
0
 10
5617.3669089407121646
 20
411.2301988857033734
 30
0.0
 40
0.0111722923984498
 50
181.2941909373340081
 51
249.6242034495521978
  0
LINE
  5
2BCC1
  8
0
 10
5617.3557394983163249
 20
411.2299465486169083
 30
0.0
 11
5617.3557394983163249
 21
411.9998899199169955
 31
0.0
  0
ARC
  5
2BCC2
  8
0
 10
5617.4171557504650991
 20
411.997835937967011
 30
0.0
 40
0.0092945131991565
 50
104.780621830619296
 51
183.8862766249069978
  0
LINE
  5
2BCC3
  8
0
 10
5617.4147845458637676
 20
412.0068228931993985
 30
0.0
 11
5617.4241481388999091
 21
412.0062064927071788
 31
0.0
  0
ARC
  5
2BCC4
  8
0
 10
5617.423447835000843
 20
411.9962316153367965
 30
0.0
 40
0.0099990801274269
 50
359.9971119131816977
 51
85.9840390405858983
  0
LINE
  5
2BCC5
  8
0
 10
5617.4334469151162921
 20
411.9962311113170017
 30
0.0
 11
5617.4334081048709777
 21
411.2262877409950761
 31
0.0
  0
ARC
  5
2BCC6
  8
0
 10
5617.4234151852251671
 20
411.2262882447045058
 30
0.0
 40
0.0099929196580261
 50
271.100282673746392
 51
359.9971119131784008
  0
LINE
  5
2BCC7
  8
0
 10
5617.423607073016683
 20
411.2162971675670065
 30
0.0
 11
5617.4144391088138946
 21
411.2168807032873019
 31
0.0
  0
ARC
  5
2BCC8
  8
0
 10
5617.4196609204545894
 20
411.2274397113459941
 30
0.0
 40
0.0117796420995067
 50
180.8614049898156111
 51
243.6859382584401033
  0
LINE
  5
2BCC9
  8
0
 10
5617.4078826096156263
 20
411.2272626187169067
 30
0.0
 11
5617.4078826096156263
 21
411.9972059900168802
 31
0.0
  0
ARC
  5
2BCCA
  8
0
 10
5617.4614880533281394
 20
411.2231248047654049
 30
0.0
 40
0.0101125317501948
 50
271.6760291501493043
 51
0.0260140531683684
  0
LINE
  5
2BCCB
  8
0
 10
5617.4617838252170259
 20
411.2130165993169157
 30
0.0
 11
5617.4545729931169262
 21
411.2137763485986284
 31
0.0
  0
ARC
  5
2BCCC
  8
0
 10
5617.457365421591021
 20
411.2202472015005128
 30
0.0
 40
0.007047665859074
 50
189.4067978784497086
 51
246.6578954893192019
  0
ARC
  5
2BCCD
  8
0
 10
5617.5554333977506758
 20
411.23649420410311
 30
0.0
 40
0.1064523591176204
 50
186.6738989922517931
 51
189.4067978784497086
  0
LINE
  5
2BCCE
  8
0
 10
5617.44970239221675
 20
411.2241224932168961
 30
0.0
 11
5617.44970239221675
 21
411.9940658645169833
 31
0.0
  0
ARC
  5
2BCCF
  8
0
 10
5617.4598290720596196
 20
411.9947474249570973
 30
0.0
 40
0.0101495896115168
 50
118.8968332732382009
 51
183.8503965701588072
  0
LINE
  5
2BCD0
  8
0
 10
5617.4549244453173742
 20
412.0036333017170023
 30
0.0
 11
5617.4649831840160914
 21
412.0023589059392748
 31
0.0
  0
ARC
  5
2BCD1
  8
0
 10
5617.4615745422170221
 20
411.992957780416873
 30
0.0
 40
0.0100000000000035
 50
0.0000589382279837
 51
70.0704666822603315
  0
LINE
  5
2BCD2
  8
0
 10
5617.4715745422163309
 20
411.9929577907035991
 30
0.0
 11
5617.4716005840346043
 21
411.2231293961668825
 31
0.0
  0
ARC
  5
2BCD3
  8
0
 10
5617.4875218919260078
 20
411.2194443801035959
 30
0.0
 40
0.0100245267904837
 50
281.1052717028023835
 51
359.9170735656404077
  0
ARC
  5
2BCD4
  8
0
 10
5617.4897266792258961
 20
411.1684837471274818
 30
0.0
 40
0.0411247283880645
 50
90.3816622607985636
 51
101.5810736768201963
  0
ARC
  5
2BCD5
  8
0
 10
5617.4910956009298388
 20
411.1888863157680021
 30
0.0
 40
0.0220918265953117
 50
115.8283464880145033
 51
185.9738160808446139
  0
ARC
  5
2BCD6
  8
0
 10
5617.4812346994403924
 20
411.9657700514458725
 30
0.0
 40
0.0343747157395979
 50
72.9059706895463648
 51
80.643409229277097
  0
ARC
  5
2BCD7
  8
0
 10
5617.4875464082169856
 20
411.9893732425168764
 30
0.0
 40
0.0100000000000271
 50
45.6513230219654673
 51
67.7132617510386439
  0
ARC
  5
2BCD8
  8
0
 10
5617.4875464082169856
 20
411.9893732425168764
 30
0.0
 40
0.0100000000000028
 50
0.0
 51
45.6513230218986124
  0
LINE
  5
2BCD9
  8
0
 10
5617.4975464082162944
 20
411.9893732425168764
 30
0.0
 11
5617.4975464082162944
 21
411.2194298712170166
 31
0.0
  0
ARC
  5
2BCDA
  8
0
 10
5617.4825268758822858
 20
411.1926335758154778
 30
0.0
 40
0.0175026799167853
 50
74.8158731867057867
 51
111.8249533891041949
  0
ARC
  5
2BCDB
  8
0
 10
5617.4898422760252288
 20
411.174366846840087
 30
0.0
 40
0.0371797850574198
 50
111.8249533891041949
 51
135.9480574049293011
  0
ARC
  5
2BCDC
  8
0
 10
5617.388201859774199
 20
411.272698085451907
 30
0.0
 40
0.1042408877695133
 50
311.6502817947202857
 51
315.9480574049293864
  0
LINE
  5
2BCDD
  8
0
 10
5617.4574784995165828
 20
411.1948077146170135
 30
0.0
 11
5617.4502335557754122
 21
411.1957557143409758
 31
0.0
  0
ARC
  5
2BCDE
  8
0
 10
5617.4988718351241914
 20
411.2000730856327095
 30
0.0
 40
0.0488295013453868
 50
170.9674946041575936
 51
185.0725631712932113
  0
ARC
  5
2BCDF
  8
0
 10
5617.4612617725333621
 20
411.1997305467887145
 30
0.0
 40
0.0132963052261648
 50
87.7498136016023835
 51
142.9643831738549977
  0
ARC
  5
2BCE0
  8
0
 10
5617.455272631371372
 20
411.19629965290261
 30
0.0
 40
0.017490694272445
 50
92.2924771403317976
 51
113.1391701313789042
  0
ARC
  5
2BCE1
  8
0
 10
5617.4662107210542672
 20
411.1707041625159036
 30
0.0
 40
0.0453254016367397
 50
113.1391701313789042
 51
128.7366829863285886
  0
ARC
  5
2BCE2
  8
0
 10
5617.5522818756162451
 20
411.0634106495764968
 30
0.0
 40
0.1828759071484618
 50
128.7366829863285886
 51
131.6756877325315997
  0
ARC
  5
2BCE3
  8
0
 10
5617.4239302401110763
 20
411.2075924981112962
 30
0.0
 40
0.0101591875463512
 50
290.5669442519658219
 51
311.6756877325316282
  0
ARC
  5
2BCE4
  8
0
 10
5617.4249915137806966
 20
411.231482042110315
 30
0.0
 40
0.0334952107642405
 50
256.2775771091722277
 51
274.2935439299463951
  0
ARC
  5
2BCE5
  8
0
 10
5617.4225494810953023
 20
411.2031574494424149
 30
0.0
 40
0.013200372745339
 50
84.706715440808722
 51
125.0166734751210953
  0
ARC
  5
2BCE6
  8
0
 10
5617.4205831742001465
 20
411.2079580021102174
 30
0.0
 40
0.0082205220519291
 50
133.0179160373035074
 51
204.2814774865815934
  0
ARC
  5
2BCE7
  8
0
 10
5617.421928697029216
 20
411.2065770845410952
 30
0.0
 40
0.0090621714408061
 50
192.7469212067261992
 51
237.3967899545328919
  0
ARC
  5
2BCE8
  8
0
 10
5617.4151524508670263
 20
411.2013499193001849
 30
0.0
 40
0.0155471575581543
 50
92.6297953733559467
 51
125.211985776919505
  0
ARC
  5
2BCE9
  8
0
 10
5617.0406433589623703
 20
411.7320146887831243
 30
0.0
 40
0.6339620090354071
 50
303.8423168823491096
 51
305.211985776919505
  0
ARC
  5
2BCEA
  8
0
 10
5617.3269292115228382
 20
411.3050484851028727
 30
0.0
 40
0.1199000201066551
 50
299.8058535778927762
 51
303.8423168823491096
  0
ARC
  5
2BCEB
  8
0
 10
5617.3828612970874019
 20
411.254599894914918
 30
0.0
 40
0.053715643647004
 50
259.6623332379219278
 51
273.9130932694375815
  0
ARC
  5
2BCEC
  8
0
 10
5617.3738033901709059
 20
411.2091014111834966
 30
0.0
 40
0.0100924078952877
 50
87.5005447842829795
 51
134.1494345380345123
  0
ARC
  5
2BCED
  8
0
 10
5617.3719023229414233
 20
411.2131142508748098
 30
0.0
 40
0.006060311553929
 50
147.8075402769829907
 51
196.5916660965366134
  0
ARC
  5
2BCEE
  8
0
 10
5617.3825426543653521
 20
411.215489313231501
 30
0.0
 40
0.016952961078807
 50
194.0149279464316123
 51
212.8879784629916117
  0
ARC
  5
2BCEF
  8
0
 10
5617.3769526120086084
 20
411.2107381902300745
 30
0.0
 40
0.0097258924157424
 50
207.2571114048409981
 51
247.4451830455639083
  0
ARC
  5
2BCF0
  8
0
 10
5617.3654576830540464
 20
411.207746721671981
 30
0.0
 40
0.0122246430004083
 50
101.5070094333663064
 51
117.9086405905936061
  0
ARC
  5
2BCF1
  8
0
 10
5617.3854395778407707
 20
411.1700212481761127
 30
0.0
 40
0.054915244656654
 50
117.9086405905936061
 51
126.5497145590399981
  0
ARC
  5
2BCF2
  8
0
 10
5617.174983871387667
 20
411.4539203014455211
 30
0.0
 40
0.2984829398691765
 50
304.0822464647346806
 51
306.5497145590400123
  0
ARC
  5
2BCF3
  8
0
 10
5617.3260539253833485
 20
411.2306417687369162
 30
0.0
 40
0.0288990672381189
 50
290.0472951517617162
 51
304.0822464647346806
  0
ARC
  5
2BCF4
  8
0
 10
5617.3309669167429092
 20
411.2778597902267279
 30
0.0
 40
0.0745335546446159
 50
261.7391082843644199
 51
273.8414921146268171
  0
ARC
  5
2BCF5
  8
0
 10
5617.3162832633770449
 20
411.2159169130279111
 30
0.0
 40
0.0056234060336711
 50
82.5973807522518229
 51
158.5467551856727937
  0
ARC
  5
2BCF6
  8
0
 10
5617.3170148167846492
 20
411.2156294358562718
 30
0.0
 40
0.0064094171730937
 50
158.5467551856698094
 51
209.1742871205323979
  0
ARC
  5
2BCF7
  8
0
 10
5617.3326407874337747
 20
411.2243532950906797
 30
0.0
 40
0.0243056927267626
 50
209.1742871205323979
 51
230.4656551928223962
  0
ARC
  5
2BCF8
  8
0
 10
5617.3218521609596792
 20
411.2112816169528742
 30
0.0
 40
0.0073568511572127
 50
230.4656551928202077
 51
257.4843075406650996
  0
ARC
  5
2BCF9
  8
0
 10
5617.3042164066264377
 20
411.217028674700714
 30
0.0
 40
0.0048425922473572
 50
91.8999500831731666
 51
135.7094507077775063
  0
ARC
  5
2BCFA
  8
0
 10
5616.5084961721750005
 20
412.3094921888957742
 30
0.0
 40
1.346761180076818
 50
305.3436517686520801
 51
306.0340575741075781
  0
ARC
  5
2BCFB
  8
0
 10
5617.268693627979701
 20
411.2335228927655066
 30
0.0
 40
0.0294304711502045
 50
287.4621425550794243
 51
309.894341073339092
  0
ARC
  5
2BCFC
  8
0
 10
5617.2687429745701593
 20
411.4046498581145102
 30
0.0
 40
0.1993946347902353
 50
267.4756820958319281
 51
272.5243179041680719
  0
ARC
  5
2BCFD
  8
0
 10
5617.2798806485607201
 20
411.2377162747234252
 30
0.0
 40
0.0379208354397174
 50
208.7882488481307064
 51
238.3117750065489986
  0
ARC
  5
2BCFE
  8
0
 10
5617.2511258418517173
 20
411.2186688209836802
 30
0.0
 40
0.004547620248635
 50
92.3793335178173436
 51
170.0501238118795015
  0
ARC
  5
2BCFF
  8
0
 10
5617.2378285032436906
 20
411.2213207931462762
 30
0.0
 40
0.0021725853063019
 50
97.5384791566496148
 51
148.751777314152605
  0
ARC
  5
2BD00
  8
0
 10
5617.2182309247109515
 20
411.2372353650719106
 30
0.0
 40
0.0230951389114765
 50
305.6807870747510947
 51
320.1866691559033029
  0
ARC
  5
2BD01
  8
0
 10
5617.1863431738993313
 20
411.2698615905511019
 30
0.0
 40
0.0685412297112954
 50
293.0827157977815887
 51
311.4348879232430818
  0
ARC
  5
2BD02
  8
0
 10
5617.2053135188143642
 20
411.3132252661206962
 30
0.0
 40
0.1067104513784833
 50
264.1240887094951972
 51
274.2466366250009742
  0
ARC
  5
2BD03
  8
0
 10
5617.2069310277229306
 20
411.2382882817141194
 30
0.0
 40
0.0336383547756658
 50
214.1647589906581004
 51
248.1087668740080971
  0
ARC
  5
2BD04
  8
0
 10
5617.1808163158893876
 20
411.2215432913988025
 30
0.0
 40
0.0027488833484636
 50
94.3524285933924318
 51
231.3047253347116055
  0
ARC
  5
2BD05
  8
0
 10
5617.4939281264742021
 20
412.0140887341984239
 30
0.0
 40
0.0160660614505385
 50
216.9408988696650908
 51
243.9050714507478119
  0
ARC
  5
2BD06
  8
0
 10
5617.5441667970462731
 20
412.0518651026969223
 30
0.0
 40
0.0789228672689942
 50
209.449819065507711
 51
216.9408988696337985
  0
ARC
  5
2BD07
  8
0
 10
5617.4840238094921006
 20
412.0131506943146746
 30
0.0
 40
0.0135201920986391
 50
229.075323974217099
 51
254.9904599043815097
  0
ARC
  5
2BD08
  8
0
 10
5617.4815575543661907
 20
412.0103060480101931
 30
0.0
 40
0.0097552980836831
 50
199.0040531977745957
 51
229.075323974217099
  0
ARC
  5
2BD09
  8
0
 10
5617.4865557245711898
 20
412.0120274515371079
 30
0.0
 40
0.0150415950395124
 50
172.2210351359852893
 51
199.0040531977714977
  0
ARC
  5
2BD0A
  8
0
 10
5617.4723947356533245
 20
412.0092024419186032
 30
0.0
 40
0.0049172508688239
 50
51.7078066930794833
 51
98.6811395270844827
  0
ARC
  5
2BD0B
  8
0
 10
5617.4770322494750872
 20
411.9410008311600109
 30
0.0
 40
0.0594977449244828
 50
80.528237948464664
 51
83.0799418377621066
  0
ARC
  5
2BD0C
  8
0
 10
5617.4837392666722735
 20
412.1904090807190073
 30
0.0
 40
0.190344491952602
 50
269.0316272557342927
 51
270.1389261874443264
  0
ARC
  5
2BD0D
  8
0
 10
5617.481805566480034
 20
412.0175637096721744
 30
0.0
 40
0.0175262230489078
 50
253.93358320510211
 51
265.9634016917204917
  0
ARC
  5
2BD0E
  8
0
 10
5617.4846677283258032
 20
412.0257653152655735
 30
0.0
 40
0.0262040009901022
 50
227.5732069772872137
 51
252.8827579259715037
  0
ARC
  5
2BD0F
  8
0
 10
5617.5095856725492922
 20
412.0530283320658782
 30
0.0
 40
0.0631387546693214
 50
217.8471395465417118
 51
227.5732069772872137
  0
ARC
  5
2BD10
  8
0
 10
5617.4490304651735642
 20
412.0059770498725129
 30
0.0
 40
0.0135473346572975
 50
37.847139546507151
 51
51.4211084403769121
  0
ARC
  5
2BD11
  8
0
 10
5617.4578847064849469
 20
412.0132996450548148
 30
0.0
 40
0.0101094678254422
 50
191.716545159282191
 51
252.9730987270046114
  0
ARC
  5
2BD12
  8
0
 10
5617.4570850970467291
 20
412.011521721717088
 30
0.0
 40
0.0091033744869367
 50
138.8195570367427081
 51
181.7311304964642886
  0
ARC
  5
2BD13
  8
0
 10
5617.4518296092501259
 20
412.0015552678439121
 30
0.0
 40
0.016040019104867
 50
69.3797212783383657
 51
95.7107068613778438
  0
ARC
  5
2BD14
  8
0
 10
5617.4534280002972082
 20
412.0185722605839942
 30
0.0
 40
0.0150137217146978
 50
258.9309273557875031
 51
275.7202729289434728
  0
ARC
  5
2BD15
  8
0
 10
5617.4581551055653108
 20
412.0318569202908066
 30
0.0
 40
0.0290340284641973
 50
233.2038269112736941
 51
254.8056941840881962
  0
ARC
  5
2BD16
  8
0
 10
5617.499040109391899
 20
412.0861138383839943
 30
0.0
 40
0.0969706111720878
 50
223.9359851388092011
 51
233.0612715685988974
  0
ARC
  5
2BD17
  8
0
 10
5617.4258750637372941
 20
412.0151370242027724
 30
0.0
 40
0.0049762508845403
 50
47.9186629678857301
 51
70.9519638802624968
  0
ARC
  5
2BD18
  8
0
 10
5617.4196104284310422
 20
411.9879924962635869
 30
0.0
 40
0.0328107600622184
 50
76.0880842663491137
 51
94.4830351676911135
  0
ARC
  5
2BD19
  8
0
 10
5617.4214214181165516
 20
412.0186165614207994
 30
0.0
 40
0.0125187584073672
 50
240.4342066853668882
 51
253.3614968509081962
  0
ARC
  5
2BD1A
  8
0
 10
5617.4179635379850879
 20
412.0125211211965848
 30
0.0
 40
0.0055108110231903
 50
178.6699981434803135
 51
240.4342066853668882
  0
ARC
  5
2BD1B
  8
0
 10
5617.4231096438470558
 20
412.0124016436363945
 30
0.0
 40
0.0106583036592544
 50
152.7209718672770009
 51
178.6699981434803135
  0
ARC
  5
2BD1C
  8
0
 10
5617.4246064672452121
 20
412.0116297691748741
 30
0.0
 40
0.0123424267150591
 50
138.6908781242925102
 51
152.7209718672770009
  0
ARC
  5
2BD1D
  8
0
 10
5617.4174162707722644
 20
412.0179750513050863
 30
0.0
 40
0.0027528619440143
 50
97.7339049516645133
 51
139.1053652127795885
  0
ARC
  5
2BD1E
  8
0
 10
5617.413443491434009
 20
412.0224073821818251
 30
0.0
 40
0.0156420818251037
 50
254.1734135916144055
 51
274.9182200347823937
  0
ARC
  5
2BD1F
  8
0
 10
5617.4350591015127065
 20
412.061618852239917
 30
0.0
 40
0.0601171314538844
 50
236.1551652922300946
 51
244.4994389424635131
  0
ARC
  5
2BD20
  8
0
 10
5617.2167637885913791
 20
411.7764332110357941
 30
0.0
 40
0.299167316124559
 50
51.8473231518435966
 51
55.4272388331448269
  0
ARC
  5
2BD21
  8
0
 10
5617.376936543994816
 20
411.9707949643063216
 30
0.0
 40
0.0528518978413879
 50
79.5452566240249155
 51
94.0301686764112645
  0
ARC
  5
2BD22
  8
0
 10
5617.3720701589400051
 20
412.0143976817543034
 30
0.0
 40
0.0052005003904948
 50
171.1792254110098952
 51
262.7639387247406262
  0
ARC
  5
2BD23
  8
0
 10
5617.3991590935293061
 20
412.0042657376271791
 30
0.0
 40
0.0340307411892591
 50
149.4868109966176064
 51
161.2667352751867043
  0
ARC
  5
2BD24
  8
0
 10
5617.3742356908705915
 20
412.0178938250803071
 30
0.0
 40
0.0057129919615436
 50
100.2202349051852934
 51
140.2831437836362056
  0
ARC
  5
2BD25
  8
0
 10
5617.362982154771089
 20
412.0398016790907718
 30
0.0
 40
0.0302587304880075
 50
266.6520818415663143
 51
272.3779119613661237
  0
ARC
  5
2BD26
  8
0
 10
5617.3632103464069587
 20
412.0187634255967168
 30
0.0
 40
0.0093834236649967
 50
241.0467992080475028
 51
257.7230263104906953
  0
ARC
  5
2BD27
  8
0
 10
5617.387269429308617
 20
412.0660837401662207
 30
0.0
 40
0.062463875365431
 50
235.7845838105660903
 51
242.7489962240655075
  0
ARC
  5
2BD28
  8
0
 10
5617.5506974406443987
 20
412.2991957627456827
 30
0.0
 40
0.3471513519394213
 50
232.6394111535215927
 51
235.1139640758514986
  0
ARC
  5
2BD29
  8
0
 10
5617.3334229554229751
 20
412.0148675908783957
 30
0.0
 40
0.0106915227691154
 50
51.7920776799861073
 51
76.2713697091517986
  0
ARC
  5
2BD2A
  8
0
 10
5617.3252936756571216
 20
411.9525917442039145
 30
0.0
 40
0.0734406669705778
 50
81.6487376262820135
 51
93.931863922268434
  0
ARC
  5
2BD2B
  8
0
 10
5617.3227332647629737
 20
412.0153249078180124
 30
0.0
 40
0.0108215753707071
 50
103.2234318945291989
 51
140.4731275167200977
  0
ARC
  5
2BD2C
  8
0
 10
5617.3227089353677002
 20
412.0183032825721057
 30
0.0
 40
0.0091948802518973
 50
154.8418663801583932
 51
228.599927392461808
  0
ARC
  5
2BD2D
  8
0
 10
5617.3110603011928106
 20
412.0333866659594833
 30
0.0
 40
0.0232702164443022
 50
232.9305311255440074
 51
249.2909096182521864
  0
ARC
  5
2BD2E
  8
0
 10
5617.1630835753512656
 20
411.8375094987151783
 30
0.0
 40
0.2222190420547983
 50
52.9305311255439719
 51
57.1139574189024017
  0
ARC
  5
2BD2F
  8
0
 10
5617.2669760113712982
 20
411.9981885665612253
 30
0.0
 40
0.0308779824105319
 50
57.1139574189024017
 51
70.0233055876717145
  0
ARC
  5
2BD30
  8
0
 10
5617.2664301503400566
 20
411.9360112179626867
 30
0.0
 40
0.0918698729320584
 50
83.06356633055141
 51
94.0379108903625252
  0
ARC
  5
2BD31
  8
0
 10
5617.2656440453010873
 20
412.0091549199850078
 30
0.0
 40
0.0193514216907527
 50
107.0781716332385969
 51
128.7251998627108946
  0
ARC
  5
2BD32
  8
0
 10
5617.2727421743502418
 20
412.000302988143801
 30
0.0
 40
0.0306977926225682
 50
128.7251998627108946
 51
141.7740659780205021
  0
ARC
  5
2BD33
  8
0
 10
5617.2520012232098452
 20
412.0166397142762094
 30
0.0
 40
0.0042956019009675
 50
141.7740659780205021
 51
234.1523312408257027
  0
ARC
  5
2BD34
  8
0
 10
5617.1814514313837208
 20
411.9485730594058737
 30
0.0
 40
0.0849881976299626
 50
49.641639014074272
 51
56.0263490075626223
  0
ARC
  5
2BD35
  8
0
 10
5617.3717694355746062
 20
412.2310111919802011
 30
0.0
 40
0.2555881395565458
 50
233.5308024535451921
 51
236.0263490075626009
  0
ARC
  5
2BD36
  8
0
 10
5617.2089034999025898
 20
412.0106628649336926
 30
0.0
 40
0.0184167841846072
 50
53.5308024535451779
 51
76.4594653252465406
  0
ARC
  5
2BD37
  8
0
 10
5617.2023082427313057
 20
411.9236371957180722
 30
0.0
 40
0.1054959155080346
 50
84.065576056628359
 51
94.3050515314317437
  0
ARC
  5
2BD38
  8
0
 10
5617.2003246029516959
 20
412.0072493209706863
 30
0.0
 40
0.022387327039451
 50
105.3747639817862023
 51
134.289153376584494
  0
ARC
  5
2BD39
  8
0
 10
5617.1936657404676225
 20
412.0151243299068824
 30
0.0
 40
0.0121225935721206
 50
137.752755095573491
 51
184.6864077394656078
  0
ARC
  5
2BD3A
  8
0
 10
5617.147817300035058
 20
412.0014266192272885
 30
0.0
 40
0.02251655519721
 50
34.9925914360882828
 51
55.0005319912518118
  0
ARC
  5
2BD3B
  8
0
 10
5617.2578457670360876
 20
412.1585666604069047
 30
0.0
 40
0.1693147667829109
 50
232.0175812936371926
 51
235.0005319912517905
  0
ARC
  5
2BD3C
  8
0
 10
5617.1392981126537052
 20
412.0067365740761147
 30
0.0
 40
0.0233142068290801
 50
52.0175812936371429
 51
75.2694576060858083
  0
ARC
  5
2BD3D
  8
0
 10
5617.1350317060132511
 20
411.917328807663182
 30
0.0
 40
0.1124188873064758
 50
84.7970427919396315
 51
94.7204068935844248
  0
ARC
  5
2BD3E
  8
0
 10
5617.1347727310567279
 20
412.000150359617578
 30
0.0
 40
0.0305685921904304
 50
107.1077794575580953
 51
132.3746765436723933
  0
ARC
  5
2BD3F
  8
0
 10
5617.1610887095566795
 20
411.9627405581896937
 30
0.0
 40
0.0761606015795086
 50
128.0280023012689128
 51
132.3240244800234962
  0
ARC
  5
2BD40
  8
0
 10
5617.1123463732037635
 20
412.0154405026460154
 30
0.0
 40
0.0044124995195438
 50
125.1175628594348979
 51
191.1692539311997905
  0
ARC
  5
2BD41
  8
0
 10
5617.4828872519583456
 20
411.9902138271980903
 30
0.0
 40
0.0101334775009247
 50
0.195752502397418
 51
70.8401866490937664
  0
LINE
  5
2BD42
  8
0
 10
5617.4930206703156728
 20
411.9902484484168781
 30
0.0
 11
5617.4929134004387379
 21
411.2188135590567981
 31
0.0
  0
ARC
  5
2BD43
  8
0
 10
5617.4826420161816714
 20
411.2202752899372058
 30
0.0
 40
0.0103748730943109
 50
279.4564489421348981
 51
351.9005662975557129
  0
ARC
  5
2BD44
  8
0
 10
5617.4539962721855773
 20
411.2233955794728217
 30
0.0
 40
0.0098972242541524
 50
280.152005948893418
 51
3.0801290897176661
  0
LINE
  5
2BD45
  8
0
 10
5617.463879198568975
 20
411.2239273821189158
 30
0.0
 11
5617.4638791986435535
 21
411.9938707534086006
 31
0.0
  0
ARC
  5
2BD46
  8
0
 10
5617.4537822220499947
 20
411.9940701074928029
 30
0.0
 40
0.0100989443909784
 50
358.8689026615920739
 51
65.2677694450125614
  0
ARC
  5
2BD47
  8
0
 10
5617.4490296840112933
 20
411.9992331836505741
 30
0.0
 40
0.00496165078736
 50
86.0326347403623259
 51
141.6733788040216098
  0
ARC
  5
2BD48
  8
0
 10
5617.4621672868333917
 20
411.9888478152229823
 30
0.0
 40
0.0217083664435175
 50
141.6733788040216098
 51
163.5953137486116873
  0
LINE
  5
2BD49
  8
0
 10
5617.4413426489163612
 20
411.9949786903085851
 30
0.0
 11
5617.4413426489163612
 21
411.2236452716991835
 31
0.0
  0
ARC
  5
2BD4A
  8
0
 10
5617.455663794231441
 20
411.2246893488648993
 30
0.0
 40
0.0143591538828357
 50
184.1697479958361043
 51
239.2420120535315107
  0
ARC
  5
2BD4B
  8
0
 10
5617.363933749982607
 20
412.0047406404531785
 30
0.0
 40
0.004838166669924
 50
43.2426551134193389
 51
86.3990461465722461
  0
ARC
  5
2BD4C
  8
0
 10
5617.3587049119596486
 20
412.000429673538008
 30
0.0
 40
0.0116089704984148
 50
357.761930896155377
 51
41.0613352615422613
  0
LINE
  5
2BD4D
  8
0
 10
5617.3703050270169115
 20
411.999976323016881
 30
0.0
 11
5617.370219722022739
 21
411.2284202888675964
 31
0.0
  0
ARC
  5
2BD4E
  8
0
 10
5617.3629516862447417
 20
411.225762323537424
 30
0.0
 40
0.0061875001086601
 50
280.3408518109674787
 51
333.800510626551727
  0
ARC
  5
2BD4F
  8
0
 10
5617.3514085502965827
 20
411.2314421228006722
 30
0.0
 40
0.0190523400668331
 50
333.800510626551727
 51
350.8739509604263844
  0
ARC
  5
2BD50
  8
0
 10
5617.3604271923641136
 20
411.9994442875827758
 30
0.0
 40
0.0106332794256438
 50
93.8216653286037854
 51
173.4169576965801127
  0
LINE
  5
2BD51
  8
0
 10
5617.3498640209163568
 20
412.0006633201169279
 30
0.0
 11
5617.3498640209163568
 21
411.2288559215822943
 31
0.0
  0
ARC
  5
2BD52
  8
0
 10
5617.3618805374671865
 20
411.2301174076500843
 30
0.0
 40
0.0120825501078336
 50
185.9929225542304039
 51
257.7995478762780976
  0
LINE
  5
2BD53
  8
0
 10
5617.1449897065167534
 20
412.0293057894460276
 30
0.0
 11
5617.1449897065167534
 21
411.2095616906568125
 31
0.0
  0
LINE
  5
2BD54
  8
0
 10
5617.1260509079156691
 20
412.0293883966717772
 30
0.0
 11
5617.1260509079156691
 21
411.2095618926168754
 31
0.0
  0
LINE
  5
2BD55
  8
0
 10
5617.2130253044169876
 20
411.2067938384490731
 30
0.0
 11
5617.2130253044169876
 21
412.0285873399661796
 31
0.0
  0
LINE
  5
2BD56
  8
0
 10
5617.1946899910162756
 20
411.2070449426585128
 30
0.0
 11
5617.1946899910162756
 21
412.0288576805568823
 31
0.0
  0
LINE
  5
2BD57
  8
0
 10
5617.277387917316446
 20
412.0272252568789781
 30
0.0
 11
5617.277387917316446
 21
411.2054399035046117
 31
0.0
  0
LINE
  5
2BD58
  8
0
 10
5617.3358808941165989
 20
411.203488400604499
 30
0.0
 11
5617.3358808941165989
 21
412.0252652770089981
 31
0.0
  0
ARC
  5
2BD59
  8
0
 10
5617.4864169749116627
 20
411.1844188224492882
 30
0.0
 40
0.0174286387157754
 50
123.8116395846838032
 51
172.853273294174187
  0
ARC
  5
2BD5A
  8
0
 10
5617.4909933800754516
 20
411.1703174932511047
 30
0.0
 40
0.031948673012843
 50
93.0367848293403767
 51
116.5388713026016063
  0
ARC
  5
2BD5B
  8
0
 10
5617.4874640212392478
 20
411.2143670285793746
 30
0.0
 40
0.0122838332227836
 50
278.5997365245254969
 51
4.3340920010887229
  0
LINE
  5
2BD5C
  8
0
 10
5617.499712726917096
 20
411.2152953431150877
 30
0.0
 11
5617.499712726917096
 21
411.9852387144168802
 31
0.0
  0
ARC
  5
2BD5D
  8
0
 10
5617.4893800847412422
 20
411.985113851250901
 30
0.0
 40
0.0103333965930845
 50
0.6923480070561103
 51
40.4566897574978981
  0
ARC
  5
2BD5E
  8
0
 10
5617.4950022920083939
 20
412.066458573891282
 30
0.0
 40
0.0066831805467318
 50
36.6332445918814926
 51
70.8122518993152852
  0
ARC
  5
2BD5F
  8
0
 10
5617.503048630253943
 20
412.0864362254105799
 30
0.0
 40
0.0456398093492322
 50
204.6263837811931126
 51
211.8360404013768061
  0
ARC
  5
2BD60
  8
0
 10
5617.4280677970718898
 20
412.0430248012190759
 30
0.0
 40
0.0410470871953965
 50
0.0213516925509192
 51
28.1050668650839306
  0
ARC
  5
2BD61
  8
0
 10
5617.4483247615389701
 20
412.1488722766836759
 30
0.0
 40
0.0978482932321176
 50
281.531108784451078
 51
287.8967947131474716
  0
LINE
  5
2BD62
  8
0
 10
5617.4691160290831249
 20
412.0430400980873742
 30
0.0
 11
5617.4691153532221506
 21
412.0137998623176259
 31
0.0
  0
ARC
  5
2BD63
  8
0
 10
5617.4880154394841156
 20
412.0137994254591831
 30
0.0
 40
0.0189000862674198
 50
179.9986756598748912
 51
217.5592555507901977
  0
LINE
  5
2BFA6
  8
0
 10
5617.0891493119470397
 20
415.3221205326798895
 30
0.0
 11
5617.0990813944836191
 21
415.3221205326798895
 31
0.0
  0
ENDSEC
  0
EOF
