  0
SECTION
  2
HEADER
  9
$ACADVER
  1
AC1009
  9
$INSBASE
 10
5617.0939969625887898
 20
403.3219826721457935
 30
0.0
  9
$EXTMIN
 10
5615.9829969785860158
 20
403.3219826721457935
 30
0.0
  9
$EXTMAX
 10
5620.0494239410872979
 20
415.3222350950086934
 30
0.0
  9
$LIMMIN
 10
0.0
 20
0.0
  9
$LIMMAX
 10
11.6929133858000007
 20
8.2677165353999982
  9
$ORTHOMODE
 70
     0
  9
$REGENMODE
 70
     1
  9
$FILLMODE
 70
     1
  9
$QTEXTMODE
 70
     0
  9
$MIRRTEXT
 70
     0
  9
$DRAGMODE
 70
     2
  9
$LTSCALE
 40
0.6431102362
  9
$OSMODE
 70
  3839
  9
$ATTMODE
 70
     1
  9
$TEXTSIZE
 40
0.2
  9
$TRACEWID
 40
0.05
  9
$TEXTSTYLE
  7
STANDARD
  9
$CLAYER
  8
0
  9
$CELTYPE
  6
BYLAYER
  9
$CECOLOR
 62
   256
  9
$DIMSCALE
 40
1.0
  9
$DIMASZ
 40
0.1875
  9
$DIMEXO
 40
0.0625
  9
$DIMDLI
 40
0.4443307087
  9
$DIMRND
 40
0.0
  9
$DIMDLE
 40
0.0
  9
$DIMEXE
 40
0.125
  9
$DIMTP
 40
0.01
  9
$DIMTM
 40
0.01
  9
$DIMTXT
 40
2.0
  9
$DIMCEN
 40
0.1052362205
  9
$DIMTSZ
 40
0.0
  9
$DIMTOL
 70
     1
  9
$DIMLIM
 70
     0
  9
$DIMTIH
 70
     1
  9
$DIMTOH
 70
     1
  9
$DIMSE1
 70
     0
  9
$DIMSE2
 70
     0
  9
$DIMTAD
 70
     0
  9
$DIMZIN
 70
     0
  9
$DIMBLK
  1

  9
$DIMASO
 70
     1
  9
$DIMSHO
 70
     1
  9
$DIMPOST
  1
\X
  9
$DIMAPOST
  1

  9
$DIMALT
 70
     1
  9
$DIMALTD
 70
     2
  9
$DIMALTF
 40
25.3999999999999986
  9
$DIMLFAC
 40
1.0
  9
$DIMTOFL
 70
     0
  9
$DIMTVP
 40
0.0
  9
$DIMTIX
 70
     0
  9
$DIMSOXD
 70
     0
  9
$DIMSAH
 70
     0
  9
$DIMBLK1
  1

  9
$DIMBLK2
  1

  9
$DIMSTYLE
  2
STANDARD
  9
$DIMCLRD
 70
     0
  9
$DIMCLRE
 70
     0
  9
$DIMCLRT
 70
     0
  9
$DIMTFAC
 40
1.0
  9
$DIMGAP
 40
0.09
  9
$LUNITS
 70
     2
  9
$LUPREC
 70
     4
  9
$SKETCHINC
 40
0.1
  9
$FILLETRAD
 40
0.0
  9
$AUNITS
 70
     0
  9
$AUPREC
 70
     0
  9
$MENU
  1
.
  9
$ELEVATION
 40
0.0
  9
$PELEVATION
 40
0.0
  9
$THICKNESS
 40
0.0
  9
$LIMCHECK
 70
     0
  9
$BLIPMODE
 70
     0
  9
$CHAMFERA
 40
0.0
  9
$CHAMFERB
 40
0.0
  9
$SKPOLY
 70
     0
  9
$TDCREATE
 40
2458060.468368056230247
  9
$TDUPDATE
 40
2460440.5122916670516133
  9
$TDINDWG
 40
0.646384375
  9
$TDUSRTIMER
 40
0.646384375
  9
$USRTIMER
 70
     1
  9
$ANGBASE
 50
0.0
  9
$ANGDIR
 70
     0
  9
$PDMODE
 70
     0
  9
$PDSIZE
 40
0.3125
  9
$PLINEWID
 40
0.0
  9
$COORDS
 70
     1
  9
$SPLFRAME
 70
     0
  9
$SPLINETYPE
 70
     6
  9
$SPLINESEGS
 70
     8
  9
$ATTDIA
 70
     1
  9
$ATTREQ
 70
     1
  9
$HANDLING
 70
     1
  9
$HANDSEED
  5
2CAE0
  9
$SURFTAB1
 70
     6
  9
$SURFTAB2
 70
     6
  9
$SURFTYPE
 70
     6
  9
$SURFU
 70
     6
  9
$SURFV
 70
     6
  9
$UCSNAME
  2

  9
$UCSORG
 10
0.0
 20
0.0
 30
0.0
  9
$UCSXDIR
 10
1.0
 20
0.0
 30
0.0
  9
$UCSYDIR
 10
0.0
 20
1.0
 30
0.0
  9
$PUCSNAME
  2

  9
$PUCSORG
 10
0.0
 20
0.0
 30
0.0
  9
$PUCSXDIR
 10
1.0
 20
0.0
 30
0.0
  9
$PUCSYDIR
 10
0.0
 20
1.0
 30
0.0
  9
$USERI1
 70
     0
  9
$USERI2
 70
     0
  9
$USERI3
 70
     0
  9
$USERI4
 70
     0
  9
$USERI5
 70
     0
  9
$USERR1
 40
0.0
  9
$USERR2
 40
0.0
  9
$USERR3
 40
0.0
  9
$USERR4
 40
0.0
  9
$USERR5
 40
0.0
  9
$WORLDVIEW
 70
     1
  9
$SHADEDGE
 70
     3
  9
$SHADEDIF
 70
    70
  9
$TILEMODE
 70
     1
  9
$MAXACTVP
 70
    64
  9
$PLIMCHECK
 70
     0
  9
$PEXTMIN
 10
1.0000000000000000E+20
 20
1.0000000000000000E+20
 30
1.0000000000000000E+20
  9
$PEXTMAX
 10
-1.0000000000000000E+20
 20
-1.0000000000000000E+20
 30
-1.0000000000000000E+20
  9
$PLIMMIN
 10
0.0
 20
0.0
  9
$PLIMMAX
 10
12.0
 20
9.0
  9
$UNITMODE
 70
     0
  9
$VISRETAIN
 70
     1
  9
$PLINEGEN
 70
     0
  9
$PSLTSCALE
 70
     1
  0
ENDSEC
  0
SECTION
  2
TABLES
  0
TABLE
  2
VPORT
 70
     1
  0
VPORT
  2
*ACTIVE
 70
     0
 10
0.0
 20
0.0
 11
1.0
 21
1.0
 12
1706.6508540145239294
 22
276.7425037810381809
 13
0.0
 23
0.0
 14
1.0
 24
1.0
 15
0.0
 25
0.0
 16
0.0
 26
0.0
 36
60.4960186965801583
 17
3911.3653564453120453
 27
132.5796051025390057
 37
0.0
 40
12.0801653135812899
 41
2.1211111111111101
 42
50.0
 43
0.0
 44
0.0
 50
0.0
 51
0.0
 71
     0
 72
   100
 73
     1
 74
     1
 75
     0
 76
     0
 77
     0
 78
     1
  0
ENDTAB
  0
TABLE
  2
LTYPE
 70
     2
  0
LTYPE
  2
CONTINUOUS
 70
     0
  3
Solid line
 72
    65
 73
     0
 40
0.0
  0
LTYPE
  2
PHANTOM2
 70
     0
  3
___ _ _ ___ _ _ ___ _ _ ___ _ _
 72
    65
 73
     6
 40
1.25
 49
0.625
 49
-0.125
 49
0.125
 49
-0.125
 49
0.125
 49
-0.125
  0
ENDTAB
  0
TABLE
  2
LAYER
 70
     2
  0
LAYER
  2
0
 70
     0
 62
   255
  6
CONTINUOUS
  0
LAYER
  2
DEFPOINTS
 70
     0
 62
     7
  6
CONTINUOUS
  0
ENDTAB
  0
TABLE
  2
STYLE
 70
     1
  0
STYLE
  2
STANDARD
 70
     0
 40
0.0
 41
0.8
 50
0.0
 71
     0
 42
0.2
  3
txt
  4

  0
ENDTAB
  0
TABLE
  2
VIEW
 70
     0
  0
ENDTAB
  0
TABLE
  2
UCS
 70
     0
  0
ENDTAB
  0
TABLE
  2
APPID
 70
    11
  0
APPID
  2
ACAD
 70
     0
  0
APPID
  2
ACAD_MLEADERVER
 70
     0
  0
APPID
  2
ACAD_EXEMPT_FROM_CAD_STANDARDS
 70
     0
  0
APPID
  2
ACAD_NAV_VCDISPLAY
 70
     0
  0
APPID
  2
ACAECLAYERSTANDARD
 70
     0
  0
APPID
  2
ACCMTRANSPARENCY
 70
     0
  0
APPID
  2
ACAD_DSTYLE_DIMJAG
 70
     0
  0
APPID
  2
ACAD_DSTYLE_DIMTALN
 70
     0
  0
APPID
  2
ACDBATTR
 70
     0
  0
APPID
  2
ACADANNOTATIVE
 70
     0
  0
APPID
  2
DCO15
 70
     0
  0
ENDTAB
  0
TABLE
  2
DIMSTYLE
 70
     1
  0
DIMSTYLE
  2
STANDARD
 70
     0
  3

  4

  5

  6

  7

 40
1.0
 41
0.1875
 42
0.0625
 43
0.38
 44
0.125
 45
0.0
 46
0.0
 47
0.01
 48
0.01
140
0.15625
141
0.09
142
0.0
143
25.3999999999999986
144
1.0
145
0.0
146
1.0
147
0.09
 71
     1
 72
     0
 73
     1
 74
     1
 75
     0
 76
     0
 77
     0
 78
     4
170
     0
171
     2
172
     0
173
     0
174
     0
175
     0
176
     0
177
     0
178
     0
  0
ENDTAB
  0
ENDSEC
  0
SECTION
  2
BLOCKS
  0
BLOCK
  8
0
  2
$MODEL_SPACE
 70
     0
 10
0.0
 20
0.0
 30
0.0
  3
$MODEL_SPACE
  1

  0
ENDBLK
  5
21
  8
0
  0
BLOCK
 67
     1
  8
0
  2
$PAPER_SPACE
 70
     0
 10
0.0
 20
0.0
 30
0.0
  3
$PAPER_SPACE
  1

  0
ENDBLK
  5
1D
 67
     1
  8
0
  0
BLOCK
  8
0
  2
_FILLED
 70
     0
 10
0.0
 20
0.0
 30
0.0
  3
_FILLED
  1

  0
SOLID
  5
2A961
  8
0
  6
BYBLOCK
 62
     0
 10
0.0
 20
0.0
 30
0.0
 11
-1.0
 21
0.1666666667
 31
0.0
 12
-1.0
 22
-0.1666666667
 32
0.0
 13
-1.0
 23
-0.1666666667
 33
0.0
  0
ENDBLK
  5
2A962
  8
0
  6
BYBLOCK
 62
     0
  0
ENDSEC
  0
SECTION
  2
ENTITIES
  0
ATTDEF
  5
26A5B
  8
DEFPOINTS
 10
5617.0943451230250503
 20
403.3258122909714984
 30
0.0
 40
0.001
  1
P80270-00
  3

  2
MODELNUMBER
 70
     0
1001
ACDBATTR
1070
     0
1070
     1
  0
ATTDEF
  5
26A5C
  8
DEFPOINTS
 10
5617.0942193133678302
 20
403.3241454505923116
 30
0.0
 40
0.001
  1
VIR STIL
  3

  2
TRADENAME
 70
     0
1001
ACDBATTR
1070
     0
1070
     1
  0
ATTDEF
  5
26A5D
  8
DEFPOINTS
 10
5617.0943451230250503
 20
403.3224789576381113
 30
0.0
 40
0.001
  1
ENTERTAINMENT FAUCET
  3

  2
PRODUCT
 70
     0
1001
ACDBATTR
1070
     0
1070
     1
  0
LINE
  5
2C4E4
  8
0
 10
5615.9929969625891317
 20
403.3219826721457935
 30
0.0
 11
5618.1949969625893573
 21
403.3219826721457935
 31
0.0
  0
LINE
  5
2C4E6
  8
0
 10
5615.9929969625891317
 20
403.565982672145708
 30
0.0
 11
5618.1949969625893573
 21
403.565982672145708
 31
0.0
  0
LINE
  5
2C4E8
  8
0
 10
5616.0869969625891827
 20
403.6159826721457762
 30
0.0
 11
5618.1009969625893063
 21
403.6159826721457762
 31
0.0
  0
LINE
  5
2C4EA
  8
0
 10
5616.1539969625882804
 20
403.6659826721456739
 30
0.0
 11
5618.0339969625892991
 21
403.6659826721456739
 31
0.0
  0
LINE
  5
2C4EC
  8
0
 10
5615.9829969785860158
 20
403.5559826721457171
 30
0.0
 11
5615.9829969785860158
 21
403.3319826721457844
 31
0.0
  0
LINE
  5
2C4ED
  8
0
 10
5616.2939969625876984
 20
403.6859826721458262
 30
0.0
 11
5616.2939969625876984
 21
406.7459826721457148
 31
0.0
  0
ARC
  5
2C4EE
  8
0
 10
5616.2739969625890808
 20
403.6859826721458262
 30
0.0
 40
0.0200000000000009
 50
270.0
 51
0.0
  0
ARC
  5
2C4EF
  8
0
 10
5615.9929969512768366
 20
403.3319826448357048
 30
0.0
 40
0.0099999726899718
 50
179.999843524597793
 51
270.0000648142597015
  0
ARC
  5
2C4F0
  8
0
 10
5615.9929969512768366
 20
403.5559826994557966
 30
0.0
 40
0.0099999726899735
 50
89.9999351857924097
 51
180.0001564753891046
  0
ARC
  5
2C4F1
  8
0
 10
5616.0569969625894373
 20
403.5859826721456898
 30
0.0
 40
0.02
 50
270.0
 51
0.0
  0
LINE
  5
2C4F2
  8
0
 10
5616.0769969625889644
 20
403.5859826721456898
 30
0.0
 11
5616.0769969625889644
 21
403.6059826721457853
 31
0.0
  0
ARC
  5
2C4F3
  8
0
 10
5616.0869969625891827
 20
403.6059826721457853
 30
0.0
 40
0.0099999999999989
 50
90.0
 51
180.0000000000065086
  0
ARC
  5
2C4F4
  8
0
 10
5616.1239969625894446
 20
403.6359826721458148
 30
0.0
 40
0.02
 50
270.0
 51
0.0
  0
LINE
  5
2C4F5
  8
0
 10
5616.1439969625880622
 20
403.6359826721458148
 30
0.0
 11
5616.1439969625880622
 21
403.655982672145683
 31
0.0
  0
ARC
  5
2C4F6
  8
0
 10
5616.1539969554778509
 20
403.6559826792573062
 30
0.0
 40
0.009999992888471
 50
89.999959253882011
 51
180.0000407461016891
  0
LINE
  5
2C4F7
  8
0
 10
5616.3039969625879166
 20
406.7559826721458194
 30
0.0
 11
5617.8839969625878439
 21
406.7559826721458194
 31
0.0
  0
LINE
  5
2C4FA
  8
0
 10
5616.416496962589008
 20
406.8059826721457171
 30
0.0
 11
5617.7714969625885715
 21
406.8059826721457171
 31
0.0
  0
LINE
  5
2C4FD
  8
0
 10
5616.4814969625876984
 20
406.8559826721456716
 30
0.0
 11
5617.7064969625880622
 21
406.8559826721456716
 31
0.0
  0
ARC
  5
2C500
  8
0
 10
5616.3039969625879166
 20
406.7459826721457148
 30
0.0
 40
0.0099999999999991
 50
90.0
 51
180.0000000000065086
  0
ARC
  5
2C501
  8
0
 10
5616.3864969625883532
 20
406.7759826721458012
 30
0.0
 40
0.0200000000000003
 50
270.1807867534275829
 51
0.0
  0
LINE
  5
2C502
  8
0
 10
5616.4064969625887898
 20
406.7759826721458012
 30
0.0
 11
5616.4064969625887898
 21
406.7959826721457262
 31
0.0
  0
ARC
  5
2C503
  8
0
 10
5616.416496962589008
 20
406.7959826721457262
 30
0.0
 40
0.0099999999999998
 50
90.0
 51
179.9999999999967031
  0
ARC
  5
2C504
  8
0
 10
5616.4514969625888625
 20
406.8259826721456989
 30
0.0
 40
0.0199999999999997
 50
270.0
 51
0.0
  0
LINE
  5
2C505
  8
0
 10
5616.4714969625892991
 20
406.8259826721456989
 30
0.0
 11
5616.4714969625892991
 21
406.8459826721457944
 31
0.0
  0
ARC
  5
2C506
  8
0
 10
5616.4814969625876984
 20
406.8459826721457944
 30
0.0
 40
0.0099999999999998
 50
90.0
 51
179.9999999999967031
  0
LINE
  5
2C507
  8
0
 10
5616.6877469785868016
 20
406.8559826721456716
 30
0.0
 11
5616.6877469785868016
 21
411.2106320160468158
 31
0.0
  0
ARC
  5
2C508
  8
0
 10
5617.0939969785858921
 20
414.9159841374590201
 30
0.0
 40
0.4062509575496636
 50
359.8755998368919222
 51
180.1244001631081062
  0
ARC
  5
2C509
  8
0
 10
5617.8839969625878439
 20
406.7459826721457148
 30
0.0
 40
0.0099999999999992
 50
359.9999999999968168
 51
90.0
  0
LINE
  5
2C50A
  8
0
 10
5617.8939969625880622
 20
406.7459826721457148
 30
0.0
 11
5617.8939969625880622
 21
406.3744830758457169
 31
0.0
  0
ARC
  5
2C50B
  8
0
 10
5617.9729926433137734
 20
406.3744830758457169
 30
0.0
 40
0.0789956807254226
 50
179.9999999999967031
 51
269.3781879575436733
  0
LINE
  5
2C50C
  8
0
 10
5617.9721353462882689
 20
406.2954920471456717
 30
0.0
 11
5618.3441413591190212
 21
406.2954816295734872
 31
0.0
  0
LINE
  5
2C50D
  8
0
 10
5618.4127537585727623
 20
406.2954797081673064
 30
0.0
 11
5619.155997214486888
 21
406.2954588945457886
 31
0.0
  0
ARC
  5
2C50E
  8
0
 10
5619.1560376425059076
 20
406.2854993239067198
 30
0.0
 40
0.0099596526916466
 50
359.7693375032666836
 51
90.2325744888085097
  0
LINE
  5
2C50F
  8
0
 10
5619.1659972144880157
 20
406.2854592282457133
 30
0.0
 11
5619.1659972144880157
 21
404.8804826721457744
 31
0.0
  0
ARC
  5
2C510
  8
0
 10
5619.1560526313978698
 20
404.8804272552362136
 30
0.0
 40
0.0099447374966223
 50
269.6807184237168258
 51
0.3192815761072455
  0
LINE
  5
2C511
  8
0
 10
5619.155997214486888
 20
404.8704826721457835
 30
0.0
 11
5619.1269964221992268
 21
404.8704826721457835
 31
0.0
  0
ARC
  5
2C512
  8
0
 10
5619.0246349713670497
 20
404.1642353264658141
 30
0.0
 40
0.7136267791333905
 50
81.7531418067914046
 51
98.2468581932085954
  0
LINE
  5
2C513
  8
0
 10
5618.9222735205366916
 20
404.8704826721457835
 30
0.0
 11
5618.7120541636941198
 21
404.8704826721457835
 31
0.0
  0
ARC
  5
2C514
  8
0
 10
5618.7121157271267293
 20
404.8805753707383133
 30
0.0
 40
0.010092886353066
 50
203.354096492612797
 51
269.6505115945744819
  0
LINE
  5
2C515
  8
0
 10
5618.7028497255887487
 20
404.8765744245457086
 30
0.0
 11
5618.4092773310676421
 21
405.5681876445902958
 31
0.0
  0
ARC
  5
2C516
  8
0
 10
5618.4819968306101146
 20
405.5990552848048765
 30
0.0
 40
0.078999600123322
 50
179.9999137361560031
 51
203.0000293820619106
  0
LINE
  5
2C517
  8
0
 10
5618.4029972304870171
 20
405.5990554037458082
 30
0.0
 11
5618.4029972304870171
 21
406.2854826721458039
 31
0.0
  0
ARC
  5
2C518
  8
0
 10
5618.4129972052505764
 20
406.2854826971646958
 30
0.0
 40
0.0099999747636251
 50
91.3949880430816535
 51
180.0001433480134949
  0
ARC
  5
2C519
  8
0
 10
5618.3439987239216862
 20
406.285483379066477
 30
0.0
 40
0.0099982546903915
 50
359.9959489350557078
 51
90.0096547429416063
  0
LINE
  5
2C51A
  8
0
 10
5618.3539969785870198
 20
406.2854826721458039
 30
0.0
 11
5618.3539969785870198
 21
404.8804826721457744
 31
0.0
  0
ARC
  5
2C51B
  8
0
 10
5618.3439974877601344
 20
404.8804821629719868
 30
0.0
 40
0.0099994908400294
 50
269.996990836481416
 51
0.0029174991061211
  0
LINE
  5
2C51C
  8
0
 10
5618.3439969625887898
 20
404.8704826721457835
 30
0.0
 11
5617.9729970178832446
 21
404.8704826721437939
 31
0.0
  0
ARC
  5
2C51D
  8
0
 10
5617.9764080519489653
 20
404.7880715872087194
 30
0.0
 40
0.0824816468893532
 50
92.3701467383739327
 51
177.6299276035884986
  0
LINE
  5
2C51E
  8
0
 10
5617.8939969625880622
 20
404.7914825143457733
 30
0.0
 11
5617.8939969625880622
 21
403.6859826721458262
 31
0.0
  0
ARC
  5
2C51F
  8
0
 10
5618.2570599546888843
 20
405.5829826721458176
 30
0.0
 40
0.6617170096000033
 50
278.4237760453746091
 51
304.7131005796458112
  0
ARC
  5
2C520
  8
0
 10
5618.2570599546888843
 20
405.5829826721455902
 30
0.0
 40
0.6617170096001227
 50
77.259053781651005
 51
81.5762463389937551
  0
ARC
  5
2C521
  8
0
 10
5619.1859972144884523
 20
406.1904826721457198
 30
0.0
 40
0.0200000000000023
 50
180.0
 51
270.0
  0
LINE
  5
2C522
  8
0
 10
5619.1859972144884523
 20
406.1704826721457948
 30
0.0
 11
5619.2259972144893254
 21
406.1704826721457948
 31
0.0
  0
ARC
  5
2C523
  8
0
 10
5619.2259972144893254
 20
406.1604826320850066
 30
0.0
 40
0.0100000400606648
 50
359.8378204931757978
 51
90.0
  0
LINE
  5
2C524
  8
0
 10
5619.2359972144877247
 20
406.160454326345814
 30
0.0
 11
5619.2359972144877247
 21
405.0054826721457175
 31
0.0
  0
ARC
  5
2C525
  8
0
 10
5619.2259972144893254
 20
405.0054826721457175
 30
0.0
 40
0.0099999999999998
 50
270.0
 51
0.0000000000065138
  0
LINE
  5
2C526
  8
0
 10
5619.2259972144893254
 20
404.9954826721457835
 30
0.0
 11
5619.1859972144884523
 21
404.9954826721457835
 31
0.0
  0
ARC
  5
2C527
  8
0
 10
5619.1859972144884523
 20
404.9754826721458016
 30
0.0
 40
0.0200000000000014
 50
90.0
 51
179.9999999999967031
  0
ARC
  5
2C528
  8
0
 10
5619.2559972144881613
 20
405.0654826721457766
 30
0.0
 40
0.0200000000000023
 50
90.0
 51
179.9999999999934914
  0
LINE
  5
2C529
  8
0
 10
5619.2559972144881613
 20
405.0854826721458153
 30
0.0
 11
5619.2959972144890344
 21
405.0854826721458153
 31
0.0
  0
ARC
  5
2C52A
  8
0
 10
5619.2959972144890344
 20
405.0954826721458062
 30
0.0
 40
0.0100000000000007
 50
270.0
 51
359.9999999999772058
  0
LINE
  5
2C52B
  8
0
 10
5619.3059972144892527
 20
405.0954826721458062
 30
0.0
 11
5619.3059972144892527
 21
406.0704493034457983
 31
0.0
  0
ARC
  5
2C52C
  8
0
 10
5619.2959637901149108
 20
406.0704493034457983
 30
0.0
 40
0.0100334243735008
 50
359.9999999999805027
 51
89.8091300654826341
  0
LINE
  5
2C52D
  8
0
 10
5619.2959972144890344
 20
406.0804826721458198
 30
0.0
 11
5619.2559974364412483
 21
406.0804826721458198
 31
0.0
  0
ARC
  5
2C52E
  8
0
 10
5619.2559972144917992
 20
406.1004826721492122
 30
0.0
 40
0.0200000000047314
 50
180.0
 51
270.0006358353645055
  0
LINE
  5
2C52F
  8
0
 10
5619.3059972144892527
 20
405.8329826721458176
 30
0.0
 11
5619.4079971511509939
 21
405.8329827246059835
 31
0.0
  0
ARC
  5
2C530
  8
0
 10
5619.4079971105184086
 20
405.911984324604191
 30
0.0
 40
0.0790015999982702
 50
270.0000294681661899
 51
359.9988325939738729
  0
ARC
  5
2C531
  8
0
 10
1447.7250606197530942
 20
405.9969826935430888
 30
0.0
 40
4171.7619389566898462
 50
359.9988325939738729
 51
0.0011674060260869
  0
LINE
  5
2C532
  8
0
 10
5619.3059972144892527
 20
405.3329918854910829
 30
0.0
 11
5619.9479920884868989
 21
405.3329918854910829
 31
0.0
  0
ARC
  5
2C533
  8
0
 10
5619.9480080798548443
 20
405.3719805120712181
 30
0.0
 40
0.0389886298595749
 50
269.976499870139719
 51
358.7926143640128203
  0
LINE
  5
2C534
  8
0
 10
5619.9869880532878597
 20
405.3711589711458032
 30
0.0
 11
5619.9870112408607383
 21
406.0819826721457275
 31
0.0
  0
LINE
  5
2C535
  8
0
 10
5619.4638591228631412
 20
405.8561212027871079
 30
0.0
 11
5619.9738056351652631
 21
405.3427464986555719
 31
0.0
  0
ARC
  5
2C536
  8
0
 10
5623.7978525192211237
 20
400.4597508079331192
 30
0.0
 40
8.2452841473002412
 50
134.9465715952104006
 51
136.2537337407777045
  0
ARC
  5
2C537
  8
0
 10
5620.3600407966223429
 20
403.7503102779467099
 30
0.0
 40
3.4864680061021822
 50
136.2537337407777045
 51
142.6027129004980054
  0
ARC
  5
2C538
  8
0
 10
5618.1042538827950921
 20
405.4748203638404789
 30
0.0
 40
0.6470121362318607
 50
142.6027129004980054
 51
158.0481038635898017
  0
ARC
  5
2C539
  8
0
 10
5617.8364311827463098
 20
405.5827662861657927
 30
0.0
 40
0.3582538968548335
 50
158.0481038635898017
 51
205.2262089295938097
  0
ARC
  5
2C53A
  8
0
 10
5621.9139165137330565
 20
408.8375464189044237
 30
0.0
 40
5.5918191354539326
 50
220.2371001296176019
 51
225.1894224775500959
  0
ARC
  5
2C53B
  8
0
 10
5618.385313648893316
 20
405.851727137084481
 30
0.0
 40
0.9694653020216678
 50
205.7806206536442062
 51
220.2371001296176019
  0
LINE
  5
2C53C
  8
0
 10
5618.2049969625877566
 20
403.5559826721457171
 30
0.0
 11
5618.2049969625877566
 21
403.3319826721457844
 31
0.0
  0
ARC
  5
2C53D
  8
0
 10
5617.9139969625875892
 20
403.6859826721458262
 30
0.0
 40
0.0200000000000009
 50
180.0
 51
270.0
  0
ARC
  5
2C53E
  8
0
 10
5618.1949969625893573
 20
403.3319826721457844
 30
0.0
 40
0.0100000000000007
 50
270.0
 51
0.0
  0
ARC
  5
2C53F
  8
0
 10
5618.1949969625893573
 20
403.5559826721457171
 30
0.0
 40
0.0099999999999993
 50
359.9999999999968168
 51
90.0
  0
ARC
  5
2C540
  8
0
 10
5618.1309969625890517
 20
403.5859826721456898
 30
0.0
 40
0.02
 50
180.0
 51
270.0
  0
LINE
  5
2C541
  8
0
 10
5618.1109969625877056
 20
403.5859826721456898
 30
0.0
 11
5618.1109969625877056
 21
403.6059826721457853
 31
0.0
  0
ARC
  5
2C542
  8
0
 10
5618.1009969625893063
 20
403.6059826721457853
 30
0.0
 40
0.0099999999999989
 50
359.9999999999935199
 51
90.0
  0
ARC
  5
2C543
  8
0
 10
5618.0639969625881349
 20
403.6359826721458148
 30
0.0
 40
0.02
 50
180.0
 51
270.0
  0
LINE
  5
2C544
  8
0
 10
5618.0439969625876984
 20
403.6359826721458148
 30
0.0
 11
5618.0439969625876984
 21
403.655982672145683
 31
0.0
  0
ARC
  5
2C545
  8
0
 10
5618.0339969696997287
 20
403.6559826792573062
 30
0.0
 40
0.009999992888471
 50
359.9999592538982824
 51
90.000040746117989
  0
ARC
  5
2C546
  8
0
 10
5617.8014969625892263
 20
406.7759826721458012
 30
0.0
 40
0.0200000000000003
 50
180.0
 51
269.8192132465724171
  0
LINE
  5
2C547
  8
0
 10
5617.7814969625887898
 20
406.7759826721458012
 30
0.0
 11
5617.7814969625887898
 21
406.7959826721457262
 31
0.0
  0
ARC
  5
2C548
  8
0
 10
5617.7714969625885715
 20
406.7959826721457262
 30
0.0
 40
0.0099999999999998
 50
0.0000000000032569
 51
90.0
  0
ARC
  5
2C549
  8
0
 10
5617.736496962588717
 20
406.8259826721456989
 30
0.0
 40
0.0199999999999997
 50
180.0
 51
270.0
  0
LINE
  5
2C54A
  8
0
 10
5617.7164969625891899
 20
406.8259826721456989
 30
0.0
 11
5617.7164969625891899
 21
406.8459826721457944
 31
0.0
  0
ARC
  5
2C54B
  8
0
 10
5617.7064969625880622
 20
406.8459826721457944
 30
0.0
 40
0.0099999999999998
 50
0.0000000000032569
 51
90.0
  0
LINE
  5
2C54C
  8
0
 10
5617.5002469785858921
 20
406.8559826721456716
 30
0.0
 11
5617.5002469625878803
 21
411.210677889400813
 31
0.0
  0
LINE
  5
2C54D
  8
0
 10
5617.5002469625878803
 20
411.9863119902727817
 30
0.0
 11
5617.5002469785858921
 21
414.9151020891458188
 31
0.0
  0
LINE
  5
2C54E
  8
0
 10
5616.7189725672888017
 20
411.1829864260815839
 30
0.0
 11
5616.7189969629671396
 21
411.154089788220972
 31
0.0
  0
ARC
  5
2C54F
  8
0
 10
5616.7299473512803161
 20
411.1540639392234198
 30
0.0
 40
0.0109486310404882
 50
179.8493426830600868
 51
212.1365299172597929
  0
ARC
  5
2C550
  8
0
 10
5616.7318862419306242
 20
411.1552819263383185
 30
0.0
 40
0.0132383449031062
 50
212.1365299172597929
 51
244.2304006011682134
  0
ARC
  5
2C551
  8
0
 10
5616.7428028183549031
 20
411.1778945606836828
 30
0.0
 40
0.0383481611682088
 50
244.2304006011682134
 51
254.4034302372186005
  0
ARC
  5
2C552
  8
0
 10
5616.7911228535249393
 20
411.4003867286912737
 30
0.0
 40
0.2659709880603487
 50
257.265175415215424
 51
265.3344250331497278
  0
ARC
  5
2C553
  8
0
 10
5616.9179485631866555
 20
412.7427584908314202
 30
0.0
 40
1.614302500045131
 50
264.7233243709520139
 51
267.5306045382324101
  0
ARC
  5
2C554
  8
0
 10
5616.8648240358088515
 20
410.7581674067488962
 30
0.0
 40
0.3952025575567276
 50
94.8804091527189541
 51
96.7841253202132776
  0
ARC
  5
2C555
  8
0
 10
5616.8490818175341701
 20
410.8904974510300008
 30
0.0
 40
0.2619394416707609
 50
96.7841253202132776
 51
101.0580528853561049
  0
ARC
  5
2C556
  8
0
 10
5616.8039193965141749
 20
411.1215876403437051
 30
0.0
 40
0.0264775129658673
 50
101.0580528853561049
 51
112.4553843697676001
  0
ARC
  5
2C557
  8
0
 10
5616.7969447452360328
 20
411.1384630937002953
 30
0.0
 40
0.0082175379816494
 50
112.4553843697676001
 51
126.3850378638941976
  0
ARC
  5
2C558
  8
0
 10
5616.7929839219668793
 20
411.1438383619342858
 30
0.0
 40
0.0015405903585455
 50
126.3850378638961018
 51
157.6917375888116908
  0
ARC
  5
2C559
  8
0
 10
5616.7923726912385973
 20
411.1440891489007186
 30
0.0
 40
0.0008799110830698
 50
157.6917375888268111
 51
222.7764702918169917
  0
ARC
  5
2C55A
  8
0
 10
5616.7952193055480166
 20
411.1467229720258842
 30
0.0
 40
0.0047580855599133
 50
222.7764702918169917
 51
249.2965447482322077
  0
ARC
  5
2C55B
  8
0
 10
5616.8182732080776987
 20
411.2160567986206274
 30
0.0
 40
0.0778205992496909
 50
251.4664604343016947
 51
263.3923772231905787
  0
ARC
  5
2C55C
  8
0
 10
5616.880124502498802
 20
411.6573966541373011
 30
0.0
 40
0.5234544943165167
 50
262.2259473638786176
 51
265.0332562216092924
  0
ARC
  5
2C55D
  8
0
 10
5616.9669506412410556
 20
409.5546077602211881
 30
0.0
 40
1.6030873061740769
 50
91.9565398715652265
 51
94.8576067012454871
  0
ARC
  5
2C55E
  8
0
 10
5617.2813436409105634
 20
400.3514272065035016
 30
0.0
 40
10.8116363375127307
 50
91.6862810634845005
 51
91.9565398715652265
  0
ARC
  5
2C55F
  8
0
 10
5617.0685626798012891
 20
407.5791255084305931
 30
0.0
 40
3.580806614646233
 50
89.8375737219903385
 51
91.6862810634845005
  0
ARC
  5
2C560
  8
0
 10
5617.0889414747107367
 20
407.7010065355069059
 30
0.0
 40
3.4589263200951561
 50
89.9162577646343095
 51
90.1694177405949233
  0
ARC
  5
2C561
  8
0
 10
5617.0939634070791726
 20
415.8815302793437922
 30
0.0
 40
4.7617114278577111
 50
269.4586554224005113
 51
270.0004037601044047
  0
ARC
  5
2C562
  8
0
 10
5617.085163789379294
 20
414.9501950863945012
 30
0.0
 40
3.8303346647282202
 50
267.6593758450115956
 51
269.4586535155507931
  0
ARC
  5
2C563
  8
0
 10
5616.9774429725148366
 20
412.3147807595722725
 30
0.0
 40
1.192719748102574
 50
265.3257452428683791
 51
267.6593758450115956
  0
ARC
  5
2C564
  8
0
 10
5616.9190176203792362
 20
411.6002077411720848
 30
0.0
 40
0.4757622037544488
 50
262.5227707526385075
 51
265.3257452428683791
  0
ARC
  5
2C565
  8
0
 10
5616.8730688662826651
 20
411.2501172099063069
 30
0.0
 40
0.1226692017211513
 50
258.3963513059431989
 51
262.5227707526385075
  0
ARC
  5
2C566
  8
0
 10
5616.860682685750362
 20
411.1897959458432865
 30
0.0
 40
0.0610893968631299
 50
252.177082187586791
 51
258.3963513059431989
  0
ARC
  5
2C567
  8
0
 10
5616.848090675784988
 20
411.1506302572776121
 30
0.0
 40
0.019949271975292
 50
240.1999959238978875
 51
252.177082187586791
  0
ARC
  5
2C568
  8
0
 10
5616.8460388202583999
 20
411.1470478414520926
 30
0.0
 40
0.015820856514349
 50
224.760484711913108
 51
240.2005814009388018
  0
ARC
  5
2C569
  8
0
 10
5616.8431998915148142
 20
411.1442321029957156
 30
0.0
 40
0.0118224127954311
 50
201.0816376070023921
 51
224.7719340418514946
  0
ARC
  5
2C56A
  8
0
 10
5616.8457469879249402
 20
411.1452140079716173
 30
0.0
 40
0.0145522181923444
 50
181.7666770774143004
 51
201.0816376070023921
  0
LINE
  5
2C56B
  8
0
 10
5616.831201686987697
 20
411.1447653711458088
 30
0.0
 11
5616.831201686987697
 21
411.1519472000151723
 31
0.0
  0
ARC
  5
2C56C
  8
0
 10
5617.0939883787486906
 20
406.3399322383211825
 30
0.0
 40
4.8061736234638266
 50
89.9998976695693216
 51
90.1493746693196982
  0
ARC
  5
2C56D
  8
0
 10
5617.0937674198894456
 20
406.424685439596999
 30
0.0
 40
4.7214201341592092
 50
90.1493746693196982
 51
90.4810662233201271
  0
ARC
  5
2C56E
  8
0
 10
5617.0905583431267587
 20
406.8068827858160148
 30
0.0
 40
4.3392093158528002
 50
90.4810662233201271
 51
91.2959948675557484
  0
ARC
  5
2C56F
  8
0
 10
5617.0561310786160902
 20
408.3286484867782065
 30
0.0
 40
2.8170542366420981
 50
91.2959948675557484
 51
92.9459055484158938
  0
ARC
  5
2C570
  8
0
 10
5616.9559785927813209
 20
410.2748267320413902
 30
0.0
 40
0.8683007163746708
 50
92.9459055484158938
 51
96.009489391134565
  0
ARC
  5
2C571
  8
0
 10
5616.8811858058816142
 20
410.9853006275498046
 30
0.0
 40
0.1539008863276992
 50
96.009489391134565
 51
102.394564774988396
  0
ARC
  5
2C572
  8
0
 10
5616.8518475319469871
 20
411.1187991321688173
 30
0.0
 40
0.0172166332004454
 50
102.394564774988396
 51
117.4885795794147043
  0
ARC
  5
2C573
  8
0
 10
5616.844847120650229
 20
411.1322533440884968
 30
0.0
 40
0.0020501709660811
 50
117.4885795793563972
 51
145.8502787753120913
  0
ARC
  5
2C574
  8
0
 10
5616.8437877595370082
 20
411.1329719269955945
 30
0.0
 40
0.0007700899674461
 50
145.8502787753039911
 51
207.7008039333819056
  0
ARC
  5
2C575
  8
0
 10
5616.8442819116016835
 20
411.1332313714747784
 30
0.0
 40
0.0013282097588605
 50
207.7008039333790919
 51
232.1611768085670917
  0
ARC
  5
2C576
  8
0
 10
5616.8470630202082248
 20
411.1368117430037046
 30
0.0
 40
0.0058618203911511
 50
232.1611768085670917
 51
248.8067838181273999
  0
ARC
  5
2C577
  8
0
 10
5616.8608603470929665
 20
411.172395871107426
 30
0.0
 40
0.0440272026379836
 50
248.8067838181273999
 51
258.3294917570758003
  0
ARC
  5
2C578
  8
0
 10
5616.858036004200585
 20
411.1304683918057776
 30
0.0
 40
0.0042662257695091
 50
110.7287186341907983
 51
134.1631676471428136
  0
ARC
  5
2C579
  8
0
 10
5616.8684117494967722
 20
411.1030513474566987
 30
0.0
 40
0.0335809048789689
 50
100.9009311676736047
 51
110.7287186341907983
  0
ARC
  5
2C57A
  8
0
 10
5616.8948885355312086
 20
410.9655713799645014
 30
0.0
 40
0.1735871963814404
 50
95.9143460918448056
 51
100.9009311676736047
  0
ARC
  5
2C57B
  8
0
 10
5616.9596803784970689
 20
410.3401253173464056
 30
0.0
 40
0.8023802944347572
 50
93.7611894050676966
 51
95.9143460918448056
  0
ARC
  5
2C57C
  8
0
 10
5617.0023518962216258
 20
409.6910261418462937
 30
0.0
 40
1.4528805619673311
 50
92.0841532360301045
 51
93.7611894050676966
  0
ARC
  5
2C57D
  8
0
 10
5617.1011782428868173
 20
406.9753741205686879
 30
0.0
 40
4.1703302022484081
 50
91.3642737412211261
 51
92.0841532360301045
  0
ARC
  5
2C57E
  8
0
 10
5617.0640553520433969
 20
408.5341397204800842
 30
0.0
 40
2.6111226136023058
 50
90.6406171157000813
 51
91.3642737412211261
  0
ARC
  5
2C57F
  8
0
 10
5617.1464601203279017
 20
401.1642949701526959
 30
0.0
 40
9.9814280475557933
 50
90.4526836385164756
 51
90.6406171157000813
  0
ARC
  5
2C580
  8
0
 10
5617.088418058499883
 20
408.5104760479039783
 30
0.0
 40
2.6350176786713302
 50
89.8786923139289939
 51
90.4526836385164756
  0
ARC
  5
2C581
  8
0
 10
5617.2891613560896076
 20
424.1106240517058268
 30
0.0
 40
12.9922711212270894
 50
268.5882090492377188
 51
269.1392946981292766
  0
ARC
  5
2C582
  8
0
 10
5617.0199392247131982
 20
412.8339602765485097
 30
0.0
 40
1.7124194772936101
 50
265.5242625750630054
 51
268.297349432437386
  0
ARC
  5
2C583
  8
0
 10
5616.9050269497529371
 20
411.3659137625979838
 30
0.0
 40
0.2398824156008814
 50
259.7222125367795229
 51
265.5242625750630054
  0
ARC
  5
2C584
  8
0
 10
5616.8677204041068762
 20
411.1601757427952748
 30
0.0
 40
0.030789347470133
 50
248.2870549192417968
 51
259.7222125367795229
  0
ARC
  5
2C585
  8
0
 10
5616.8577067824990081
 20
411.1350291622076156
 30
0.0
 40
0.0037223355745186
 50
225.4408852515061028
 51
248.2870549192417968
  0
ARC
  5
2C586
  8
0
 10
5616.8556782154973916
 20
411.1329691332506968
 30
0.0
 40
0.000831176052007
 50
137.6738482490266904
 51
225.4408852515038006
  0
ARC
  5
2C587
  8
0
 10
5617.0939825501482119
 20
415.7892456126807019
 30
0.0
 40
4.6514092550573221
 50
269.5017696277025721
 51
270.0001775315575969
  0
ARC
  5
2C588
  8
0
 10
5617.0900497367638309
 20
415.3369891034204215
 30
0.0
 40
4.199135646287683
 50
268.7024335940978972
 51
269.5017696277025721
  0
ARC
  5
2C589
  8
0
 10
5617.0623623793489969
 20
414.1146258357090915
 30
0.0
 40
2.9764588500695339
 50
267.6730481730460269
 51
268.7024335940978972
  0
ARC
  5
2C58A
  8
0
 10
5616.9714302736610989
 20
411.8922842672398019
 30
0.0
 40
0.7522580623574314
 50
266.2128949528637918
 51
267.7207305285512007
  0
ARC
  5
2C58B
  8
0
 10
5617.0632081161811584
 20
411.1471285373107776
 30
0.0
 40
0.0021350468175386
 50
235.6560309610376009
 51
266.0358238408223883
  0
LINE
  5
2C58C
  8
0
 10
5617.0630605145461232
 20
411.1449985986566276
 30
0.0
 11
5617.0784266895871042
 21
411.1436056774458052
 31
0.0
  0
ARC
  5
2C58D
  8
0
 10
5617.0782144304566827
 20
411.145580916164306
 30
0.0
 40
0.0019866106753134
 50
276.1334698387195772
 51
312.4025264499733225
  0
ARC
  5
2C58E
  8
0
 10
5617.0763645435918079
 20
411.1476066213907075
 30
0.0
 40
0.004729886650839
 50
312.4025264499733225
 51
333.309581899206421
  0
LINE
  5
2C58F
  8
0
 10
5617.1092710466900826
 20
411.1436056041458187
 30
0.0
 11
5617.0784266895871042
 21
411.1436056774458052
 31
0.0
  0
LINE
  5
2C590
  8
0
 10
5617.0787228784884064
 20
411.1436056041458187
 30
0.0
 11
5617.0625602275886195
 21
411.1421941816457206
 31
0.0
  0
LINE
  5
2C591
  8
0
 10
5617.0625602275886195
 20
411.1421941816457206
 30
0.0
 11
5617.0320120593878528
 21
411.1421941816457206
 31
0.0
  0
LINE
  5
2C592
  8
0
 10
5617.0320120593878528
 20
411.1421941816457206
 30
0.0
 11
5617.0158494085881102
 21
411.1436056041458187
 31
0.0
  0
LINE
  5
2C593
  8
0
 10
5617.0158494085881102
 20
411.1436056041458187
 30
0.0
 11
5617.0323223539162427
 21
411.1450695012468941
 31
0.0
  0
ARC
  5
2C594
  8
0
 10
5617.0166122697137325
 20
411.1464225062239848
 30
0.0
 40
0.0028496480394663
 50
215.0046533236381094
 51
259.0099375874332281
  0
LINE
  5
2C595
  8
0
 10
5617.0158494085881102
 20
411.1436056041458187
 30
0.0
 11
5616.9853012403891626
 21
411.1436056041458187
 31
0.0
  0
LINE
  5
2C596
  8
0
 10
5616.9853012403891626
 20
411.1436056041458187
 30
0.0
 11
5616.9700270089888363
 21
411.1422195450456911
 31
0.0
  0
LINE
  5
2C597
  8
0
 10
5616.9700270089888363
 20
411.1422195450456911
 30
0.0
 11
5616.9317244878238853
 21
411.1421890191709849
 31
0.0
  0
LINE
  5
2C598
  8
0
 10
5616.9385904213886533
 20
411.1421941816457206
 30
0.0
 11
5616.9283153782916997
 21
411.1412627640995083
 31
0.0
  0
ARC
  5
2C599
  8
0
 10
5616.9824857851472188
 20
411.144975510576387
 30
0.0
 40
0.0052019330520311
 50
318.1215498135042026
 51
344.7313259184682011
  0
ARC
  5
2C59A
  8
0
 10
5616.9846988347908336
 20
411.1429913566461778
 30
0.0
 40
0.0022296518490394
 50
277.8938569337021249
 51
318.1215498135042026
  0
LINE
  5
2C59B
  8
0
 10
5616.9850050514887698
 20
411.1407828325457103
 30
0.0
 11
5616.9693373300851817
 21
411.1422189953938755
 31
0.0
  0
ARC
  5
2C59C
  8
0
 10
5616.9698982670051919
 20
411.1447747963665051
 30
0.0
 40
0.0026166331113445
 50
207.5685039006621082
 51
257.6212227518161058
  0
LINE
  5
2C59D
  8
0
 10
5616.9676728965532675
 20
411.1422176688939771
 30
0.0
 11
5616.9687283167877467
 21
411.140787410645828
 31
0.0
  0
ARC
  5
2C59E
  8
0
 10
5616.9711468058812898
 20
411.142572068997822
 30
0.0
 40
0.0030056771157365
 50
216.4244635697997978
 51
268.049070987163077
  0
LINE
  5
2C59F
  8
0
 10
5616.9718719478851199
 20
411.1395428506530152
 30
0.0
 11
5616.9850050516670308
 21
411.1407828325457103
 31
0.0
  0
LINE
  5
2C5A0
  8
0
 10
5616.9850050516670308
 20
411.1407828325457103
 30
0.0
 11
5617.0161455974894125
 21
411.1407828325457103
 31
0.0
  0
LINE
  5
2C5A1
  8
0
 10
5617.0161455974894125
 20
411.1407828325457103
 30
0.0
 11
5617.0320120593878528
 21
411.1421941816457206
 31
0.0
  0
LINE
  5
2C5A2
  8
0
 10
5617.0136459770837973
 20
411.1436056774458052
 30
0.0
 11
5617.0142836206878201
 21
411.1421618579457231
 31
0.0
  0
ARC
  5
2C5A3
  8
0
 10
5617.016426034378128
 20
411.143108026345999
 30
0.0
 40
0.0023420442048737
 50
203.8280102605079946
 51
263.1228897969887726
  0
LINE
  5
2C5A4
  8
0
 10
5617.0158494085881102
 20
411.1407827592457238
 30
0.0
 11
5617.031123606087931
 21
411.1393968455457184
 31
0.0
  0
LINE
  5
2C5A5
  8
0
 10
5617.031123606087931
 20
411.1393968455457184
 30
0.0
 11
5617.0317158706666305
 21
411.1393714101457135
 31
0.0
  0
LINE
  5
2C5A6
  8
0
 10
5617.0317158706666305
 20
411.1393714101457135
 30
0.0
 11
5617.0625602275886195
 21
411.1393713367457963
 31
0.0
  0
LINE
  5
2C5A7
  8
0
 10
5617.0625602275886195
 20
411.1393713367457963
 30
0.0
 11
5617.0787228784884064
 21
411.1407827592457238
 31
0.0
  0
LINE
  5
2C5A8
  8
0
 10
5617.0787228784884064
 20
411.1407827592457238
 30
0.0
 11
5617.1092710466900826
 21
411.1407827592457238
 31
0.0
  0
ARC
  5
2C5A9
  8
0
 10
5617.0753740004893189
 20
411.1453026814305076
 30
0.0
 40
0.0058185909129539
 50
319.2292955579060845
 51
343.0430505881564045
  0
ARC
  5
2C5AA
  8
0
 10
5617.077905835420097
 20
411.1431195182100851
 30
0.0
 40
0.0024754801219769
 50
289.2720764752580749
 51
319.229295557910973
  0
LINE
  5
2C5AB
  8
0
 10
5617.0787228784884064
 20
411.1407827592457238
 30
0.0
 11
5617.0625602275886195
 21
411.1421941816457206
 31
0.0
  0
ARC
  5
2C5AC
  8
0
 10
5617.0662422374771268
 20
411.1439395203263985
 30
0.0
 40
0.0061387754824214
 50
196.5178364210865993
 51
212.5835865519050003
  0
ARC
  5
2C5AD
  8
0
 10
5617.0638592381328635
 20
411.1424164903460223
 30
0.0
 40
0.0033106477979217
 50
212.5835865519078141
 51
246.8977321479665079
  0
LINE
  5
2C5AE
  8
0
 10
5617.0625602275886195
 20
411.1393713367457963
 30
0.0
 11
5617.0792363441541966
 21
411.1378596712019089
 31
0.0
  0
ARC
  5
2C5AF
  8
0
 10
5617.0796753037093367
 20
411.1441546440617003
 30
0.0
 40
0.0063036541305482
 50
272.6021771719891262
 51
309.0351919712499011
  0
ARC
  5
2C5B0
  8
0
 10
5617.0774850432926542
 20
411.1455240053394959
 30
0.0
 40
0.0087868748782654
 50
314.5135748467354802
 51
327.3447607837849773
  0
ARC
  5
2C5B1
  8
0
 10
5617.029859055959605
 20
411.143324089973305
 30
0.0
 40
0.0045010756315325
 50
298.5764452183310027
 51
345.4614858064834948
  0
LINE
  5
2C5B2
  8
0
 10
5617.0320120593878528
 20
411.1393713367457963
 30
0.0
 11
5617.0216254091656083
 21
411.1384109765639892
 31
0.0
  0
ARC
  5
2C5B3
  8
0
 10
5617.0214348133122257
 20
411.143816278116617
 30
0.0
 40
0.0054140804307978
 50
215.4500854018851896
 51
265.1485012860184725
  0
ARC
  5
2C5B4
  8
0
 10
5617.0937857066437573
 20
404.2181065441391752
 30
0.0
 40
6.9556121709146392
 50
89.998259811810982
 51
90.9796960764585663
  0
ARC
  5
2C5B5
  8
0
 10
5617.0576165923694134
 20
406.3331865952849853
 30
0.0
 40
4.8402228857989513
 50
90.9796960764585663
 51
92.6314402496292075
  0
ARC
  5
2C5B6
  8
0
 10
5616.9010678576223654
 20
409.7394103698763956
 30
0.0
 40
1.4304035490975719
 50
92.6314402496292075
 51
96.2625464871006642
  0
ARC
  5
2C5B7
  8
0
 10
5616.7594482662179871
 20
411.029918285462486
 30
0.0
 40
0.1321482626230084
 50
96.2625464871006642
 51
106.0857685401324062
  0
ARC
  5
2C5B8
  8
0
 10
5616.7252090118990964
 20
411.1486536473381079
 30
0.0
 40
0.0085747513186286
 50
106.0857685401324062
 51
136.424978600521996
  0
ARC
  5
2C5B9
  8
0
 10
5617.090644911308118
 20
405.2079691652353972
 30
0.0
 40
6.8835285965795059
 50
89.9720988449227406
 51
91.8760950622104247
  0
ARC
  5
2C5BA
  8
0
 10
5616.9555915754435773
 20
409.3310120901606979
 30
0.0
 40
2.7582743784368589
 50
91.8760950622104247
 51
94.0480159534855744
  0
ARC
  5
2C5BB
  8
0
 10
5616.8139257160901252
 20
411.3328189239089738
 30
0.0
 40
0.7514610300291023
 50
94.0480159534855744
 51
98.3938095557348049
  0
ARC
  5
2C5BC
  8
0
 10
5616.7143417652487187
 20
412.0077046720430189
 30
0.0
 40
0.0692677023721776
 50
98.3938095557348049
 51
109.6876153041855986
  0
ARC
  5
2C5BD
  8
0
 10
5616.6940020576630559
 20
412.0645499859447796
 30
0.0
 40
0.0088930933271943
 50
109.6876153041855986
 51
127.0184511626218011
  0
ARC
  5
2C5BE
  8
0
 10
5616.6904077192248224
 20
412.0693166396151241
 30
0.0
 40
0.0029231472621462
 50
127.0184511626218011
 51
149.0671473342125921
  0
ARC
  5
2C5BF
  8
0
 10
5616.6888859200726074
 20
412.0702285574460007
 30
0.0
 40
0.0011490371227893
 50
149.065192341514404
 51
172.399258699875304
  0
ARC
  5
2C5C0
  8
0
 10
5616.6992699178081239
 20
412.0704125190354148
 30
0.0
 40
0.0115625332007233
 50
184.7429627975932078
 51
215.9299154076113894
  0
ARC
  5
2C5C1
  8
0
 10
5616.7007389386562863
 20
412.0714770397793814
 30
0.0
 40
0.0133767070251476
 50
215.929768459714893
 51
238.076874110645889
  0
ARC
  5
2C5C2
  8
0
 10
5616.7063837438290648
 20
412.0805376448352035
 30
0.0
 40
0.0240518365052386
 50
238.076874110645889
 51
253.330918461523197
  0
ARC
  5
2C5C3
  8
0
 10
5616.730152207734136
 20
412.1599176661231922
 30
0.0
 40
0.106913936744888
 50
253.330918461523197
 51
260.1950713563832096
  0
ARC
  5
2C5C4
  8
0
 10
5616.767525513815599
 20
412.3761751179068256
 30
0.0
 40
0.326377030360891
 50
260.1950713563832096
 51
261.6718549625085188
  0
LINE
  5
2C5C5
  8
0
 10
5616.7189969625887898
 20
412.0139127576456985
 30
0.0
 11
5616.7189969625887898
 21
412.0431017759602241
 31
0.0
  0
ARC
  5
2C5C6
  8
0
 10
5616.7595745327353143
 20
412.04316846483772
 30
0.0
 40
0.0405776249471177
 50
172.6789177414428025
 51
180.0941650219305075
  0
ARC
  5
2C5C7
  8
0
 10
5616.7614800792562164
 20
412.0429236460034872
 30
0.0
 40
0.0424988338919224
 50
165.9516871122118005
 51
172.6789177414428025
  0
ARC
  5
2C5C8
  8
0
 10
5616.7587821022680146
 20
412.043598744135295
 30
0.0
 40
0.0397176763410859
 50
151.5909202301575078
 51
165.9516871122118005
  0
ARC
  5
2C5C9
  8
0
 10
5616.7935180537679116
 20
412.0248099706270182
 30
0.0
 40
0.0792095025406663
 50
149.077490885848988
 51
151.5909202301575078
  0
ARC
  5
2C5CA
  8
0
 10
5616.7350303037583217
 20
412.1124325653664187
 30
0.0
 40
0.0582714288535473
 50
249.6574897431515865
 51
256.0765276765620229
  0
ARC
  5
2C5CB
  8
0
 10
5616.7175206084375532
 20
412.0652054246323246
 30
0.0
 40
0.0079028647270436
 50
233.781622869354095
 51
249.6574897431515865
  0
ARC
  5
2C5CC
  8
0
 10
5616.7148551625978143
 20
412.0615660045776281
 30
0.0
 40
0.003391769532374
 50
214.796718913356699
 51
233.781622869354095
  0
ARC
  5
2C5CD
  8
0
 10
5616.7133688302583323
 20
412.0602336810827069
 30
0.0
 40
0.0014321724554836
 50
130.7599560982210107
 51
204.9110272103436046
  0
ARC
  5
2C5CE
  8
0
 10
5616.7734558922693395
 20
411.8326092223347814
 30
0.0
 40
0.2377771540567558
 50
101.6189445393553967
 51
103.3948297670968941
  0
ARC
  5
2C5CF
  8
0
 10
5616.723187795629201
 20
412.043697097718109
 30
0.0
 40
0.0207864338092255
 50
103.3948297670968941
 51
114.1383482482316936
  0
ARC
  5
2C5D0
  8
0
 10
5616.7192630919444127
 20
412.0524551516768952
 30
0.0
 40
0.0111892046166711
 50
114.1383482482316936
 51
127.6149839150342018
  0
ARC
  5
2C5D1
  8
0
 10
5616.7696546300403497
 20
411.8357552467142
 30
0.0
 40
0.2339504186064603
 50
95.8386852310491548
 51
100.8622242069336039
  0
ARC
  5
2C5D2
  8
0
 10
5616.9019017123382582
 20
410.5424926779177213
 30
0.0
 40
1.5339570965228111
 50
94.1630965340584822
 51
95.8386852310491548
  0
ARC
  5
2C5D3
  8
0
 10
5616.9995264762692386
 20
408.7713545259940133
 30
0.0
 40
3.307656395860056
 50
91.3709939191195843
 51
93.6224626206596469
  0
ARC
  5
2C5D4
  8
0
 10
5617.5764346746291267
 20
366.8132185697360228
 30
0.0
 40
45.2695994431705984
 50
90.6106121627273779
 51
90.8303600057166562
  0
LINE
  5
2C5D5
  8
0
 10
5617.4690213578887779
 20
411.1829864260815839
 30
0.0
 11
5617.4689969622113495
 21
411.154089788220972
 31
0.0
  0
ARC
  5
2C5D6
  8
0
 10
5617.4580465738981729
 20
411.1540639392234198
 30
0.0
 40
0.0109486310404882
 50
327.8634700827402071
 51
0.1506573169398697
  0
ARC
  5
2C5D7
  8
0
 10
5617.4561076832460458
 20
411.1552819263383185
 30
0.0
 40
0.0132383449031062
 50
295.7695993988318151
 51
327.8634700827402071
  0
ARC
  5
2C5D8
  8
0
 10
5617.4451911068208574
 20
411.1778945606836828
 30
0.0
 40
0.0383481611682088
 50
285.5965697627814279
 51
295.7695993988318151
  0
ARC
  5
2C5D9
  8
0
 10
5617.3968710716508212
 20
411.4003867286912737
 30
0.0
 40
0.2659709880603487
 50
274.6655749668502722
 51
282.734824584784576
  0
ARC
  5
2C5DA
  8
0
 10
5617.270045361990924
 20
412.7427584908314202
 30
0.0
 40
1.614302500045131
 50
272.4693954617674763
 51
275.2766756290479861
  0
ARC
  5
2C5DB
  8
0
 10
5617.323169889368728
 20
410.7581674067488962
 30
0.0
 40
0.3952025575567276
 50
83.2158746797867082
 51
85.1195908472810459
  0
ARC
  5
2C5DC
  8
0
 10
5617.3389121076434094
 20
410.8904974510300008
 30
0.0
 40
0.2619394416707609
 50
78.9419471146438951
 51
83.2158746797867082
  0
ARC
  5
2C5DD
  8
0
 10
5617.3840745286634046
 20
411.1215876403437051
 30
0.0
 40
0.0264775129658673
 50
67.5446156302323431
 51
78.9419471146438951
  0
ARC
  5
2C5DE
  8
0
 10
5617.3910491799388183
 20
411.1384630937002953
 30
0.0
 40
0.0082175379816494
 50
53.6149621361057882
 51
67.5446156302323431
  0
ARC
  5
2C5DF
  8
0
 10
5617.3950100032097907
 20
411.1438383619342858
 30
0.0
 40
0.0015405903585455
 50
22.3082624111882701
 51
53.6149621361038626
  0
ARC
  5
2C5E0
  8
0
 10
5617.3956212339389822
 20
411.1440891489007186
 30
0.0
 40
0.0008799110830698
 50
317.2235297081829799
 51
22.3082624111731995
  0
ARC
  5
2C5E1
  8
0
 10
5617.3927746196295629
 20
411.1467229720258842
 30
0.0
 40
0.0047580855599133
 50
290.7034552517678776
 51
317.2235297081829799
  0
ARC
  5
2C5E2
  8
0
 10
5617.3697207170989714
 20
411.2160567986206274
 30
0.0
 40
0.0778205992496909
 50
276.6076227768094213
 51
288.5335395656982769
  0
ARC
  5
2C5E3
  8
0
 10
5617.3078694226787775
 20
411.6573966541373011
 30
0.0
 40
0.5234544943165167
 50
274.9667437784428898
 51
277.7740526361213824
  0
ARC
  5
2C5E4
  8
0
 10
5617.2210432839374334
 20
409.5546077602211881
 30
0.0
 40
1.6030873061740769
 50
85.1423932987545129
 51
88.0434601284347593
  0
ARC
  5
2C5E5
  8
0
 10
5616.9066502842651971
 20
400.3514272065035016
 30
0.0
 40
10.8116363375127307
 50
88.0434601284347593
 51
88.3137189365155137
  0
ARC
  5
2C5E6
  8
0
 10
5617.1194312453772
 20
407.5791255084305931
 30
0.0
 40
3.580806614646233
 50
88.3137189365155137
 51
90.1624262780096757
  0
ARC
  5
2C5E7
  8
0
 10
5617.0990524504659334
 20
407.7010065355069059
 30
0.0
 40
3.4589263200951561
 50
89.8305822594050625
 51
90.0837422353656763
  0
ARC
  5
2C5E8
  8
0
 10
5617.0940305180683936
 20
415.8815302836321735
 30
0.0
 40
4.7617114321462264
 50
269.9995962402081773
 51
270.5413445774952947
  0
ARC
  5
2C5E9
  8
0
 10
5617.102830135799195
 20
414.9501950863945012
 30
0.0
 40
3.8303346647282202
 50
270.5413464844493205
 51
272.3406241549884044
  0
ARC
  5
2C5EA
  8
0
 10
5617.2105509526627429
 20
412.3147807595722725
 30
0.0
 40
1.192719748102574
 50
272.3406241549884044
 51
274.6742547571316209
  0
ARC
  5
2C5EB
  8
0
 10
5617.2689763047983433
 20
411.6002077411720848
 30
0.0
 40
0.4757622037544488
 50
274.6742547571316209
 51
277.4772292473614925
  0
ARC
  5
2C5EC
  8
0
 10
5617.3149250588940049
 20
411.2501172099063069
 30
0.0
 40
0.1226692017211513
 50
277.4772292473614925
 51
281.6036486940566874
  0
ARC
  5
2C5ED
  8
0
 10
5617.3273112394272175
 20
411.1897959458432865
 30
0.0
 40
0.0610893968631299
 50
281.6036486940566874
 51
287.8229178124130954
  0
ARC
  5
2C5EE
  8
0
 10
5617.3399032493907725
 20
411.1506302572776121
 30
0.0
 40
0.019949271975292
 50
287.8229178124130954
 51
299.8000040761020273
  0
ARC
  5
2C5EF
  8
0
 10
5617.3419551049191796
 20
411.1470478414520926
 30
0.0
 40
0.015820856514349
 50
299.7994185990610845
 51
315.2395152880869205
  0
ARC
  5
2C5F0
  8
0
 10
5617.3447940336618558
 20
411.1442321029957156
 30
0.0
 40
0.0118224127954311
 50
315.228065958148477
 51
338.9183623929977216
  0
ARC
  5
2C5F1
  8
0
 10
5617.3422469372517298
 20
411.1452140079716173
 30
0.0
 40
0.0145522181923444
 50
338.9183623929977216
 51
358.2333229225857281
  0
LINE
  5
2C5F2
  8
0
 10
5617.3567922381880635
 20
411.1447653711458088
 30
0.0
 11
5617.3567922381880635
 21
411.1519472000151723
 31
0.0
  0
ARC
  5
2C5F3
  8
0
 10
5617.0940055464288889
 20
406.3399322383211825
 30
0.0
 40
4.8061736234638266
 50
89.8506253306802876
 51
90.0001023304306784
  0
ARC
  5
2C5F4
  8
0
 10
5617.0942265052890434
 20
406.424685439596999
 30
0.0
 40
4.7214201341592092
 50
89.5189337766798872
 51
89.8506253306802876
  0
ARC
  5
2C5F5
  8
0
 10
5617.0974355820490018
 20
406.8068827858160148
 30
0.0
 40
4.3392093158528002
 50
88.7040051324442658
 51
89.5189337766798872
  0
ARC
  5
2C5F6
  8
0
 10
5617.1318628465605798
 20
408.3286484867782065
 30
0.0
 40
2.8170542366420981
 50
87.0540944515841062
 51
88.7040051324442658
  0
ARC
  5
2C5F7
  8
0
 10
5617.2320153323944396
 20
410.2748267320413902
 30
0.0
 40
0.8683007163746708
 50
83.9905106088654492
 51
87.0540944515841062
  0
ARC
  5
2C5F8
  8
0
 10
5617.3068081192959653
 20
410.9853006275498046
 30
0.0
 40
0.1539008863276992
 50
77.6054352250115755
 51
83.9905106088654492
  0
ARC
  5
2C5F9
  8
0
 10
5617.3361463932305924
 20
411.1187991321688173
 30
0.0
 40
0.0172166332004454
 50
62.5114204205852815
 51
77.6054352250115755
  0
ARC
  5
2C5FA
  8
0
 10
5617.3431468045273505
 20
411.1322533440884968
 30
0.0
 40
0.0020501709660811
 50
34.1497212246879087
 51
62.5114204206435531
  0
ARC
  5
2C5FB
  8
0
 10
5617.3442061656405713
 20
411.1329719269955945
 30
0.0
 40
0.0007700899674461
 50
332.2991960666179807
 51
34.1497212246959876
  0
ARC
  5
2C5FC
  8
0
 10
5617.3437120135749865
 20
411.1332313714747784
 30
0.0
 40
0.0013282097588605
 50
307.8388231914328799
 51
332.2991960666208797
  0
ARC
  5
2C5FD
  8
0
 10
5617.3409309049693547
 20
411.1368117430037046
 30
0.0
 40
0.0058618203911511
 50
291.1932161818725717
 51
307.8388231914328799
  0
ARC
  5
2C5FE
  8
0
 10
5617.3271335780837035
 20
411.172395871107426
 30
0.0
 40
0.0440272026379836
 50
281.6705082429240861
 51
291.1932161818725717
  0
ARC
  5
2C5FF
  8
0
 10
5617.329957920976085
 20
411.1304683918057776
 30
0.0
 40
0.0042662257695091
 50
45.8368323528571509
 51
69.2712813658091164
  0
ARC
  5
2C600
  8
0
 10
5617.3195821756798978
 20
411.1030513474566987
 30
0.0
 40
0.0335809048789689
 50
69.2712813658091164
 51
79.0990688323264521
  0
ARC
  5
2C601
  8
0
 10
5617.2931053896463709
 20
410.9655713799645014
 30
0.0
 40
0.1735871963814404
 50
79.0990688323264521
 51
84.0856539081551944
  0
ARC
  5
2C602
  8
0
 10
5617.2283135466796011
 20
410.3401253173464056
 30
0.0
 40
0.8023802944347572
 50
84.0856539081551944
 51
86.238810594932346
  0
ARC
  5
2C603
  8
0
 10
5617.1856420289550442
 20
409.6910261418462937
 30
0.0
 40
1.4528805619673311
 50
86.238810594932346
 51
87.9158467639698955
  0
ARC
  5
2C604
  8
0
 10
5617.0868156822907622
 20
406.9753741205686879
 30
0.0
 40
4.1703302022484081
 50
87.9158467639698955
 51
88.6357262587788739
  0
ARC
  5
2C605
  8
0
 10
5617.1239385731350922
 20
408.5341397204800842
 30
0.0
 40
2.6111226136023058
 50
88.6357262587788739
 51
89.3593828842999187
  0
ARC
  5
2C606
  8
0
 10
5617.0415338048496778
 20
401.1642949701526959
 30
0.0
 40
9.9814280475557933
 50
89.3593828842999187
 51
89.5473163614835244
  0
ARC
  5
2C607
  8
0
 10
5617.0995758666776965
 20
408.5104760479039783
 30
0.0
 40
2.6350176786713302
 50
89.5473163614835244
 51
90.1213076860710203
  0
ARC
  5
2C608
  8
0
 10
5616.8988325692071157
 20
424.1106240455715124
 30
0.0
 40
12.9922711150917394
 50
270.8607053017664725
 51
271.4117909508664752
  0
ARC
  5
2C609
  8
0
 10
5617.1680547004652908
 20
412.8339602765485097
 30
0.0
 40
1.7124194772936101
 50
271.7026505675625003
 51
274.4757374249369946
  0
ARC
  5
2C60A
  8
0
 10
5617.2829669754246424
 20
411.3659137625979838
 30
0.0
 40
0.2398824156008814
 50
274.4757374249369946
 51
280.2777874632204771
  0
ARC
  5
2C60B
  8
0
 10
5617.3202735210697938
 20
411.1601757427952748
 30
0.0
 40
0.030789347470133
 50
280.2777874632204771
 51
291.7129450807581748
  0
ARC
  5
2C60C
  8
0
 10
5617.3302871426767524
 20
411.1350291622076156
 30
0.0
 40
0.0037223355745186
 50
291.7129450807581748
 51
314.5591147484939256
  0
ARC
  5
2C60D
  8
0
 10
5617.3323157096801879
 20
411.1329691332506968
 30
0.0
 40
0.000831176052007
 50
314.5591147484961994
 51
42.3261517509732528
  0
ARC
  5
2C60E
  8
0
 10
5617.0940113750266391
 20
415.7892456126807019
 30
0.0
 40
4.6514092550573221
 50
269.9998224684424031
 51
270.4982303722974279
  0
ARC
  5
2C60F
  8
0
 10
5617.0979441884128391
 20
415.3369891034204215
 30
0.0
 40
4.199135646287683
 50
270.4982303722974279
 51
271.2975664059021028
  0
ARC
  5
2C610
  8
0
 10
5617.1256315458276731
 20
414.1146258357090915
 30
0.0
 40
2.9764588500695339
 50
271.2975664059021028
 51
272.3269518269539731
  0
ARC
  5
2C611
  8
0
 10
5617.2165636515173901
 20
411.8922842672398019
 30
0.0
 40
0.7522580623574314
 50
272.2792694714487993
 51
273.7871050471360945
  0
ARC
  5
2C612
  8
0
 10
5617.1247858089973306
 20
411.1471285373107776
 30
0.0
 40
0.0021350468175386
 50
273.9641761591776117
 51
304.3439690389623138
  0
LINE
  5
2C613
  8
0
 10
5617.1249334106323658
 20
411.1449985986566276
 30
0.0
 11
5617.1095672355868373
 21
411.1436056774458052
 31
0.0
  0
ARC
  5
2C614
  8
0
 10
5617.1097794947181683
 20
411.145580916164306
 30
0.0
 40
0.0019866106753134
 50
227.5974735500267059
 51
263.8665301612804228
  0
ARC
  5
2C615
  8
0
 10
5617.1116293815848621
 20
411.1476066213907075
 30
0.0
 40
0.004729886650839
 50
206.6904181007936074
 51
227.5974735500267059
  0
LINE
  5
2C616
  8
0
 10
5617.1092710466900826
 20
411.1436056041458187
 30
0.0
 11
5617.1254336975889601
 21
411.1421941816457206
 31
0.0
  0
LINE
  5
2C617
  8
0
 10
5617.1254336975889601
 20
411.1421941816457206
 30
0.0
 11
5617.1559818657888172
 21
411.1421941816457206
 31
0.0
  0
LINE
  5
2C618
  8
0
 10
5617.1559818657888172
 20
411.1421941816457206
 30
0.0
 11
5617.1721445165885598
 21
411.1436056041458187
 31
0.0
  0
LINE
  5
2C619
  8
0
 10
5617.1721445165885598
 20
411.1436056041458187
 30
0.0
 11
5617.1556715712613368
 21
411.1450695012468941
 31
0.0
  0
ARC
  5
2C61A
  8
0
 10
5617.171381655463847
 20
411.1464225062239848
 30
0.0
 40
0.0028496480394663
 50
280.9900624125667719
 51
324.995346676361919
  0
LINE
  5
2C61B
  8
0
 10
5617.1721445165885598
 20
411.1436056041458187
 30
0.0
 11
5617.202692684788417
 21
411.1436056041458187
 31
0.0
  0
LINE
  5
2C61C
  8
0
 10
5617.202692684788417
 20
411.1436056041458187
 30
0.0
 11
5617.2179669161887432
 21
411.1422195450456911
 31
0.0
  0
LINE
  5
2C61D
  8
0
 10
5617.2179669161887432
 20
411.1422195450456911
 30
0.0
 11
5617.2562694373536942
 21
411.1421890191709849
 31
0.0
  0
LINE
  5
2C61E
  8
0
 10
5617.2494035037889262
 20
411.1421941816457206
 30
0.0
 11
5617.2596785468849703
 21
411.1412627640995083
 31
0.0
  0
ARC
  5
2C61F
  8
0
 10
5617.2055081400303607
 20
411.144975510576387
 30
0.0
 40
0.0052019330520311
 50
195.2686740815317137
 51
221.8784501864957974
  0
ARC
  5
2C620
  8
0
 10
5617.2032950903840174
 20
411.1429913566461778
 30
0.0
 40
0.0022296518490394
 50
221.8784501864957974
 51
262.1061430662978751
  0
LINE
  5
2C621
  8
0
 10
5617.2029888736888097
 20
411.1407828325457103
 30
0.0
 11
5617.2186565950923978
 21
411.1422189953938755
 31
0.0
  0
ARC
  5
2C622
  8
0
 10
5617.2180956581732971
 20
411.1447747963665051
 30
0.0
 40
0.0026166331113445
 50
282.3787772481838942
 51
332.4314960993378918
  0
LINE
  5
2C623
  8
0
 10
5617.220321028624312
 20
411.1422176688939771
 30
0.0
 11
5617.2192656083880138
 21
411.140787410645828
 31
0.0
  0
ARC
  5
2C624
  8
0
 10
5617.2168471192962897
 20
411.142572068997822
 30
0.0
 40
0.0030056771157365
 50
271.950929012836923
 51
323.5755364302002022
  0
LINE
  5
2C625
  8
0
 10
5617.2161219772915501
 20
411.1395428506530152
 30
0.0
 11
5617.2029888735096392
 21
411.1407828325457103
 31
0.0
  0
LINE
  5
2C626
  8
0
 10
5617.2029888735096392
 20
411.1407828325457103
 30
0.0
 11
5617.1718483276890765
 21
411.1407828325457103
 31
0.0
  0
LINE
  5
2C627
  8
0
 10
5617.1718483276890765
 20
411.1407828325457103
 30
0.0
 11
5617.1559818657888172
 21
411.1421941816457206
 31
0.0
  0
LINE
  5
2C628
  8
0
 10
5617.1743479480919632
 20
411.1436056774458052
 30
0.0
 11
5617.1737103044888499
 21
411.1421618579457231
 31
0.0
  0
ARC
  5
2C629
  8
0
 10
5617.1715678907994516
 20
411.143108026345999
 30
0.0
 40
0.0023420442048737
 50
276.8771102030112274
 51
336.1719897394920054
  0
LINE
  5
2C62A
  8
0
 10
5617.1721445165885598
 20
411.1407827592457238
 30
0.0
 11
5617.1568703190878296
 21
411.1393968455457184
 31
0.0
  0
LINE
  5
2C62B
  8
0
 10
5617.1568703190878296
 20
411.1393968455457184
 30
0.0
 11
5617.1562780545100395
 21
411.1393714101457135
 31
0.0
  0
LINE
  5
2C62C
  8
0
 10
5617.1562780545100395
 20
411.1393714101457135
 30
0.0
 11
5617.1254336975889601
 21
411.1393713367457963
 31
0.0
  0
LINE
  5
2C62D
  8
0
 10
5617.1254336975889601
 20
411.1393713367457963
 30
0.0
 11
5617.1092710466900826
 21
411.1407827592457238
 31
0.0
  0
ARC
  5
2C62E
  8
0
 10
5617.1126199246891701
 20
411.1453026814305076
 30
0.0
 40
0.0058185909129539
 50
196.9569494118435955
 51
220.7707044420938871
  0
ARC
  5
2C62F
  8
0
 10
5617.110088089756573
 20
411.1431195182100851
 30
0.0
 40
0.0024754801219769
 50
220.7707044420889133
 51
250.7279235247418967
  0
LINE
  5
2C630
  8
0
 10
5617.1092710466900826
 20
411.1407827592457238
 30
0.0
 11
5617.1254336975889601
 21
411.1421941816457206
 31
0.0
  0
ARC
  5
2C631
  8
0
 10
5617.1217516877013622
 20
411.1439395203263985
 30
0.0
 40
0.0061387754824214
 50
327.4164134480949997
 51
343.4821635789134007
  0
ARC
  5
2C632
  8
0
 10
5617.124134687044716
 20
411.1424164903460223
 30
0.0
 40
0.0033106477979217
 50
293.1022678520334921
 51
327.4164134480923281
  0
LINE
  5
2C633
  8
0
 10
5617.1254336975889601
 20
411.1393713367457963
 30
0.0
 11
5617.108757581023383
 21
411.1378596712019089
 31
0.0
  0
ARC
  5
2C634
  8
0
 10
5617.1083186214691523
 20
411.1441546440617003
 30
0.0
 40
0.0063036541305482
 50
230.9648080287502125
 51
267.3978228280108738
  0
ARC
  5
2C635
  8
0
 10
5617.1105088818821969
 20
411.1455240053394959
 30
0.0
 40
0.0087868748782654
 50
212.6552392162149943
 51
225.4864251532644914
  0
ARC
  5
2C636
  8
0
 10
5617.158134869217065
 20
411.143324089973305
 30
0.0
 40
0.0045010756315325
 50
194.5385141935132935
 51
241.4235547816689973
  0
LINE
  5
2C637
  8
0
 10
5617.1559818657888172
 20
411.1393713367457963
 30
0.0
 11
5617.1663685160092427
 21
411.1384109765639892
 31
0.0
  0
ARC
  5
2C638
  8
0
 10
5617.1665591118653538
 20
411.143816278116617
 30
0.0
 40
0.0054140804307978
 50
274.8514987139815275
 51
324.5499145981148104
  0
ARC
  5
2C639
  8
0
 10
5617.0942082185338222
 20
404.2181065441391752
 30
0.0
 40
6.9556121709146392
 50
89.0203039235414764
 51
90.0017401881890038
  0
ARC
  5
2C63A
  8
0
 10
5617.1303773328090756
 20
406.3331865952849853
 30
0.0
 40
4.8402228857989513
 50
87.3685597503707783
 51
89.0203039235414764
  0
ARC
  5
2C63B
  8
0
 10
5617.2869260675561236
 20
409.7394103698763956
 30
0.0
 40
1.4304035490975719
 50
83.7374535128993642
 51
87.3685597503707783
  0
ARC
  5
2C63C
  8
0
 10
5617.4285456589568639
 20
411.029918285462486
 30
0.0
 40
0.1321482626230084
 50
73.9142314598675654
 51
83.7374535128993642
  0
ARC
  5
2C63D
  8
0
 10
5617.4627849132775737
 20
411.1486536473381079
 30
0.0
 40
0.0085747513186286
 50
43.575021399477933
 51
73.9142314598675654
  0
ARC
  5
2C63E
  8
0
 10
5617.097349013868552
 20
405.2079691652353972
 30
0.0
 40
6.8835285965795059
 50
88.1239049377895896
 51
90.0279011550772736
  0
ARC
  5
2C63F
  8
0
 10
5617.2324023497330927
 20
409.3310120901606979
 30
0.0
 40
2.7582743784368589
 50
85.9519840465144398
 51
88.1239049377895896
  0
ARC
  5
2C640
  8
0
 10
5617.3740682090874543
 20
411.3328189239089738
 30
0.0
 40
0.7514610300291023
 50
81.6061904442652235
 51
85.9519840465144398
  0
ARC
  5
2C641
  8
0
 10
5617.4736521599261323
 20
412.0077046720430189
 30
0.0
 40
0.0692677023721776
 50
70.3123846958144298
 51
81.6061904442652235
  0
ARC
  5
2C642
  8
0
 10
5617.4939918675127046
 20
412.0645499859447796
 30
0.0
 40
0.0088930933271943
 50
52.9815488373781918
 51
70.3123846958144298
  0
ARC
  5
2C643
  8
0
 10
5617.4975862059527572
 20
412.0693166396151241
 30
0.0
 40
0.0029231472621462
 50
30.9328526657873795
 51
52.9815488373781918
  0
ARC
  5
2C644
  8
0
 10
5617.4991073060191411
 20
412.0702282299520789
 30
0.0
 40
0.0011498051201898
 50
7.6120986054443547
 51
30.9308976992649498
  0
ARC
  5
2C645
  8
0
 10
5617.4887236218137332
 20
412.0704127251896125
 30
0.0
 40
0.0115629663691678
 50
324.0703784878774059
 51
355.2561902604317083
  0
ARC
  5
2C646
  8
0
 10
5617.4872549865212932
 20
412.0714770397793814
 30
0.0
 40
0.0133767070251476
 50
301.9231258893540826
 51
324.0702315402851923
  0
ARC
  5
2C647
  8
0
 10
5617.4816101813476052
 20
412.0805376448352035
 30
0.0
 40
0.0240518365052386
 50
286.6690815384769166
 51
301.9231258893540826
  0
ARC
  5
2C648
  8
0
 10
5617.457841717444353
 20
412.1599176661231922
 30
0.0
 40
0.106913936744888
 50
279.8049286436167904
 51
286.6690815384769166
  0
ARC
  5
2C649
  8
0
 10
5617.4204684113592521
 20
412.3761751179068256
 30
0.0
 40
0.326377030360891
 50
278.3281450374914812
 51
279.8049286436167904
  0
LINE
  5
2C64A
  8
0
 10
5617.4689969625887898
 20
412.0139127576456985
 30
0.0
 11
5617.4689969625887898
 21
412.0431017759602241
 31
0.0
  0
ARC
  5
2C64B
  8
0
 10
5617.4284193924431747
 20
412.04316846483772
 30
0.0
 40
0.0405776249471177
 50
359.9058349780693788
 51
7.3210822585571886
  0
ARC
  5
2C64C
  8
0
 10
5617.4265138459213631
 20
412.0429236460034872
 30
0.0
 40
0.0424988338919224
 50
7.3210822585571886
 51
14.0483128877882102
  0
ARC
  5
2C64D
  8
0
 10
5617.4292118229086554
 20
412.043598744135295
 30
0.0
 40
0.0397176763410859
 50
14.0483128877882102
 51
28.4090797698425312
  0
ARC
  5
2C64E
  8
0
 10
5617.3944758714096679
 20
412.0248099706270182
 30
0.0
 40
0.0792095025406663
 50
28.4090797698425312
 51
30.92250911415098
  0
ARC
  5
2C64F
  8
0
 10
5617.4529636214174388
 20
412.1124325653664187
 30
0.0
 40
0.0582714288535473
 50
283.9234723234379771
 51
290.3425102568482998
  0
ARC
  5
2C650
  8
0
 10
5617.4704733167400263
 20
412.0652054246323246
 30
0.0
 40
0.0079028647270436
 50
290.3425102568482998
 51
306.2183771306458766
  0
ARC
  5
2C651
  8
0
 10
5617.4731387625779462
 20
412.0615660045776281
 30
0.0
 40
0.003391769532374
 50
306.2183771306458766
 51
325.2032810866431873
  0
ARC
  5
2C652
  8
0
 10
5617.4746250949174282
 20
412.0602336810827069
 30
0.0
 40
0.0014321724554836
 50
335.0889727896562817
 51
49.2400439017789822
  0
ARC
  5
2C653
  8
0
 10
5617.4145380329091495
 20
411.8326092223347814
 30
0.0
 40
0.2377771540567558
 50
76.6051702329030633
 51
78.3810554606446317
  0
ARC
  5
2C654
  8
0
 10
5617.4648061295465595
 20
412.043697097718109
 30
0.0
 40
0.0207864338092255
 50
65.8616517517682638
 51
76.6051702329030633
  0
ARC
  5
2C655
  8
0
 10
5617.4687308332340763
 20
412.0524551516768952
 30
0.0
 40
0.0111892046166711
 50
52.3850160849637518
 51
65.8616517517682638
  0
ARC
  5
2C656
  8
0
 10
5617.4183392951381393
 20
411.8357552467142
 30
0.0
 40
0.2339504186064603
 50
79.1377757930663535
 51
84.1613147690033685
  0
ARC
  5
2C657
  8
0
 10
5617.2860922128356833
 20
410.5424926779177213
 30
0.0
 40
1.5339570965228111
 50
84.1613147690033685
 51
85.8369034659415036
  0
ARC
  5
2C658
  8
0
 10
5617.1884674489083409
 20
408.7713545259940133
 30
0.0
 40
3.307656395860056
 50
86.3775373793403958
 51
88.6290060808804157
  0
ARC
  5
2C659
  8
0
 10
5616.6115592505484528
 20
366.8132185697360228
 30
0.0
 40
45.2695994431705984
 50
89.1696399942833438
 51
89.3893878372726221
  0
LINE
  5
2C6DE
  8
0
 10
5619.4569972145591237
 20
408.5259826721458012
 30
0.0
 11
5619.4569972146537111
 21
408.4759826721456761
 31
0.0
  0
LINE
  5
2C6DF
  8
0
 10
5619.4244972145379506
 20
408.4539826721456848
 30
0.0
 11
5619.4244972145379506
 21
406.1609826721457921
 31
0.0
  0
LINE
  5
2C6E0
  8
0
 10
5619.4669972145384236
 20
408.5359826721456784
 30
0.0
 11
5620.0070296635103659
 21
408.5359826721456784
 31
0.0
  0
LINE
  5
2C6E1
  8
0
 10
5620.0494231458687864
 20
408.4539826721456848
 30
0.0
 11
5620.0494231459679213
 21
406.1609826721457921
 31
0.0
  0
LINE
  5
2C6E2
  8
0
 10
5620.0169972145386055
 20
408.4759826721456761
 30
0.0
 11
5620.0169425611220504
 21
408.5259826721458012
 31
0.0
  0
ARC
  5
2C6E3
  8
0
 10
5619.4669972144947678
 20
408.5259826722088974
 30
0.0
 40
0.0099999999368521
 50
89.9999974573345156
 51
180.0000003618108906
  0
ARC
  5
2C6E4
  8
0
 10
5619.4449972145393986
 20
408.4759826721456761
 30
0.0
 40
0.0120000000000005
 50
270.0
 51
359.9999999999935199
  0
ARC
  5
2C6E5
  8
0
 10
5619.4344972145390784
 20
408.4539826721454006
 30
0.0
 40
0.0100000000003267
 50
90.0000000011464181
 51
179.9999999981565963
  0
LINE
  5
2C6E6
  8
0
 10
5619.4344972148392117
 20
408.4639826721456757
 30
0.0
 11
5620.0394972141393737
 21
408.4639826721456757
 31
0.0
  0
ARC
  5
2C6E7
  8
0
 10
5620.0395491228327955
 20
408.4541079903265768
 30
0.0
 40
0.0098748182535826
 50
359.2728579479913833
 51
90.3011865925870154
  0
ARC
  5
2C6E8
  8
0
 10
5620.0289972145383217
 20
408.4759826721456761
 30
0.0
 40
0.0119999999999987
 50
179.9999999999934914
 51
270.0
  0
ARC
  5
2C6E9
  8
0
 10
5620.0070782194970889
 20
408.5261175282449813
 30
0.0
 40
0.0098652633956122
 50
359.216754212954811
 51
90.2820060849531956
  0
ARC
  5
2C6EA
  8
0
 10
5619.4344972145381689
 20
406.1609826721460195
 30
0.0
 40
0.0100000000002911
 50
180.0000000016609931
 51
269.9999999990620267
  0
LINE
  5
2C6EB
  8
0
 10
5619.4344972145381689
 20
406.1509826721458012
 30
0.0
 11
5620.0394972137382865
 21
406.1509826721357967
 31
0.0
  0
ARC
  5
2C6EC
  8
0
 10
5620.0395491223653153
 20
406.1608573544178853
 30
0.0
 40
0.0098748187162664
 50
269.6988138188287962
 51
0.7271393889922507
  0
ARC
  5
2C6ED
  8
0
 10
5620.0289972145192223
 20
406.138982672154782
 30
0.0
 40
0.0119999999811319
 50
89.9999999089634741
 51
180.0000000431961098
  0
LINE
  5
2C6EE
  8
0
 10
5620.0169972145386055
 20
406.138982672145687
 30
0.0
 11
5620.0169972145740758
 21
406.0919826721457184
 31
0.0
  0
ARC
  5
2C6EF
  8
0
 10
5620.0069972145811334
 20
406.0919826721382151
 30
0.0
 40
0.0099999999924609
 50
269.9999951701133227
 51
0.0000000431928486
  0
LINE
  5
2C6F0
  8
0
 10
5620.0069972137389414
 20
406.0819826721457275
 30
0.0
 11
5619.4669972152387345
 21
406.0819827176662216
 31
0.0
  0
ARC
  5
2C6F1
  8
0
 10
5619.4669972160818361
 20
406.0919827192092839
 30
0.0
 40
0.0100000015430862
 50
180.0002696543475906
 51
269.9999951701133227
  0
LINE
  5
2C6F2
  8
0
 10
5619.4569972145382053
 20
406.0919826721457184
 30
0.0
 11
5619.4569969933399989
 21
406.1389826721451755
 31
0.0
  0
ARC
  5
2C6F3
  8
0
 10
5619.4449969368588427
 20
406.1389826156686809
 30
0.0
 40
0.0120000564801007
 50
0.0002696543475966
 51
89.99867418712968
  0
ARC
  5
2C6F4
  8
0
 10
5617.4876443975472284
 20
412.0139130067610154
 30
0.0
 40
0.0186492690607823
 50
180.0007650446410139
 51
229.3269296161217028
  0
ARC
  5
2C6F5
  8
0
 10
5617.4596344097326437
 20
411.9014936808849825
 30
0.0
 40
0.0995457881701545
 50
72.7648821021189036
 51
80.8349960156767509
  0
ARC
  5
2C6F6
  8
0
 10
5617.4826658760166538
 20
411.9757352096646059
 30
0.0
 40
0.0218138575708057
 50
49.1029130321421832
 51
72.7648821021189036
  0
ARC
  5
2C6F7
  8
0
 10
5617.4904477733625754
 20
411.9847198006644931
 30
0.0
 40
0.0099276974783285
 50
9.228868598211438
 51
49.1029130321421832
  0
ARC
  5
2C6F8
  8
0
 10
5617.4959179264678824
 20
411.9851329015896226
 30
0.0
 40
0.0044867364372808
 50
15.2351523821245003
 51
15.2359298013163809
  0
LINE
  5
2C6F9
  8
0
 10
5617.5002469785858921
 20
411.9863119315334075
 30
0.0
 11
5617.5002469625878803
 21
411.210677889400813
 31
0.0
  0
ARC
  5
2C6FA
  8
0
 10
5617.489299033442876
 20
411.2129753679998885
 30
0.0
 40
0.0111864006942934
 50
324.0373893677332262
 51
348.1481734430219035
  0
ARC
  5
2C6FB
  8
0
 10
5617.4872768273398833
 20
411.2144425714798217
 30
0.0
 40
0.0136848008969777
 50
298.7272210809944113
 51
324.0373893677332262
  0
ARC
  5
2C6FC
  8
0
 10
5617.4750513528251759
 20
411.2391636683129832
 30
0.0
 40
0.0412555732051813
 50
281.4037154244444991
 51
297.1143120033166838
  0
ARC
  5
2C6FD
  8
0
 10
5617.4519375198497073
 20
411.3347266627625913
 30
0.0
 40
0.1395528208994972
 50
279.7563941931827003
 51
282.9487536801967167
  0
ARC
  5
2C6FE
  8
0
 10
5617.4870921721512786
 20
411.1832553068989
 30
0.0
 40
0.0180728145285115
 50
129.542654556986605
 51
180.852457395422789
  0
ARC
  5
2C6FF
  8
0
 10
5616.7007918862227598
 20
411.1832097896889877
 30
0.0
 40
0.0181820531104964
 50
359.2961128293421211
 51
50.2590891351825277
  0
ARC
  5
2C700
  8
0
 10
5616.6993826671350689
 20
411.2131571537527748
 30
0.0
 40
0.0119065346954574
 50
192.2442726264339967
 51
241.3372681752917117
  0
ARC
  5
2C701
  8
0
 10
5616.7108232525815765
 20
411.2340861173489088
 30
0.0
 40
0.0357583378259729
 50
241.3372681752917117
 51
253.8596436536871011
  0
ARC
  5
2C702
  8
0
 10
5616.7263949498110378
 20
411.2878932553928735
 30
0.0
 40
0.0917733881165356
 50
253.8596436536871011
 51
261.2385736396698803
  0
LINE
  5
2C703
  8
0
 10
5616.6877469625887898
 20
411.986311226760904
 30
0.0
 11
5616.6877469785868016
 21
414.915102088250876
 31
0.0
  0
ARC
  5
2C704
  8
0
 10
5616.7003677276170492
 20
412.0139284693586887
 30
0.0
 40
0.0186310755971861
 50
310.5061373403572134
 51
359.9516823803826924
  0
ARC
  5
2C705
  8
0
 10
5616.6995162174116558
 20
411.9836051894884008
 30
0.0
 40
0.0120763403732841
 50
137.0805440477591901
 51
167.0513567994626101
  0
ARC
  5
2C706
  8
0
 10
5616.7012203343510919
 20
411.9820205476070214
 30
0.0
 40
0.0144033780690313
 50
111.069166027122094
 51
137.0805440477591901
  0
ARC
  5
2C707
  8
0
 10
5616.7221277895541789
 20
411.9277506715471873
 30
0.0
 40
0.0725612763335177
 50
102.754087446085606
 51
111.0691660271233019
  0
ARC
  5
2C708
  8
0
 10
5616.7300239399928614
 20
411.8928662692694047
 30
0.0
 40
0.1083281704403909
 50
99.326012303358894
 51
102.754087446085606
  0
ARC
  5
2C709
  8
0
 10
5616.7920620687964401
 20
411.515097493894018
 30
0.0
 40
0.4911570840220939
 50
93.4902185812882749
 51
99.326012303358894
  0
ARC
  5
2C70A
  8
0
 10
5617.1086308365438526
 20
406.3247023452008762
 30
0.0
 40
5.691197236202675
 50
92.1260221990575872
 51
93.4902185812882749
  0
ARC
  5
2C70B
  8
0
 10
5617.0892657723870798
 20
405.2651482778828722
 30
0.0
 40
6.7495584586574928
 50
89.959837779861374
 51
91.6280735406337072
  0
ARC
  5
2C70C
  8
0
 10
5617.0953391717011982
 20
404.7917533012001172
 30
0.0
 40
7.2229519018540236
 50
88.9692120643406525
 51
90.010647020637677
  0
ARC
  5
2C70D
  8
0
 10
5617.2042184677720797
 20
409.5104196038421946
 30
0.0
 40
2.503205315059128
 50
87.5050131343442388
 51
89.517969963562706
  0
ARC
  5
2C70E
  8
0
 10
5617.0728090980483103
 20
406.4945950559617245
 30
0.0
 40
5.5218914739781599
 50
86.2463302254848543
 51
87.5050131343442388
  0
ARC
  5
2C70F
  8
0
 10
5617.4083218204450532
 20
411.6085111503833218
 30
0.0
 40
0.3969810740127221
 50
80.2588572165323768
 51
86.2463302254848543
  0
LINE
  5
2C710
  8
0
 10
5616.6877469625887898
 20
411.986311226760904
 30
0.0
 11
5616.6877469785868016
 21
411.2106320160463042
 31
0.0
  0
ARC
  5
2C711
  8
0
 10
5616.6964221261641796
 20
411.1433143383106881
 30
0.0
 40
0.0562002839400703
 50
73.4658516898688418
 51
79.6003927138066842
  0
ARC
  5
2C712
  8
0
 10
5616.711052247718726
 20
411.2230306790261238
 30
0.0
 40
0.0248474515850013
 50
248.88938272822719
 51
259.6003927138066842
  0
ARC
  5
2C713
  8
0
 10
5616.7178661608122638
 20
411.2406796093035268
 30
0.0
 40
0.0437660707625446
 50
244.5996131597142096
 51
248.88938272822719
  0
ARC
  5
2C714
  8
0
 10
5616.7005864899965673
 20
411.2042893411847899
 30
0.0
 40
0.003481599347143
 50
214.1771520985039103
 51
244.5996131597127032
  0
ARC
  5
2C715
  8
0
 10
5616.6987229913402189
 20
411.2030239948290955
 30
0.0
 40
0.0012291054745006
 50
131.923510072490501
 51
214.1771520985145969
  0
ARC
  5
2C716
  8
0
 10
5616.7026431557806063
 20
411.1990876696733039
 30
0.0
 40
0.0067831526464759
 50
112.2988069458907034
 51
134.3462701942646049
  0
ARC
  5
2C717
  8
0
 10
5616.7156974820472897
 20
411.1672560453334881
 30
0.0
 40
0.0411876253553548
 50
102.5420756698606937
 51
112.2988069458907034
  0
ARC
  5
2C718
  8
0
 10
5616.7463259056257812
 20
411.0295787003357191
 30
0.0
 40
0.1822307097536864
 50
98.0652028215583726
 51
102.5420756698606937
  0
ARC
  5
2C719
  8
0
 10
5616.7983671940646673
 20
410.6623187376974897
 30
0.0
 40
0.553159511357759
 50
94.3830592392179284
 51
98.0652028215583726
  0
ARC
  5
2C71A
  8
0
 10
5616.9630279373113808
 20
408.514057803284004
 30
0.0
 40
2.707721694886736
 50
93.0002493636426379
 51
94.3830592392179284
  0
ARC
  5
2C71B
  8
0
 10
5616.9996228534073452
 20
407.8158433498138038
 30
0.0
 40
3.406894499648661
 50
90.5431470917890948
 51
93.0002493636426379
  0
ARC
  5
2C71C
  8
0
 10
5616.9612616226668251
 20
415.2544417262149068
 30
0.0
 40
4.0318615178023496
 50
270.0861933435131164
 51
271.8866099721648197
  0
ARC
  5
2C71D
  8
0
 10
5616.9673379557798398
 20
399.3408772123497101
 30
0.0
 40
11.8845634685843606
 50
88.645662083324865
 51
89.3893621043116866
  0
ARC
  5
2C71E
  8
0
 10
5616.7900314126436569
 20
396.049143013486912
 30
0.0
 40
15.1798946297904394
 50
87.8270675807412431
 51
88.2702698782442354
  0
ARC
  5
2C71F
  8
0
 10
5617.3214612137553559
 20
410.0551401647754233
 30
0.0
 40
1.1638190793586309
 50
82.8530446812619346
 51
87.8270675807412431
  0
ARC
  5
2C720
  8
0
 10
5617.4442066837800667
 20
411.034058245978315
 30
0.0
 40
0.1772355501441275
 50
77.1835036994685737
 51
82.8530446812619346
  0
ARC
  5
2C721
  8
0
 10
5617.4787745319999885
 20
411.1860066871652748
 30
0.0
 40
0.021404664534933
 50
61.8446837850273212
 51
77.1835036994685737
  0
ARC
  5
2C722
  8
0
 10
5617.4868239438637829
 20
411.2010469299843862
 30
0.0
 40
0.0043458856976612
 50
36.9707613488413074
 51
61.8446837850242304
  0
ARC
  5
2C723
  8
0
 10
5617.4892511622192615
 20
411.2029918913042934
 30
0.0
 40
0.0012405426741911
 50
315.7393180052696948
 51
32.6174528193062798
  0
ARC
  5
2C724
  8
0
 10
5617.4985394762788928
 20
411.1144607044176951
 30
0.0
 40
0.0858565940606961
 50
101.4396771368137991
 51
105.5063919535728019
  0
ARC
  5
2C725
  8
0
 10
5617.4755642277195875
 20
411.2279993924834116
 30
0.0
 40
0.0299833633546213
 50
281.4396771368138275
 51
290.1513974310369122
  0
ARC
  5
2C726
  8
0
 10
5617.4736580792859968
 20
411.2331937449645807
 30
0.0
 40
0.0355164185281769
 50
290.1513974310369122
 51
294.7818201193716163
  0
ARC
  5
2C727
  8
0
 10
5617.4864929762497923
 20
411.2053933199557036
 30
0.0
 40
0.0048961930104825
 50
294.7818201193701952
 51
318.1409262313882778
  0
ENDSEC
  0
EOF
