  0
SECTION
  2
HEADER
  9
$ACADVER
  1
AC1009
  9
$INSBASE
 10
381.6334310722996861
 20
25.4512284807601716
 30
0.0
  9
$EXTMIN
 10
380.3364015622879037
 20
23.1037150372398408
 30
-0.0000000000112498
  9
$EXTMAX
 10
382.9395431223117043
 20
25.4569151430280698
 30
0.0000000000002956
  9
$LIMMIN
 10
0.0
 20
0.0
  9
$LIMMAX
 10
11.6929133858000007
 20
8.2677165353999982
  9
$ORTHOMODE
 70
     0
  9
$REGENMODE
 70
     1
  9
$FILLMODE
 70
     1
  9
$QTEXTMODE
 70
     0
  9
$MIRRTEXT
 70
     0
  9
$DRAGMODE
 70
     2
  9
$LTSCALE
 40
0.6431102362
  9
$OSMODE
 70
  4095
  9
$ATTMODE
 70
     1
  9
$TEXTSIZE
 40
0.2
  9
$TRACEWID
 40
0.05
  9
$TEXTSTYLE
  7
STANDARD
  9
$CLAYER
  8
0
  9
$CELTYPE
  6
BYLAYER
  9
$CECOLOR
 62
   256
  9
$DIMSCALE
 40
1.0
  9
$DIMASZ
 40
0.1875
  9
$DIMEXO
 40
0.0625
  9
$DIMDLI
 40
0.4443307087
  9
$DIMRND
 40
0.0
  9
$DIMDLE
 40
0.0
  9
$DIMEXE
 40
0.125
  9
$DIMTP
 40
0.01
  9
$DIMTM
 40
0.01
  9
$DIMTXT
 40
0.15625
  9
$DIMCEN
 40
0.1052362205
  9
$DIMTSZ
 40
0.0
  9
$DIMTOL
 70
     1
  9
$DIMLIM
 70
     0
  9
$DIMTIH
 70
     1
  9
$DIMTOH
 70
     1
  9
$DIMSE1
 70
     0
  9
$DIMSE2
 70
     0
  9
$DIMTAD
 70
     0
  9
$DIMZIN
 70
     0
  9
$DIMBLK
  1

  9
$DIMASO
 70
     1
  9
$DIMSHO
 70
     1
  9
$DIMPOST
  1
\X
  9
$DIMAPOST
  1

  9
$DIMALT
 70
     1
  9
$DIMALTD
 70
     2
  9
$DIMALTF
 40
25.3999999999999986
  9
$DIMLFAC
 40
1.0
  9
$DIMTOFL
 70
     0
  9
$DIMTVP
 40
0.0
  9
$DIMTIX
 70
     0
  9
$DIMSOXD
 70
     0
  9
$DIMSAH
 70
     0
  9
$DIMBLK1
  1

  9
$DIMBLK2
  1

  9
$DIMSTYLE
  2
STANDARD
  9
$DIMCLRD
 70
     0
  9
$DIMCLRE
 70
     0
  9
$DIMCLRT
 70
     0
  9
$DIMTFAC
 40
1.0
  9
$DIMGAP
 40
0.09
  9
$LUNITS
 70
     2
  9
$LUPREC
 70
     4
  9
$SKETCHINC
 40
0.1
  9
$FILLETRAD
 40
0.0
  9
$AUNITS
 70
     0
  9
$AUPREC
 70
     0
  9
$MENU
  1
.
  9
$ELEVATION
 40
0.0
  9
$PELEVATION
 40
0.0
  9
$THICKNESS
 40
0.0
  9
$LIMCHECK
 70
     0
  9
$BLIPMODE
 70
     0
  9
$CHAMFERA
 40
0.0
  9
$CHAMFERB
 40
0.0
  9
$SKPOLY
 70
     0
  9
$TDCREATE
 40
2458018.639108797069639
  9
$TDUPDATE
 40
2460215.788773147854954
  9
$TDINDWG
 40
0.3862032407
  9
$TDUSRTIMER
 40
0.3862032407
  9
$USRTIMER
 70
     1
  9
$ANGBASE
 50
0.0
  9
$ANGDIR
 70
     0
  9
$PDMODE
 70
     0
  9
$PDSIZE
 40
0.3125
  9
$PLINEWID
 40
0.0
  9
$COORDS
 70
     1
  9
$SPLFRAME
 70
     0
  9
$SPLINETYPE
 70
     6
  9
$SPLINESEGS
 70
     8
  9
$ATTDIA
 70
     1
  9
$ATTREQ
 70
     1
  9
$HANDLING
 70
     1
  9
$HANDSEED
  5
C11E
  9
$SURFTAB1
 70
     6
  9
$SURFTAB2
 70
     6
  9
$SURFTYPE
 70
     6
  9
$SURFU
 70
     6
  9
$SURFV
 70
     6
  9
$UCSNAME
  2

  9
$UCSORG
 10
0.0
 20
0.0
 30
0.0
  9
$UCSXDIR
 10
1.0
 20
0.0
 30
0.0
  9
$UCSYDIR
 10
0.0
 20
1.0
 30
0.0
  9
$PUCSNAME
  2

  9
$PUCSORG
 10
0.0
 20
0.0
 30
0.0
  9
$PUCSXDIR
 10
1.0
 20
0.0
 30
0.0
  9
$PUCSYDIR
 10
0.0
 20
1.0
 30
0.0
  9
$USERI1
 70
     0
  9
$USERI2
 70
     0
  9
$USERI3
 70
     0
  9
$USERI4
 70
     0
  9
$USERI5
 70
     0
  9
$USERR1
 40
0.0
  9
$USERR2
 40
0.0
  9
$USERR3
 40
0.0
  9
$USERR4
 40
0.0
  9
$USERR5
 40
0.0
  9
$WORLDVIEW
 70
     1
  9
$SHADEDGE
 70
     3
  9
$SHADEDIF
 70
    70
  9
$TILEMODE
 70
     1
  9
$MAXACTVP
 70
    64
  9
$PLIMCHECK
 70
     0
  9
$PEXTMIN
 10
1.0000000000000000E+20
 20
1.0000000000000000E+20
 30
1.0000000000000000E+20
  9
$PEXTMAX
 10
-1.0000000000000000E+20
 20
-1.0000000000000000E+20
 30
-1.0000000000000000E+20
  9
$PLIMMIN
 10
0.0
 20
0.0
  9
$PLIMMAX
 10
12.0
 20
9.0
  9
$UNITMODE
 70
     0
  9
$VISRETAIN
 70
     1
  9
$PLINEGEN
 70
     0
  9
$PSLTSCALE
 70
     1
  0
ENDSEC
  0
SECTION
  2
TABLES
  0
TABLE
  2
VPORT
 70
     1
  0
VPORT
  2
*ACTIVE
 70
     0
 10
0.0
 20
0.0
 11
1.0
 21
1.0
 12
286.3137113445620798
 22
17.2439830789111106
 13
0.0
 23
0.0
 14
1.0
 24
1.0
 15
0.0
 25
0.0
 16
-0.0000000000000142
 26
0.0
 36
39.3282560748450578
 17
95.3242609977377526
 27
7.0363320112228394
 37
0.0
 40
2.3712784676764889
 41
2.0025641025641021
 42
50.0
 43
0.0
 44
0.0
 50
0.0
 51
0.0
 71
     0
 72
   100
 73
     1
 74
     1
 75
     0
 76
     0
 77
     0
 78
     0
  0
ENDTAB
  0
TABLE
  2
LTYPE
 70
     2
  0
LTYPE
  2
CONTINUOUS
 70
     0
  3
Solid line
 72
    65
 73
     0
 40
0.0
  0
LTYPE
  2
PHANTOM2
 70
     0
  3
___ _ _ ___ _ _ ___ _ _ ___ _ _
 72
    65
 73
     6
 40
1.25
 49
0.625
 49
-0.125
 49
0.125
 49
-0.125
 49
0.125
 49
-0.125
  0
ENDTAB
  0
TABLE
  2
LAYER
 70
     2
  0
LAYER
  2
0
 70
     0
 62
   255
  6
CONTINUOUS
  0
LAYER
  2
DEFPOINTS
 70
     0
 62
     7
  6
CONTINUOUS
  0
ENDTAB
  0
TABLE
  2
STYLE
 70
     1
  0
STYLE
  2
STANDARD
 70
     0
 40
0.0
 41
0.8
 50
0.0
 71
     0
 42
0.2
  3
txt
  4

  0
ENDTAB
  0
TABLE
  2
VIEW
 70
     0
  0
ENDTAB
  0
TABLE
  2
UCS
 70
     0
  0
ENDTAB
  0
TABLE
  2
APPID
 70
    10
  0
APPID
  2
ACAD
 70
     0
  0
APPID
  2
ACAD_MLEADERVER
 70
     0
  0
APPID
  2
ACAD_DSTYLE_DIMJAG
 70
     0
  0
APPID
  2
ACAD_DSTYLE_DIMTALN
 70
     0
  0
APPID
  2
ACAD_NAV_VCDISPLAY
 70
     0
  0
APPID
  2
ACAD_EXEMPT_FROM_CAD_STANDARDS
 70
     0
  0
APPID
  2
ACAECLAYERSTANDARD
 70
     0
  0
APPID
  2
ACCMTRANSPARENCY
 70
     0
  0
APPID
  2
DCO15
 70
     0
  0
APPID
  2
ACDBATTR
 70
     0
  0
ENDTAB
  0
TABLE
  2
DIMSTYLE
 70
     1
  0
DIMSTYLE
  2
STANDARD
 70
     0
  3

  4

  5

  6

  7

 40
1.0
 41
0.1875
 42
0.0625
 43
0.38
 44
0.125
 45
0.0
 46
0.0
 47
0.01
 48
0.01
140
0.15625
141
0.09
142
0.0
143
25.3999999999999986
144
1.0
145
0.0
146
1.0
147
0.09
 71
     1
 72
     0
 73
     1
 74
     1
 75
     0
 76
     0
 77
     0
 78
     4
170
     0
171
     2
172
     0
173
     0
174
     0
175
     0
176
     0
177
     0
178
     0
  0
ENDTAB
  0
ENDSEC
  0
SECTION
  2
BLOCKS
  0
BLOCK
  8
0
  2
$MODEL_SPACE
 70
     0
 10
0.0
 20
0.0
 30
0.0
  3
$MODEL_SPACE
  1

  0
ENDBLK
  5
21
  8
0
  0
BLOCK
 67
     1
  8
0
  2
$PAPER_SPACE
 70
     0
 10
0.0
 20
0.0
 30
0.0
  3
$PAPER_SPACE
  1

  0
ENDBLK
  5
1D
 67
     1
  8
0
  0
ENDSEC
  0
SECTION
  2
ENTITIES
  0
ATTDEF
  5
7A6E
  8
DEFPOINTS
 10
381.6305217234656766
 20
25.4552075103753808
 30
0.0
 40
0.001
  1
P80286-00
  3

  2
MODELNUMBER
 70
     0
1001
ACDBATTR
1070
     0
1070
     1
  0
ATTDEF
  5
7A6F
  8
DEFPOINTS
 10
381.6305217234656766
 20
25.4535408437087085
 30
0.0
 40
0.001
  1
VIR STIL
  3

  2
TRADENAME
 70
     0
1001
ACDBATTR
1070
     0
1070
     1
  0
ATTDEF
  5
7A70
  8
DEFPOINTS
 10
381.6305217234656766
 20
25.4518741770420505
 30
0.0
 40
0.001
  1
ROBE HOOK
  3

  2
PRODUCT
 70
     0
1001
ACDBATTR
1070
     0
1070
     1
  0
LINE
  5
C07B
  8
0
 10
380.5507539069997165
 20
25.4512284807601716
 30
0.0
 11
382.7161082375997125
 21
25.4512284807601716
 31
0.0
  0
LINE
  5
C07C
  8
0
 10
380.5507539069997165
 20
25.13626785076017
 30
0.0
 11
382.7161082375997125
 21
25.13626785076017
 31
0.0
  0
LINE
  5
C07D
  8
0
 10
380.7318562691996817
 20
25.0378426539601797
 30
0.0
 11
382.5350058753996905
 21
25.0378426539601797
 31
0.0
  0
LINE
  5
C07E
  8
0
 10
380.6728011509997032
 20
25.089023756260179
 30
0.0
 11
382.5940609935997259
 21
25.089023756260179
 31
0.0
  0
LINE
  5
C07F
  8
0
 10
381.1964231983997138
 20
24.0929607641601784
 30
0.0
 11
382.0704389462997028
 21
24.0929607641601784
 31
0.0
  0
LINE
  5
C080
  8
0
 10
381.1964231983997138
 20
24.9394174570601699
 30
0.0
 11
382.0704389461997152
 21
24.9394174570601699
 31
0.0
  0
LINE
  5
C081
  8
0
 10
382.7161082375997125
 20
25.4512284807601716
 30
0.0
 11
382.7161082375997125
 21
25.13626785076017
 31
0.0
  0
LINE
  5
C082
  8
0
 10
382.5940609935997259
 20
25.089023756260179
 30
0.0
 11
382.5940609935997259
 21
25.1362678507601807
 31
0.0
  0
LINE
  5
C083
  8
0
 10
382.5350058753996905
 20
25.0378426539601797
 30
0.0
 11
382.5350058753996905
 21
25.089023756260179
 31
0.0
  0
LINE
  5
C084
  8
0
 10
382.0704389461997152
 20
24.0929607641601784
 30
0.0
 11
382.0704389461997152
 21
24.9394174570601699
 31
0.0
  0
LINE
  5
C085
  8
0
 10
382.0231948517997012
 20
24.9394174570601699
 30
0.0
 11
382.0231948517997012
 21
25.0378426539601797
 31
0.0
  0
LINE
  5
C087
  8
0
 10
382.0234310722996725
 20
24.0929607641601784
 30
0.0
 11
382.0234310722996725
 21
24.0362465574474591
 31
0.0
  0
ARC
  5
C088
  8
0
 10
381.3574489153426157
 20
70.9566909533040757
 30
0.0
 40
47.8534358329946272
 50
270.3304402327220259
 51
271.2364099270851057
  0
ARC
  5
C089
  8
0
 10
382.4712405566543794
 20
23.5752723474609986
 30
0.0
 40
0.4422219323880937
 50
293.5742773199486919
 51
359.4454480092575182
  0
ARC
  5
C08A
  8
0
 10
382.3771738848240034
 20
23.8012502087850706
 30
0.0
 40
0.6869736173943526
 50
271.0713323542584021
 51
293.2272386045032135
  0
ARC
  5
C08B
  8
0
 10
381.748027732914295
 20
4.6119161836322071
 30
0.0
 40
19.4262826467254506
 50
88.106171275079646
 51
90.3379927699225362
  0
ARC
  5
C08C
  8
0
 10
382.4712405566543794
 20
23.5667121628823715
 30
0.0
 40
0.4422219323880937
 50
0.5545519907425077
 51
66.425722680051237
  0
ARC
  5
C08D
  8
0
 10
382.3771738848240034
 20
23.3407343015583102
 30
0.0
 40
0.6869736173943526
 50
66.7727613954967438
 51
88.9286676457414842
  0
LINE
  5
C08E
  8
0
 10
380.5507539069997165
 20
25.4512284807601716
 30
0.0
 11
380.5507539069997165
 21
25.13626785076017
 31
0.0
  0
LINE
  5
C08F
  8
0
 10
380.6728011509997032
 20
25.089023756260179
 30
0.0
 11
380.6728011509997032
 21
25.1362678507601807
 31
0.0
  0
LINE
  5
C090
  8
0
 10
380.7318562691996817
 20
25.0378426539601797
 30
0.0
 11
380.7318562691996817
 21
25.089023756260179
 31
0.0
  0
LINE
  5
C091
  8
0
 10
381.1964231983997138
 20
24.0929607641601784
 30
0.0
 11
381.1964231983997138
 21
24.9394174570601699
 31
0.0
  0
LINE
  5
C092
  8
0
 10
381.2436672927997279
 20
24.9394174570601699
 30
0.0
 11
381.2436672927997279
 21
25.0378426539601797
 31
0.0
  0
LINE
  5
C093
  8
0
 10
381.2434310722996997
 20
24.0929607641601784
 30
0.0
 11
381.2434310722996997
 21
24.0362465574474591
 31
0.0
  0
ARC
  5
C094
  8
0
 10
381.8019498855563825
 20
62.1858807884092286
 30
0.0
 40
39.0821931545618284
 50
268.6436490383142086
 51
269.7529451162045007
  0
ARC
  5
C095
  8
0
 10
380.7956215879449928
 20
23.5752723474609986
 30
0.0
 40
0.4422219323880937
 50
180.5545519907425103
 51
246.4257226800511944
  0
ARC
  5
C096
  8
0
 10
380.8896882597754256
 20
23.8012502087850706
 30
0.0
 40
0.6869736173943526
 50
246.7727613954967865
 51
268.9286676457414842
  0
ARC
  5
C097
  8
0
 10
381.5188344116850772
 20
4.6119161836322071
 30
0.0
 40
19.4262826467254506
 50
89.6620072300775064
 51
91.8938287249203682
  0
ARC
  5
C098
  8
0
 10
380.7956215879449928
 20
23.5667121628823715
 30
0.0
 40
0.4422219323880937
 50
113.5742773199488056
 51
179.4454480092574897
  0
ARC
  5
C099
  8
0
 10
380.8896882597754256
 20
23.3407343015583102
 30
0.0
 40
0.6869736173943526
 50
91.0713323542585158
 51
113.2272386045031993
  0
ENDSEC
  0
EOF
