  0
SECTION
  2
HEADER
  9
$ACADVER
  1
AC1009
  9
$INSBASE
 10
377.7400093264009797
 20
26.2780635692596682
 30
0.0
  9
$EXTMIN
 10
375.3659748901761759
 20
25.1938377867800192
 30
-0.0000000349181948
  9
$EXTMAX
 10
377.7667436123757057
 20
27.8727864061805697
 30
0.0000000814935746
  9
$LIMMIN
 10
0.0
 20
0.0
  9
$LIMMAX
 10
11.6929133858000007
 20
8.2677165353999982
  9
$ORTHOMODE
 70
     0
  9
$REGENMODE
 70
     1
  9
$FILLMODE
 70
     1
  9
$QTEXTMODE
 70
     0
  9
$MIRRTEXT
 70
     0
  9
$DRAGMODE
 70
     2
  9
$LTSCALE
 40
0.6431102362
  9
$OSMODE
 70
  4095
  9
$ATTMODE
 70
     1
  9
$TEXTSIZE
 40
0.2
  9
$TRACEWID
 40
0.05
  9
$TEXTSTYLE
  7
STANDARD
  9
$CLAYER
  8
0
  9
$CELTYPE
  6
BYLAYER
  9
$CECOLOR
 62
   256
  9
$DIMSCALE
 40
1.0
  9
$DIMASZ
 40
0.1875
  9
$DIMEXO
 40
0.0625
  9
$DIMDLI
 40
0.4443307087
  9
$DIMRND
 40
0.0
  9
$DIMDLE
 40
0.0
  9
$DIMEXE
 40
0.125
  9
$DIMTP
 40
0.01
  9
$DIMTM
 40
0.01
  9
$DIMTXT
 40
0.15625
  9
$DIMCEN
 40
0.1052362205
  9
$DIMTSZ
 40
0.0
  9
$DIMTOL
 70
     1
  9
$DIMLIM
 70
     0
  9
$DIMTIH
 70
     1
  9
$DIMTOH
 70
     1
  9
$DIMSE1
 70
     0
  9
$DIMSE2
 70
     0
  9
$DIMTAD
 70
     0
  9
$DIMZIN
 70
     0
  9
$DIMBLK
  1

  9
$DIMASO
 70
     1
  9
$DIMSHO
 70
     1
  9
$DIMPOST
  1
\X
  9
$DIMAPOST
  1

  9
$DIMALT
 70
     1
  9
$DIMALTD
 70
     2
  9
$DIMALTF
 40
25.3999999999999986
  9
$DIMLFAC
 40
1.0
  9
$DIMTOFL
 70
     0
  9
$DIMTVP
 40
0.0
  9
$DIMTIX
 70
     0
  9
$DIMSOXD
 70
     0
  9
$DIMSAH
 70
     0
  9
$DIMBLK1
  1

  9
$DIMBLK2
  1

  9
$DIMSTYLE
  2
STANDARD
  9
$DIMCLRD
 70
     0
  9
$DIMCLRE
 70
     0
  9
$DIMCLRT
 70
     0
  9
$DIMTFAC
 40
1.0
  9
$DIMGAP
 40
0.09
  9
$LUNITS
 70
     2
  9
$LUPREC
 70
     4
  9
$SKETCHINC
 40
0.1
  9
$FILLETRAD
 40
0.0
  9
$AUNITS
 70
     0
  9
$AUPREC
 70
     0
  9
$MENU
  1
.
  9
$ELEVATION
 40
0.0
  9
$PELEVATION
 40
0.0
  9
$THICKNESS
 40
0.0
  9
$LIMCHECK
 70
     0
  9
$BLIPMODE
 70
     0
  9
$CHAMFERA
 40
0.0
  9
$CHAMFERB
 40
0.0
  9
$SKPOLY
 70
     0
  9
$TDCREATE
 40
2458018.639108797069639
  9
$TDUPDATE
 40
2460215.7887037037871778
  9
$TDINDWG
 40
0.3852078704
  9
$TDUSRTIMER
 40
0.3852078704
  9
$USRTIMER
 70
     1
  9
$ANGBASE
 50
0.0
  9
$ANGDIR
 70
     0
  9
$PDMODE
 70
     0
  9
$PDSIZE
 40
0.3125
  9
$PLINEWID
 40
0.0
  9
$COORDS
 70
     1
  9
$SPLFRAME
 70
     0
  9
$SPLINETYPE
 70
     6
  9
$SPLINESEGS
 70
     8
  9
$ATTDIA
 70
     1
  9
$ATTREQ
 70
     1
  9
$HANDLING
 70
     1
  9
$HANDSEED
  5
C066
  9
$SURFTAB1
 70
     6
  9
$SURFTAB2
 70
     6
  9
$SURFTYPE
 70
     6
  9
$SURFU
 70
     6
  9
$SURFV
 70
     6
  9
$UCSNAME
  2

  9
$UCSORG
 10
0.0
 20
0.0
 30
0.0
  9
$UCSXDIR
 10
1.0
 20
0.0
 30
0.0
  9
$UCSYDIR
 10
0.0
 20
1.0
 30
0.0
  9
$PUCSNAME
  2

  9
$PUCSORG
 10
0.0
 20
0.0
 30
0.0
  9
$PUCSXDIR
 10
1.0
 20
0.0
 30
0.0
  9
$PUCSYDIR
 10
0.0
 20
1.0
 30
0.0
  9
$USERI1
 70
     0
  9
$USERI2
 70
     0
  9
$USERI3
 70
     0
  9
$USERI4
 70
     0
  9
$USERI5
 70
     0
  9
$USERR1
 40
0.0
  9
$USERR2
 40
0.0
  9
$USERR3
 40
0.0
  9
$USERR4
 40
0.0
  9
$USERR5
 40
0.0
  9
$WORLDVIEW
 70
     1
  9
$SHADEDGE
 70
     3
  9
$SHADEDIF
 70
    70
  9
$TILEMODE
 70
     1
  9
$MAXACTVP
 70
    64
  9
$PLIMCHECK
 70
     0
  9
$PEXTMIN
 10
1.0000000000000000E+20
 20
1.0000000000000000E+20
 30
1.0000000000000000E+20
  9
$PEXTMAX
 10
-1.0000000000000000E+20
 20
-1.0000000000000000E+20
 30
-1.0000000000000000E+20
  9
$PLIMMIN
 10
0.0
 20
0.0
  9
$PLIMMAX
 10
12.0
 20
9.0
  9
$UNITMODE
 70
     0
  9
$VISRETAIN
 70
     1
  9
$PLINEGEN
 70
     0
  9
$PSLTSCALE
 70
     1
  0
ENDSEC
  0
SECTION
  2
TABLES
  0
TABLE
  2
VPORT
 70
     1
  0
VPORT
  2
*ACTIVE
 70
     0
 10
0.0
 20
0.0
 11
1.0
 21
1.0
 12
281.2420982535381881
 22
19.4969800852574515
 13
0.0
 23
0.0
 14
1.0
 24
1.0
 15
0.0
 25
0.0
 16
-0.0000000000000142
 26
0.0
 36
39.3282560748450578
 17
95.3242609977377526
 27
7.0363320112228394
 37
0.0
 40
2.699529530689154
 41
2.0025641025641021
 42
50.0
 43
0.0
 44
0.0
 50
0.0
 51
0.0
 71
     0
 72
   100
 73
     1
 74
     1
 75
     0
 76
     0
 77
     0
 78
     0
  0
ENDTAB
  0
TABLE
  2
LTYPE
 70
     2
  0
LTYPE
  2
CONTINUOUS
 70
     0
  3
Solid line
 72
    65
 73
     0
 40
0.0
  0
LTYPE
  2
PHANTOM2
 70
     0
  3
___ _ _ ___ _ _ ___ _ _ ___ _ _
 72
    65
 73
     6
 40
1.25
 49
0.625
 49
-0.125
 49
0.125
 49
-0.125
 49
0.125
 49
-0.125
  0
ENDTAB
  0
TABLE
  2
LAYER
 70
     2
  0
LAYER
  2
0
 70
     0
 62
   255
  6
CONTINUOUS
  0
LAYER
  2
DEFPOINTS
 70
     0
 62
     7
  6
CONTINUOUS
  0
ENDTAB
  0
TABLE
  2
STYLE
 70
     1
  0
STYLE
  2
STANDARD
 70
     0
 40
0.0
 41
0.8
 50
0.0
 71
     0
 42
0.2
  3
txt
  4

  0
ENDTAB
  0
TABLE
  2
VIEW
 70
     0
  0
ENDTAB
  0
TABLE
  2
UCS
 70
     0
  0
ENDTAB
  0
TABLE
  2
APPID
 70
    10
  0
APPID
  2
ACAD
 70
     0
  0
APPID
  2
ACAD_MLEADERVER
 70
     0
  0
APPID
  2
ACAD_DSTYLE_DIMJAG
 70
     0
  0
APPID
  2
ACAD_DSTYLE_DIMTALN
 70
     0
  0
APPID
  2
ACAD_NAV_VCDISPLAY
 70
     0
  0
APPID
  2
ACAD_EXEMPT_FROM_CAD_STANDARDS
 70
     0
  0
APPID
  2
ACAECLAYERSTANDARD
 70
     0
  0
APPID
  2
ACCMTRANSPARENCY
 70
     0
  0
APPID
  2
DCO15
 70
     0
  0
APPID
  2
ACDBATTR
 70
     0
  0
ENDTAB
  0
TABLE
  2
DIMSTYLE
 70
     1
  0
DIMSTYLE
  2
STANDARD
 70
     0
  3

  4

  5

  6

  7

 40
1.0
 41
0.1875
 42
0.0625
 43
0.38
 44
0.125
 45
0.0
 46
0.0
 47
0.01
 48
0.01
140
0.15625
141
0.09
142
0.0
143
25.3999999999999986
144
1.0
145
0.0
146
1.0
147
0.09
 71
     1
 72
     0
 73
     1
 74
     1
 75
     0
 76
     0
 77
     0
 78
     4
170
     0
171
     2
172
     0
173
     0
174
     0
175
     0
176
     0
177
     0
178
     0
  0
ENDTAB
  0
ENDSEC
  0
SECTION
  2
BLOCKS
  0
BLOCK
  8
0
  2
$MODEL_SPACE
 70
     0
 10
0.0
 20
0.0
 30
0.0
  3
$MODEL_SPACE
  1

  0
ENDBLK
  5
21
  8
0
  0
BLOCK
 67
     1
  8
0
  2
$PAPER_SPACE
 70
     0
 10
0.0
 20
0.0
 30
0.0
  3
$PAPER_SPACE
  1

  0
ENDBLK
  5
1D
 67
     1
  8
0
  0
ENDSEC
  0
SECTION
  2
ENTITIES
  0
ATTDEF
  5
7A6E
  8
DEFPOINTS
 10
377.7408098462100838
 20
26.2785784126691411
 30
0.0
 40
0.001
  1
P80286-00
  3

  2
MODELNUMBER
 70
     0
1001
ACDBATTR
1070
     0
1070
     1
  0
ATTDEF
  5
7A6F
  8
DEFPOINTS
 10
377.7408098462100838
 20
26.2769117460024688
 30
0.0
 40
0.001
  1
VIR STIL
  3

  2
TRADENAME
 70
     0
1001
ACDBATTR
1070
     0
1070
     1
  0
ATTDEF
  5
7A70
  8
DEFPOINTS
 10
377.7408098462100838
 20
26.2752450793358108
 30
0.0
 40
0.001
  1
ROBE HOOK
  3

  2
PRODUCT
 70
     0
1001
ACDBATTR
1070
     0
1070
     1
  0
LINE
  5
BFC6
  8
0
 10
377.7400093264009797
 20
27.3607407346096707
 30
0.0
 11
377.7400093264009797
 21
25.1953864039096693
 31
0.0
  0
LINE
  5
BFC7
  8
0
 10
377.4250486964010065
 20
27.3607407346096707
 30
0.0
 11
377.4250486964010065
 21
25.1953864039096693
 31
0.0
  0
LINE
  5
BFC8
  8
0
 10
377.3266234996009985
 20
27.17963837240967
 30
0.0
 11
377.3266234996009985
 21
25.3764887661096701
 31
0.0
  0
LINE
  5
BFC9
  8
0
 10
377.3778046019010048
 20
27.2386934906096698
 30
0.0
 11
377.3778046019010048
 21
25.3174336479096702
 31
0.0
  0
LINE
  5
BFCA
  8
0
 10
376.3817416098009971
 20
26.7150714432096699
 30
0.0
 11
377.2281983027010028
 21
26.7150714432096699
 31
0.0
  0
LINE
  5
BFCB
  8
0
 10
376.3817416098009971
 20
26.7150714432096699
 30
0.0
 11
376.3817416098009971
 21
25.8410556953096702
 31
0.0
  0
LINE
  5
BFCC
  8
0
 10
377.2281983027010028
 20
26.7150714432096699
 30
0.0
 11
377.2281983027010028
 21
25.8410556953096702
 31
0.0
  0
LINE
  5
BFCD
  8
0
 10
377.7400093264009797
 20
27.3607407346096707
 30
0.0
 11
377.4250486964010065
 21
27.3607407346096707
 31
0.0
  0
LINE
  5
BFCE
  8
0
 10
377.3778046019010048
 20
27.2386934906096698
 30
0.0
 11
377.4250486964010065
 21
27.2386934906096698
 31
0.0
  0
LINE
  5
BFCF
  8
0
 10
377.3266234996009985
 20
27.17963837240967
 30
0.0
 11
377.3778046019010048
 21
27.17963837240967
 31
0.0
  0
LINE
  5
BFD0
  8
0
 10
377.2281983027010028
 20
26.66782734880967
 30
0.0
 11
377.3266234996009985
 21
26.66782734880967
 31
0.0
  0
LINE
  5
BFD1
  8
0
 10
377.7400093264009797
 20
25.1953864039096693
 30
0.0
 11
377.4250486964010065
 21
25.1953864039096693
 31
0.0
  0
LINE
  5
BFD2
  8
0
 10
377.3778046019010048
 20
25.3174336479096702
 30
0.0
 11
377.4250486964010065
 21
25.3174336479096702
 31
0.0
  0
LINE
  5
BFD3
  8
0
 10
377.3266234996009985
 20
25.3764887661096701
 30
0.0
 11
377.3778046019010048
 21
25.3764887661096701
 31
0.0
  0
LINE
  5
BFD4
  8
0
 10
376.3817416098009971
 20
25.8410556953096702
 30
0.0
 11
377.2281983027010028
 21
25.8410556953096702
 31
0.0
  0
LINE
  5
BFD5
  8
0
 10
377.2281983027010028
 20
25.8882997897096701
 30
0.0
 11
377.3266234996009985
 21
25.8882997897096701
 31
0.0
  0
LINE
  5
BFD6
  8
0
 10
375.4697731059010266
 20
25.9274635692096709
 30
0.0
 11
375.4697731059010266
 21
27.4038509708096711
 31
0.0
  0
LINE
  5
BFD7
  8
0
 10
376.2497731059009993
 20
26.7074635692096685
 30
0.0
 11
376.2497731059009993
 21
27.4038509708096711
 31
0.0
  0
LINE
  5
BFD8
  8
0
 10
375.4322013616493905
 20
27.4038509708096711
 30
0.0
 11
376.2875457374594248
 21
27.4038509708096711
 31
0.0
  0
LINE
  5
BFD9
  8
0
 10
376.3817416098009971
 20
26.6680635692096715
 30
0.0
 11
376.2891731059009999
 21
26.6680635692096715
 31
0.0
  0
ARC
  5
BFDA
  8
0
 10
376.2891731059009999
 20
26.7074635692096685
 30
0.0
 40
0.0394
 50
180.0000000000005969
 51
270.0
  0
LINE
  5
BFDB
  8
0
 10
375.5091731059010272
 20
25.8880635692096703
 30
0.0
 11
376.3817416098009971
 21
25.8880635692096703
 31
0.0
  0
ARC
  5
BFDC
  8
0
 10
375.5091731059010272
 20
25.9274635692096709
 30
0.0
 40
0.0394
 50
179.9999999999978968
 51
270.0000000000064801
  0
ARC
  5
BFDD
  8
0
 10
375.859773105901013
 20
27.4038509708096711
 30
0.0
 40
0.4687500000000023
 50
5.2621391745103976
 51
174.7378885559446076
  0
ARC
  5
BFDE
  8
0
 10
375.4322013991952076
 20
27.443220570035681
 30
0.0
 40
0.0393695992260263
 50
174.7235873922386133
 51
269.9999453584866274
  0
ARC
  5
BFDF
  8
0
 10
376.2874451258301747
 20
27.443129093950521
 30
0.0
 40
0.039278251999906
 50
270.1467638638308131
 51
5.4230722877367752
  0
LINE
  5
BFE1
  8
0
 10
376.2613130987223258
 20
26.6796035620309198
 30
0.0
 11
375.4813130987221825
 21
25.8996035620309115
 31
0.0
  0
ENDSEC
  0
EOF
