  0
SECTION
  2
HEADER
  9
$ACADVER
  1
AC1009
  9
$INSBASE
 10
4522.4448744295323195
 20
-33.4271639074321527
 30
0.0
  9
$EXTMIN
 10
4521.9924534402316567
 20
-42.7440376855317083
 30
0.0
  9
$EXTMAX
 10
4531.641066058814431
 20
-32.4525415065321496
 30
0.0
  9
$LIMMIN
 10
0.0
 20
0.0
  9
$LIMMAX
 10
11.6929133858000007
 20
8.2677165353999982
  9
$ORTHOMODE
 70
     0
  9
$REGENMODE
 70
     1
  9
$FILLMODE
 70
     1
  9
$QTEXTMODE
 70
     0
  9
$MIRRTEXT
 70
     0
  9
$DRAGMODE
 70
     2
  9
$LTSCALE
 40
0.6431102362
  9
$OSMODE
 70
  4095
  9
$ATTMODE
 70
     1
  9
$TEXTSIZE
 40
0.2
  9
$TRACEWID
 40
0.05
  9
$TEXTSTYLE
  7
STANDARD
  9
$CLAYER
  8
0
  9
$CELTYPE
  6
BYLAYER
  9
$CECOLOR
 62
   256
  9
$DIMSCALE
 40
1.0
  9
$DIMASZ
 40
0.1875
  9
$DIMEXO
 40
0.0625
  9
$DIMDLI
 40
0.4443307087
  9
$DIMRND
 40
0.0
  9
$DIMDLE
 40
0.0
  9
$DIMEXE
 40
0.125
  9
$DIMTP
 40
0.01
  9
$DIMTM
 40
0.01
  9
$DIMTXT
 40
2.0
  9
$DIMCEN
 40
0.1052362205
  9
$DIMTSZ
 40
0.0
  9
$DIMTOL
 70
     1
  9
$DIMLIM
 70
     0
  9
$DIMTIH
 70
     1
  9
$DIMTOH
 70
     1
  9
$DIMSE1
 70
     0
  9
$DIMSE2
 70
     0
  9
$DIMTAD
 70
     0
  9
$DIMZIN
 70
     0
  9
$DIMBLK
  1

  9
$DIMASO
 70
     1
  9
$DIMSHO
 70
     1
  9
$DIMPOST
  1
\X
  9
$DIMAPOST
  1

  9
$DIMALT
 70
     1
  9
$DIMALTD
 70
     2
  9
$DIMALTF
 40
25.3999999999999986
  9
$DIMLFAC
 40
1.0
  9
$DIMTOFL
 70
     0
  9
$DIMTVP
 40
0.0
  9
$DIMTIX
 70
     0
  9
$DIMSOXD
 70
     0
  9
$DIMSAH
 70
     0
  9
$DIMBLK1
  1

  9
$DIMBLK2
  1

  9
$DIMSTYLE
  2
STANDARD
  9
$DIMCLRD
 70
     0
  9
$DIMCLRE
 70
     0
  9
$DIMCLRT
 70
     0
  9
$DIMTFAC
 40
1.0
  9
$DIMGAP
 40
0.09
  9
$LUNITS
 70
     2
  9
$LUPREC
 70
     4
  9
$SKETCHINC
 40
0.1
  9
$FILLETRAD
 40
0.0
  9
$AUNITS
 70
     0
  9
$AUPREC
 70
     0
  9
$MENU
  1
.
  9
$ELEVATION
 40
0.0
  9
$PELEVATION
 40
0.0
  9
$THICKNESS
 40
0.0
  9
$LIMCHECK
 70
     0
  9
$BLIPMODE
 70
     0
  9
$CHAMFERA
 40
0.0
  9
$CHAMFERB
 40
0.0
  9
$SKPOLY
 70
     0
  9
$TDCREATE
 40
2458060.468368056230247
  9
$TDUPDATE
 40
2460057.4571064808405936
  9
$TDINDWG
 40
0.4590695602
  9
$TDUSRTIMER
 40
0.4590695602
  9
$USRTIMER
 70
     1
  9
$ANGBASE
 50
0.0
  9
$ANGDIR
 70
     0
  9
$PDMODE
 70
     0
  9
$PDSIZE
 40
0.3125
  9
$PLINEWID
 40
0.0
  9
$COORDS
 70
     1
  9
$SPLFRAME
 70
     0
  9
$SPLINETYPE
 70
     6
  9
$SPLINESEGS
 70
     8
  9
$ATTDIA
 70
     1
  9
$ATTREQ
 70
     1
  9
$HANDLING
 70
     1
  9
$HANDSEED
  5
1E437
  9
$SURFTAB1
 70
     6
  9
$SURFTAB2
 70
     6
  9
$SURFTYPE
 70
     6
  9
$SURFU
 70
     6
  9
$SURFV
 70
     6
  9
$UCSNAME
  2

  9
$UCSORG
 10
0.0
 20
0.0
 30
0.0
  9
$UCSXDIR
 10
1.0
 20
0.0
 30
0.0
  9
$UCSYDIR
 10
0.0
 20
1.0
 30
0.0
  9
$PUCSNAME
  2

  9
$PUCSORG
 10
0.0
 20
0.0
 30
0.0
  9
$PUCSXDIR
 10
1.0
 20
0.0
 30
0.0
  9
$PUCSYDIR
 10
0.0
 20
1.0
 30
0.0
  9
$USERI1
 70
     0
  9
$USERI2
 70
     0
  9
$USERI3
 70
     0
  9
$USERI4
 70
     0
  9
$USERI5
 70
     0
  9
$USERR1
 40
0.0
  9
$USERR2
 40
0.0
  9
$USERR3
 40
0.0
  9
$USERR4
 40
0.0
  9
$USERR5
 40
0.0
  9
$WORLDVIEW
 70
     1
  9
$SHADEDGE
 70
     3
  9
$SHADEDIF
 70
    70
  9
$TILEMODE
 70
     1
  9
$MAXACTVP
 70
    64
  9
$PLIMCHECK
 70
     0
  9
$PEXTMIN
 10
1.0000000000000000E+20
 20
1.0000000000000000E+20
 30
1.0000000000000000E+20
  9
$PEXTMAX
 10
-1.0000000000000000E+20
 20
-1.0000000000000000E+20
 30
-1.0000000000000000E+20
  9
$PLIMMIN
 10
0.0
 20
0.0
  9
$PLIMMAX
 10
12.0
 20
9.0
  9
$UNITMODE
 70
     0
  9
$VISRETAIN
 70
     1
  9
$PLINEGEN
 70
     0
  9
$PSLTSCALE
 70
     1
  0
ENDSEC
  0
SECTION
  2
TABLES
  0
TABLE
  2
VPORT
 70
     1
  0
VPORT
  2
*ACTIVE
 70
     0
 10
0.0
 20
0.0
 11
1.0
 21
1.0
 12
734.5683719420449052
 22
-157.7774574140881896
 13
0.0
 23
0.0
 14
1.0
 24
1.0
 15
0.0
 25
0.0
 16
0.0
 26
0.0
 36
5.1040778033513332
 17
3792.35791015625
 27
120.1806564331053977
 37
0.0
 40
10.3762336064623
 41
1.593589743589743
 42
50.0
 43
0.0
 44
0.0
 50
0.0
 51
0.0
 71
     0
 72
   100
 73
     1
 74
     1
 75
     0
 76
     0
 77
     0
 78
     0
  0
ENDTAB
  0
TABLE
  2
LTYPE
 70
     2
  0
LTYPE
  2
CONTINUOUS
 70
     0
  3
Solid line
 72
    65
 73
     0
 40
0.0
  0
LTYPE
  2
PHANTOM2
 70
     0
  3
___ _ _ ___ _ _ ___ _ _ ___ _ _
 72
    65
 73
     6
 40
1.25
 49
0.625
 49
-0.125
 49
0.125
 49
-0.125
 49
0.125
 49
-0.125
  0
ENDTAB
  0
TABLE
  2
LAYER
 70
     2
  0
LAYER
  2
0
 70
     0
 62
   255
  6
CONTINUOUS
  0
LAYER
  2
DEFPOINTS
 70
     0
 62
     7
  6
CONTINUOUS
  0
ENDTAB
  0
TABLE
  2
STYLE
 70
     1
  0
STYLE
  2
STANDARD
 70
     0
 40
0.0
 41
0.8
 50
0.0
 71
     0
 42
0.2
  3
txt
  4

  0
ENDTAB
  0
TABLE
  2
VIEW
 70
     0
  0
ENDTAB
  0
TABLE
  2
UCS
 70
     0
  0
ENDTAB
  0
TABLE
  2
APPID
 70
     9
  0
APPID
  2
ACAD
 70
     0
  0
APPID
  2
ACAD_MLEADERVER
 70
     0
  0
APPID
  2
ACAD_EXEMPT_FROM_CAD_STANDARDS
 70
     0
  0
APPID
  2
ACAD_NAV_VCDISPLAY
 70
     0
  0
APPID
  2
ACAECLAYERSTANDARD
 70
     0
  0
APPID
  2
ACCMTRANSPARENCY
 70
     0
  0
APPID
  2
ACAD_DSTYLE_DIMJAG
 70
     0
  0
APPID
  2
ACAD_DSTYLE_DIMTALN
 70
     0
  0
APPID
  2
ACDBATTR
 70
     0
  0
ENDTAB
  0
TABLE
  2
DIMSTYLE
 70
     1
  0
DIMSTYLE
  2
STANDARD
 70
     0
  3

  4

  5

  6

  7

 40
1.0
 41
0.1875
 42
0.0625
 43
0.38
 44
0.125
 45
0.0
 46
0.0
 47
0.01
 48
0.01
140
0.15625
141
0.09
142
0.0
143
25.3999999999999986
144
1.0
145
0.0
146
1.0
147
0.09
 71
     1
 72
     0
 73
     1
 74
     1
 75
     0
 76
     0
 77
     0
 78
     4
170
     0
171
     2
172
     0
173
     0
174
     0
175
     0
176
     0
177
     0
178
     0
  0
ENDTAB
  0
ENDSEC
  0
SECTION
  2
BLOCKS
  0
BLOCK
  8
0
  2
$MODEL_SPACE
 70
     0
 10
0.0
 20
0.0
 30
0.0
  3
$MODEL_SPACE
  1

  0
ENDBLK
  5
21
  8
0
  0
BLOCK
 67
     1
  8
0
  2
$PAPER_SPACE
 70
     0
 10
0.0
 20
0.0
 30
0.0
  3
$PAPER_SPACE
  1

  0
ENDBLK
  5
1D
 67
     1
  8
0
  0
ENDSEC
  0
SECTION
  2
ENTITIES
  0
ATTDEF
  5
3930
  8
DEFPOINTS
 10
4522.4405053258924454
 20
-33.4292045773045032
 30
0.0
 40
0.001
  1
K-R15599T
  3

  2
MODELNUMBER
 70
     0
1001
ACDBATTR
1070
     0
1070
     1
  0
ATTDEF
  5
3931
  8
DEFPOINTS
 10
4522.4405053258924454
 20
-33.4308712439711613
 30
0.0
 40
0.001
  1
FLIPSIDE
  3

  2
TRADENAME
 70
     0
1001
ACDBATTR
1070
     0
1070
     1
  0
ATTDEF
  5
3932
  8
DEFPOINTS
 10
4522.4405053258924454
 20
-33.4325379106378335
 30
0.0
 40
0.001
  1
HANDSHOWER KIT
  3

  2
PRODUCT
 70
     0
1001
ACDBATTR
1070
     0
1070
     1
  0
CIRCLE
  5
1E16E
  8
0
 10
4522.4448744295323195
 20
-33.4271639074321527
 30
0.0
 40
0.4524209892999993
  0
CIRCLE
  5
1E16F
  8
0
 10
4522.4448744295323195
 20
-33.4271639074321527
 30
0.0
 40
0.3740157479999999
  0
LINE
  5
1E170
  8
0
 10
4528.341944996031998
 20
-34.2789500614127931
 30
0.0
 11
4528.341944996031998
 21
-33.6672228802974232
 31
0.0
  0
ARC
  5
1E171
  8
0
 10
4526.0376286384216655
 20
97.7427015645758388
 30
0.0
 40
130.9424640567025051
 50
268.5875484773216044
 51
270.9230399014955992
  0
ARC
  5
1E172
  8
0
 10
4526.1821825434390121
 20
123.4704094616698029
 30
0.0
 40
157.2175911857144115
 50
268.7663644990277021
 51
270.7178375630326173
  0
ARC
  5
1E173
  8
0
 10
4528.9255133717515491
 20
-39.9399456394436925
 30
0.0
 40
2.8040920460880199
 50
236.0254099302136979
 51
270.3840163967345234
  0
ARC
  5
1E174
  8
0
 10
4528.7957891916321387
 20
-40.1222470508856475
 30
0.0
 40
2.5804252968791519
 50
199.3676043732781977
 51
236.1520563663561063
  0
ARC
  5
1E175
  8
0
 10
4528.6370866497090901
 20
-40.2487279958941002
 30
0.0
 40
2.3896899320371099
 50
180.6455999475928991
 51
197.7683431547540067
  0
ARC
  5
1E176
  8
0
 10
4528.9878773182208533
 20
-40.3269912874611833
 30
0.0
 40
2.740809731816062
 50
167.8712024818389921
 51
178.9267488236258998
  0
ARC
  5
1E177
  8
0
 10
4528.6272282445797828
 20
-40.2506225748752868
 30
0.0
 40
2.3721655864299671
 50
129.2993958221402124
 51
167.8443444565911875
  0
ARC
  5
1E178
  8
0
 10
4515.3625992778243017
 20
-24.0440641748797113
 30
0.0
 40
18.5706832359767198
 50
309.299395822140184
 51
312.7955598577336218
  0
ARC
  5
1E179
  8
0
 10
4527.0690589345513217
 20
-36.8118343777042512
 30
0.0
 40
1.2515676111062499
 50
316.6544144544367896
 51
354.0956729498461755
  0
ARC
  5
1E17A
  8
0
 10
4525.1558993195985749
 20
-36.7157018769046175
 30
0.0
 40
3.1660840695933361
 50
355.927007281501119
 51
13.2959065675478296
  0
ARC
  5
1E17B
  8
0
 10
4531.3196417398739868
 20
-35.3085536296119002
 30
0.0
 40
3.15642401490032
 50
180.3736380528497136
 51
192.4225979684622985
  0
ARC
  5
1E17C
  8
0
 10
4531.8880793563967018
 20
-35.338602960076507
 30
0.0
 40
3.7248065438163209
 50
173.5562637811472086
 51
179.8543954897428137
  0
ARC
  5
1E17D
  8
0
 10
4548.1556865610782552
 20
-37.428175461661823
 30
0.0
 40
20.1257127644452005
 50
171.5552360587186058
 51
172.8425314689457082
  0
ARC
  5
1E17E
  8
0
 10
4528.666501970945319
 20
-34.5556296763048323
 30
0.0
 40
0.4264842778587229
 50
124.7392168916053947
 51
168.7732119488167939
  0
ARC
  5
1E17F
  8
0
 10
4528.9005577711677688
 20
-34.8722618764380883
 30
0.0
 40
0.8201393943264816
 50
105.4322603668966991
 51
125.571009575885796
  0
ARC
  5
1E180
  8
0
 10
4528.9424410939700465
 20
-35.0024092526270607
 30
0.0
 40
0.9567567339792624
 50
89.8882450619509257
 51
105.7760751328889057
  0
LINE
  5
1E181
  8
0
 10
4528.1406559491888402
 20
-32.4525415065321496
 30
0.0
 11
4529.7479585283772394
 21
-32.4525415065321496
 31
0.0
  0
LINE
  5
1E182
  8
0
 10
4528.2135161330061237
 20
-34.7163213183298183
 30
0.0
 11
4528.1997687511320692
 21
-34.7163201586321506
 31
0.0
  0
LINE
  5
1E183
  8
0
 10
4528.1600685307321328
 20
-34.6759187913321512
 30
0.0
 11
4528.1406559491888402
 21
-32.4525415065321496
 31
0.0
  0
ARC
  5
1E184
  8
0
 10
4528.1999259623544276
 20
-34.6764593712987192
 30
0.0
 40
0.0398610973533113
 50
179.2229541553975025
 51
269.7740262193153171
  0
ARC
  5
1E185
  8
0
 10
4528.9425028305149681
 20
-34.5255633496928169
 30
0.0
 40
0.5474515255037068
 50
89.811151927376244
 51
132.0799269080426086
  0
ARC
  5
1E186
  8
0
 10
4528.9517941799913388
 20
-34.4895576693537791
 30
0.0
 40
0.573092834092889
 50
90.7485389978320711
 51
146.2162720243630076
  0
LINE
  5
1E187
  8
0
 10
4528.3340709801323101
 20
-33.7241950498321472
 30
0.0
 11
4528.3340709800086188
 21
-34.2884621716817506
 31
0.0
  0
LINE
  5
1E188
  8
0
 10
4528.3537540963206993
 20
-33.6632532663321484
 30
0.0
 11
4529.5348603812426518
 21
-33.6632532663321484
 31
0.0
  0
ARC
  5
1E189
  8
0
 10
4528.3538594322099016
 20
-33.6831167250347718
 30
0.0
 40
0.019863737998685
 50
90.3038365777840824
 51
126.8561746319199983
  0
ARC
  5
1E18A
  8
0
 10
4528.3458820037330952
 20
-33.7241950498321472
 30
0.0
 40
0.0118110236000053
 50
109.4712197780451959
 51
179.9999999874702894
  0
LINE
  5
1E18B
  8
0
 10
4529.0624175133316385
 20
-32.5627777270321488
 30
0.0
 11
4528.8261969642317126
 21
-32.5627777270321488
 31
0.0
  0
LINE
  5
1E18C
  8
0
 10
4528.8261969642317126
 20
-32.5627777270321488
 30
0.0
 11
4528.8261969642317126
 21
-32.7596281207321525
 31
0.0
  0
LINE
  5
1E18D
  8
0
 10
4528.8261969642317126
 20
-32.7596281207321525
 30
0.0
 11
4529.0624175133316385
 21
-32.7596281207321525
 31
0.0
  0
LINE
  5
1E18E
  8
0
 10
4528.8458820036321413
 20
-32.5785257585321517
 30
0.0
 11
4528.8458820036321413
 21
-32.5861185622321514
 31
0.0
  0
LINE
  5
1E18F
  8
0
 10
4528.8458820036321413
 20
-32.6297068609321528
 30
0.0
 11
4528.8458820036321413
 21
-32.7388124235321527
 31
0.0
  0
LINE
  5
1E190
  8
0
 10
4528.8458820036321413
 20
-32.7388124235321527
 30
0.0
 11
4529.0427324739312098
 21
-32.7388124235321527
 31
0.0
  0
LINE
  5
1E191
  8
0
 10
4528.8458820036321413
 20
-32.6297068609321528
 30
0.0
 11
4529.0427324739312098
 21
-32.6297068609321528
 31
0.0
  0
LINE
  5
1E192
  8
0
 10
4528.8458820036321413
 20
-32.5861185622321514
 30
0.0
 11
4529.0427324739312098
 21
-32.5861185622321514
 31
0.0
  0
LINE
  5
1E193
  8
0
 10
4529.0427324739312098
 20
-32.5785257585321517
 30
0.0
 11
4528.8458820036321413
 21
-32.5785257585321517
 31
0.0
  0
ARC
  5
1E194
  8
0
 10
4528.938293663362856
 20
-39.7380483876824684
 30
0.0
 40
2.5285373513519169
 50
262.6357525595104221
 51
270.1362656620499934
  0
ARC
  5
1E195
  8
0
 10
4528.977426639744408
 20
-39.4352619933763293
 30
0.0
 40
2.833842101425263
 50
256.7918213850732059
 51
262.6357525595104221
  0
ARC
  5
1E196
  8
0
 10
4528.8903842529789472
 20
-39.8061309707734097
 30
0.0
 40
2.452895680666165
 50
243.0744617750376051
 51
256.7918213850732059
  0
ARC
  5
1E197
  8
0
 10
4528.8669242022579056
 20
-39.8523222176931
 30
0.0
 40
2.4010882943993259
 50
219.4058542980307038
 51
243.0744617750376051
  0
ARC
  5
1E198
  8
0
 10
4528.5204112478559182
 20
-40.1370104664986513
 30
0.0
 40
1.952625780273465
 50
194.9883157625280035
 51
219.4058542980307038
  0
ARC
  5
1E199
  8
0
 10
4528.6046313110391566
 20
-40.1144285263110731
 30
0.0
 40
2.0398207460320941
 50
180.5471600682996893
 51
194.9892287677336071
  0
ARC
  5
1E19A
  8
0
 10
4528.5275672270945506
 20
-40.1342163502365565
 30
0.0
 40
1.9626636736139571
 50
169.2603169856766954
 51
179.9909983036828862
  0
ARC
  5
1E19B
  8
0
 10
4528.6319242197832864
 20
-40.1745220669214973
 30
0.0
 40
2.0728015733602971
 50
134.6508104720925871
 51
168.703242215852498
  0
ARC
  5
1E19C
  8
0
 10
4528.8695748434383859
 20
-40.4150872160244319
 30
0.0
 40
2.4109574691933902
 50
109.2496401685491065
 51
134.6508104720925871
  0
ARC
  5
1E19D
  8
0
 10
4528.9526018782398751
 20
-40.6528449211230622
 30
0.0
 40
2.6627951447739511
 50
90.1784773428841362
 51
109.2496402189978966
  0
ARC
  5
1E19E
  8
0
 10
4528.8931159973408285
 20
-40.2698836212607389
 30
0.0
 40
2.004787284591603
 50
225.7266856028419113
 51
253.7880776592967038
  0
ARC
  5
1E19F
  8
0
 10
4528.7050185389553008
 20
-40.4628139355162304
 30
0.0
 40
1.7353382912551829
 50
193.5780730158595873
 51
225.7266856028419113
  0
ARC
  5
1E1A0
  8
0
 10
4528.6070840183811015
 20
-40.4864671202802811
 30
0.0
 40
1.634587889422537
 50
182.9619104467022908
 51
193.5780730158591894
  0
ARC
  5
1E1A1
  8
0
 10
4532.2947208458626847
 20
-40.0573986243222322
 30
0.0
 40
5.3211601284086338
 50
180.339411334841401
 51
185.2265352709653996
  0
ARC
  5
1E1A2
  8
0
 10
4528.5413243445700573
 20
-40.2655681025151466
 30
0.0
 40
1.5701864746553089
 50
190.1443583371001012
 51
203.5336209721567968
  0
ARC
  5
1E1A3
  8
0
 10
4528.5083189803472123
 20
-40.2799422782793783
 30
0.0
 40
1.5341868774857721
 50
203.5336209721563989
 51
219.6162692630587969
  0
ARC
  5
1E1A4
  8
0
 10
4528.5669866525367979
 20
-40.2313800925922891
 30
0.0
 40
1.610345801051958
 50
219.6162692630587969
 51
241.7563090356007081
  0
ARC
  5
1E1A5
  8
0
 10
4528.6368903667926133
 20
-40.1012485884287386
 30
0.0
 40
1.7580642414808061
 50
241.7563090356007081
 51
248.8068197793097909
  0
ARC
  5
1E1A6
  8
0
 10
4528.8421820404901155
 20
-39.5717881444254118
 30
0.0
 40
2.325931332492186
 50
248.8068197793097909
 51
259.8840886644188117
  0
ARC
  5
1E1A7
  8
0
 10
4528.9432882424589479
 20
-39.0029389543364005
 30
0.0
 40
2.9036957745544418
 50
259.8915531084696227
 51
270.0201068549800993
  0
ARC
  5
1E1A8
  8
0
 10
4528.9518776654940666
 20
-40.3697018110800983
 30
0.0
 40
1.7983729900016661
 50
249.3695517459476889
 51
269.7588071088741799
  0
ARC
  5
1E1A9
  8
0
 10
4529.062700790072995
 20
-40.075336741268849
 30
0.0
 40
2.112908455834313
 50
233.8027935651699067
 51
249.3695517459476889
  0
LINE
  5
1E1AA
  8
0
 10
4527.8049362728315828
 20
-41.7688044049321476
 30
0.0
 11
4527.802957920524932
 21
-41.6489391550750909
 31
0.0
  0
ARC
  5
1E1AB
  8
0
 10
4527.8286266691466153
 20
-41.7585985322507227
 30
0.0
 40
0.0257952459720148
 50
203.3064794285591006
 51
237.8189653152080894
  0
LINE
  5
1E1AC
  8
0
 10
4527.8123644475326728
 20
-41.7627491412321419
 30
0.0
 11
4527.8112971302143706
 21
-41.6534037626590177
 31
0.0
  0
ARC
  5
1E1AD
  8
0
 10
4527.7765777456315845
 20
-41.6955750032260326
 30
0.0
 40
0.0301211906422767
 50
26.6250319997079785
 51
64.4202203805447908
  0
ARC
  5
1E1AE
  8
0
 10
4528.5127411916064375
 20
-40.3012610117958019
 30
0.0
 40
1.5466232378994429
 50
215.2260992861718023
 51
242.1231793805407904
  0
ARC
  5
1E1AF
  8
0
 10
4528.4716118490969166
 20
-40.3303026385495613
 30
0.0
 40
1.496274068097865
 50
189.0583698204646907
 51
215.2260992861718023
  0
LINE
  5
1E1B0
  8
0
 10
4526.9939986211329597
 20
-40.5658769058321482
 30
0.0
 11
4527.0001234531091541
 21
-40.5658769058321482
 31
0.0
  0
LINE
  5
1E1B1
  8
0
 10
4526.9936935811329022
 20
-40.5709296563321473
 30
0.0
 11
4526.6805276723316638
 21
-40.5709296563321473
 31
0.0
  0
ARC
  5
1E1B2
  8
0
 10
4527.0025156695828628
 20
-40.5690971709119026
 30
0.0
 40
0.0170622448036271
 50
186.2506828897664093
 51
225.961202341340595
  0
ARC
  5
1E1B3
  8
0
 10
4526.9712756449698645
 20
-40.5700593971975678
 30
0.0
 40
0.0224348214322096
 50
329.7464001222368779
 51
357.7769072608745091
  0
ARC
  5
1E1B4
  8
0
 10
4526.9017277672855926
 20
-40.562841997864858
 30
0.0
 40
0.0923207513837728
 50
354.9742235180247008
 51
358.1161467008076897
  0
LINE
  5
1E1B5
  8
0
 10
4526.6805276723316638
 20
-40.5709296563321473
 30
0.0
 11
4526.6805276723316638
 21
-40.1430554996404609
 31
0.0
  0
LINE
  5
1E1B6
  8
0
 10
4526.9759574609906849
 20
-39.9803784752321434
 30
0.0
 11
4526.8417404662295667
 21
-39.9803784752321434
 31
0.0
  0
ARC
  5
1E1B7
  8
0
 10
4526.8366962605432491
 20
-40.157771751901393
 30
0.0
 40
0.1565850901508558
 50
129.4398611068450009
 51
175.8200873961810089
  0
ARC
  5
1E1B8
  8
0
 10
4526.93390822272886
 20
-40.2759518056946888
 30
0.0
 40
0.3096102211146304
 50
107.318890505035796
 51
129.4398611068450009
  0
ARC
  5
1E1B9
  8
0
 10
4526.5230473589090252
 20
-40.2756540700293613
 30
0.0
 40
0.3346456648190863
 50
287.2508441867120723
 51
298.0724870458474243
  0
ARC
  5
1E1BA
  8
0
 10
4528.7248243078092855
 20
-40.071786717103187
 30
0.0
 40
1.751254040560928
 50
170.6830634830907911
 51
180.5605641134818029
  0
ARC
  5
1E1BB
  8
0
 10
4528.6004766295736772
 20
-40.0513639533501404
 30
0.0
 40
1.62524041494961
 50
155.8301724675031039
 51
170.6838394822532052
  0
ARC
  5
1E1BC
  8
0
 10
4528.7543854781288246
 20
-40.1204359356214297
 30
0.0
 40
1.793937991691547
 50
124.6304490250177963
 51
155.8301724675031039
  0
ARC
  5
1E1BD
  8
0
 10
4528.9462520355691595
 20
-40.3982463651972026
 30
0.0
 40
2.131564132037695
 50
103.3077764016576054
 51
124.6304490250175974
  0
ARC
  5
1E1BE
  8
0
 10
4528.9343419557244488
 20
-40.3478937084546629
 30
0.0
 40
2.0798220790926689
 50
89.7254713029101652
 51
103.3077764016576054
  0
ARC
  5
1E1BF
  8
0
 10
4528.6235760719137033
 20
-40.3129188971758765
 30
0.0
 40
1.7703516430537241
 50
147.8804159140615013
 51
169.1731168228625961
  0
ARC
  5
1E1C0
  8
0
 10
4529.3507615705639182
 20
-39.666567143098618
 30
0.0
 40
2.6048897328768241
 50
233.9327078908061992
 51
236.3906515357396074
  0
ARC
  5
1E1C1
  8
0
 10
4529.0149576741641795
 20
-40.171813771073893
 30
0.0
 40
1.9982280380926349
 50
236.3906515357396074
 51
249.2354650454821012
  0
ARC
  5
1E1C2
  8
0
 10
4528.9778137603188952
 20
-40.2697784374033532
 30
0.0
 40
1.8934580701405641
 50
249.2354650454821012
 51
262.9018885469903921
  0
ARC
  5
1E1C3
  8
0
 10
4528.9451552617247216
 20
-40.5320470085276128
 30
0.0
 40
1.629163951912332
 50
262.9018885469903921
 51
269.9701760294399264
  0
ARC
  5
1E1C4
  8
0
 10
4528.790238545218017
 20
-39.7571713447896684
 30
0.0
 40
2.1764023459058701
 50
246.4694591000485104
 51
253.7708291573354984
  0
ARC
  5
1E1C5
  8
0
 10
4528.8721027672254422
 20
-39.4759273834204478
 30
0.0
 40
2.4693185739498298
 50
253.7708291573354984
 51
263.1502884562830786
  0
ARC
  5
1E1C6
  8
0
 10
4528.9609015345868102
 20
-38.7366943759575406
 30
0.0
 40
3.2138658594915301
 50
263.1502884562830786
 51
269.7041608518304088
  0
ARC
  5
1E1C7
  8
0
 10
4528.939019536825981
 20
-40.4508535301376995
 30
0.0
 40
1.6972604404063969
 50
255.8626365165731897
 51
270.1785014770622979
  0
ARC
  5
1E1C8
  8
0
 10
4529.0011206812960154
 20
-40.2042991081931191
 30
0.0
 40
1.9515154995988271
 50
242.5330991358005974
 51
255.8626365165733034
  0
ARC
  5
1E1C9
  8
0
 10
4529.0730672132540349
 20
-40.0658959533281731
 30
0.0
 40
2.1075018346973118
 50
237.0697051346022874
 51
242.5330991358005974
  0
ARC
  5
1E1CA
  8
0
 10
4527.9792228392279867
 20
-41.7547632187686304
 30
0.0
 40
0.0953467326076896
 50
220.3540560675965878
 51
237.0697051346022874
  0
ARC
  5
1E1CB
  8
0
 10
4527.9277995744087093
 20
-41.7984567940161682
 30
0.0
 40
0.0278672491880901
 50
189.7000441992688025
 51
220.3540560675943993
  0
LINE
  5
1E1CC
  8
0
 10
4527.9003307338325612
 20
-41.8031521507321386
 30
0.0
 11
4527.9003307342318294
 21
-41.7567063771321401
 31
0.0
  0
ARC
  5
1E1CD
  8
0
 10
4527.9061306459361731
 20
-41.7564196673306327
 30
0.0
 40
0.0058069939111126
 50
107.3346526226639952
 51
182.8300258808833973
  0
ARC
  5
1E1CE
  8
0
 10
4527.9091641084260118
 20
-41.7661382878657079
 30
0.0
 40
0.0159880292110917
 50
84.4717470234688932
 51
107.3346526226638957
  0
ARC
  5
1E1CF
  8
0
 10
4527.9064388642636914
 20
-41.7942954904505726
 30
0.0
 40
0.0442768081374659
 50
70.3384746788930642
 51
84.4717470234688932
  0
ARC
  5
1E1D0
  8
0
 10
4527.8281672962357334
 20
-41.7606190930111794
 30
0.0
 40
0.0159457559424227
 50
187.6765674598680107
 51
226.4049180648015067
  0
ARC
  5
1E1D1
  8
0
 10
4528.9404815189882356
 20
-39.6353625628008501
 30
0.0
 40
2.0047091469723859
 50
243.9779406979301939
 51
270.1093414130609176
  0
ARC
  5
1E1D2
  8
0
 10
4528.844988375626599
 20
-39.8309613540162388
 30
0.0
 40
1.787044663066754
 50
212.2448576825875932
 51
243.9779406932329096
  0
ARC
  5
1E1D3
  8
0
 10
4528.5825780904060593
 20
-39.9964969882777197
 30
0.0
 40
1.4767847655621431
 50
182.2594214778733885
 51
212.2448576825875932
  0
ARC
  5
1E1D4
  8
0
 10
4528.641324778105627
 20
-39.9941791495976204
 30
0.0
 40
1.535577160407698
 50
151.8415943722515067
 51
182.2594214778733885
  0
ARC
  5
1E1D5
  8
0
 10
4528.7733243535458314
 20
-40.0648333721273389
 30
0.0
 40
1.685296588264761
 50
116.0310020628925969
 51
151.8415943722515067
  0
ARC
  5
1E1D6
  8
0
 10
4529.0088451016890758
 20
-40.5470600494414271
 30
0.0
 40
2.2219646338191579
 50
100.2294960527693064
 51
116.0310020628925969
  0
ARC
  5
1E1D7
  8
0
 10
4528.9166457905821517
 20
-40.0361470885473523
 30
0.0
 40
1.702799181792358
 50
89.0692067695530341
 51
100.2294960527693064
  0
ARC
  5
1E1D8
  8
0
 10
4528.3670396641346088
 20
-38.6941484215029305
 30
0.0
 40
0.0357467884759831
 50
103.6528108071280059
 51
197.3940995529565043
  0
ARC
  5
1E1D9
  8
0
 10
4528.3747026445016672
 20
-38.7060574544222078
 30
0.0
 40
0.0493462766908073
 50
59.9516968322948571
 51
109.0429864104941942
  0
ARC
  5
1E1DA
  8
0
 10
4528.369408668955657
 20
-38.6881611336469717
 30
0.0
 40
0.0401108390280129
 50
204.5625382387623006
 51
267.182314751209617
  0
ARC
  5
1E1DB
  8
0
 10
4528.3676673444833796
 20
-38.6480152769702912
 30
0.0
 40
0.0802085332102708
 50
269.8353835453157217
 51
292.4530449759504904
  0
ARC
  5
1E1DC
  8
0
 10
4528.3847527013504077
 20
-38.6913968532629227
 30
0.0
 40
0.031652803919396
 50
336.6946075758269217
 51
62.4112703405443909
  0
ARC
  5
1E1DD
  8
0
 10
4528.3704139759393001
 20
-38.6826687655108827
 30
0.0
 40
0.0483315605492492
 50
305.2395175489699
 51
333.9158381405649152
  0
ARC
  5
1E1DE
  8
0
 10
4528.3706085146022815
 20
-38.8542219013309165
 30
0.0
 40
0.2909601570138745
 50
38.9101104110161273
 51
89.7857882487692649
  0
ARC
  5
1E1DF
  8
0
 10
4528.4389549711786458
 20
-38.7919024992448627
 30
0.0
 40
0.1987126503497547
 50
290.1714508218252035
 51
37.3055173571224401
  0
ARC
  5
1E1E0
  8
0
 10
4528.3368804263818674
 20
-38.5069810395150682
 30
0.0
 40
0.2939984894200393
 50
228.5711686793146953
 51
286.8297468554359284
  0
ARC
  5
1E1E1
  8
0
 10
4528.2343298071327808
 20
-38.6374315439083986
 30
0.0
 40
0.1286787142031267
 50
146.684762966480605
 51
224.3697046903899945
  0
ARC
  5
1E1E2
  8
0
 10
4528.3231772420831476
 20
-38.6937082789012123
 30
0.0
 40
0.2338415031743575
 50
111.2979235877397031
 51
147.1186295626245908
  0
ARC
  5
1E1E3
  8
0
 10
4528.3708817367487427
 20
-38.6560071348744998
 30
0.0
 40
0.1419075468737965
 50
291.1144776284335762
 51
342.282408497677693
  0
ARC
  5
1E1E4
  8
0
 10
4528.4153813348648328
 20
-38.6779003540975808
 30
0.0
 40
0.0931434657006346
 50
346.7851639418735772
 51
29.3575466154685216
  0
ARC
  5
1E1E5
  8
0
 10
4528.3821174264276124
 20
-38.6972083404495706
 30
0.0
 40
0.1316024593336001
 50
29.5841584391978785
 51
72.8079178388227746
  0
ARC
  5
1E1E6
  8
0
 10
4528.3716012842924101
 20
-38.71586311099
 30
0.0
 40
0.1525993627684014
 50
71.1059196236466704
 51
89.9643155342499483
  0
ARC
  5
1E1E7
  8
0
 10
4528.3722700207463276
 20
-38.7162494377304185
 30
0.0
 40
0.1529867355878063
 50
90.2148580198894052
 51
116.9282089800234985
  0
ARC
  5
1E1E8
  8
0
 10
4528.3494213937756285
 20
-38.6825525953904972
 30
0.0
 40
0.1127118752167233
 50
114.3292800328318037
 51
188.087358618103508
  0
ARC
  5
1E1E9
  8
0
 10
4528.373738005049745
 20
-38.6584107630909983
 30
0.0
 40
0.1416712198069037
 50
196.3994921829007865
 51
266.0063009803640171
  0
ARC
  5
1E1EA
  8
0
 10
4528.3709023760284254
 20
-38.8213380676881528
 30
0.0
 40
0.3700941744422734
 50
32.2036218136257872
 51
111.0050680691900027
  0
ARC
  5
1E1EB
  8
0
 10
4528.4230377222083916
 20
-38.715181417501789
 30
0.0
 40
0.2764567028351747
 50
287.7843111610426945
 51
19.2351525985173488
  0
ARC
  5
1E1EC
  8
0
 10
4528.3774180985392377
 20
-38.6321011399905103
 30
0.0
 40
0.3699419348890058
 50
213.5456156924381048
 51
290.5831438544939829
  0
ARC
  5
1E1ED
  8
0
 10
4528.3187638314720971
 20
-38.7336012888105614
 30
0.0
 40
0.2700484076820255
 50
107.3480720097344943
 51
202.4044815782808939
  0
LINE
  5
1E1EE
  8
0
 10
4528.3591919829532344
 20
-38.7269490020421472
 30
0.0
 11
4528.4120099531737651
 21
-38.7072800316899901
 31
0.0
  0
ARC
  5
1E1EF
  8
0
 10
4527.5625988864139799
 20
-39.4207443216648201
 30
0.0
 40
0.0381901479628595
 50
103.8771172633250046
 51
194.5196414027394098
  0
ARC
  5
1E1F0
  8
0
 10
4527.5695399253054347
 20
-39.4303146093669028
 30
0.0
 40
0.0493462766908073
 50
59.9516968322948571
 51
109.0429864104941942
  0
ARC
  5
1E1F1
  8
0
 10
4527.5606556796801669
 20
-39.4185929432636968
 30
0.0
 40
0.0369378836178402
 50
198.5090611961111904
 51
270.9039438545862026
  0
ARC
  5
1E1F2
  8
0
 10
4527.5635196932917097
 20
-39.4031826050371805
 30
0.0
 40
0.0523933133876448
 50
267.5044746776130182
 51
304.4240936096190921
  0
ARC
  5
1E1F3
  8
0
 10
4527.5795899821532657
 20
-39.4156540082076106
 30
0.0
 40
0.031652803919396
 50
336.6946075758269217
 51
62.4112703405443909
  0
ARC
  5
1E1F4
  8
0
 10
4527.5652512567430676
 20
-39.4069259204555777
 30
0.0
 40
0.0483315605492492
 50
305.2395175489699
 51
333.9158381405649152
  0
ARC
  5
1E1F5
  8
0
 10
4527.5498150205748971
 20
-39.3907303066958292
 30
0.0
 40
0.1457993580988366
 50
268.5950724248145889
 51
341.9354006885249078
  0
ARC
  5
1E1F6
  8
0
 10
4527.5977505617865972
 20
-39.4146482245202208
 30
0.0
 40
0.0931434657006346
 50
346.7851639418735772
 51
29.3575466154685216
  0
ARC
  5
1E1F7
  8
0
 10
4527.5644866533511959
 20
-39.4339562108722177
 30
0.0
 40
0.1316024593336001
 50
29.5841584391978785
 51
72.8079178388227746
  0
ARC
  5
1E1F8
  8
0
 10
4527.5539705112141746
 20
-39.4526109814126471
 30
0.0
 40
0.1525993627684014
 50
71.1059196236466704
 51
89.9643155342499483
  0
ARC
  5
1E1F9
  8
0
 10
4527.5546392476680921
 20
-39.4529973081530727
 30
0.0
 40
0.1529867355878063
 50
90.2148580198894052
 51
116.9282089800234985
  0
ARC
  5
1E1FA
  8
0
 10
4527.531790620697393
 20
-39.4193004658131372
 30
0.0
 40
0.1127118752167233
 50
114.3292800328318037
 51
188.087358618103508
  0
ARC
  5
1E1FB
  8
0
 10
4527.556107231972419
 20
-39.3951586335136525
 30
0.0
 40
0.1416712198069037
 50
196.3994921829007865
 51
266.0063009803640171
  0
ARC
  5
1E1FC
  8
0
 10
4527.5832811620830398
 20
-39.4927145067225496
 30
0.0
 40
0.3325428001097596
 50
30.6897217069414197
 51
118.8129831061797006
  0
ARC
  5
1E1FD
  8
0
 10
4527.6038561038913031
 20
-39.4412912140817227
 30
0.0
 40
0.290566850400341
 50
288.9525380131030943
 51
24.0256012535635293
  0
ARC
  5
1E1FE
  8
0
 10
4527.5681687414180487
 20
-39.3697798760204023
 30
0.0
 40
0.3699419348890058
 50
213.5456156924381048
 51
290.5831438544939829
  0
ARC
  5
1E1FF
  8
0
 10
4527.5335682127870314
 20
-39.4718509238437321
 30
0.0
 40
0.2922297734581357
 50
112.2297488417189015
 51
200.5031511917806029
  0
ARC
  5
1E200
  8
0
 10
4527.6369796542439872
 20
-39.4802856491825125
 30
0.0
 40
0.2335266720736183
 50
83.1787708355559516
 51
145.4103872579586891
  0
ARC
  5
1E201
  8
0
 10
4527.6332076172730012
 20
-39.5200664392929468
 30
0.0
 40
0.2734756426393984
 50
40.5938091248977173
 51
83.3839863855150156
  0
ARC
  5
1E202
  8
0
 10
4527.6830527719757811
 20
-39.4732436413192787
 30
0.0
 40
0.2051826464715608
 50
339.3174099788113267
 51
39.7223572175185069
  0
ARC
  5
1E203
  8
0
 10
4527.4097434493296532
 20
-39.4373961961138377
 30
0.0
 40
0.1646964983783492
 50
173.9696022424832051
 51
210.4695244508278051
  0
ARC
  5
1E204
  8
0
 10
4527.3759272708975914
 20
-39.4561890620138129
 30
0.0
 40
0.1260244621695826
 50
210.9014163093333991
 51
246.6233958821846954
  0
ARC
  5
1E205
  8
0
 10
4527.4496604621617735
 20
-39.2856106433971775
 30
0.0
 40
0.3118565917694097
 50
246.6233958821846954
 51
268.9726468655057943
  0
ARC
  5
1E206
  8
0
 10
4527.4481620354526967
 20
-39.369169375410408
 30
0.0
 40
0.2282844254802487
 50
268.9726468655057943
 51
302.4620057771131769
  0
ARC
  5
1E207
  8
0
 10
4527.4394741146188608
 20
-39.337547678063622
 30
0.0
 40
0.2598072994007109
 50
300.3350998548170878
 51
318.4786379129114948
  0
ARC
  5
1E208
  8
0
 10
4527.5563355450422023
 20
-39.4305484188363522
 30
0.0
 40
0.0304916581900528
 50
115.6287550138335973
 51
180.7572713114091982
  0
ARC
  5
1E209
  8
0
 10
4527.578487615164704
 20
-39.4767238703663281
 30
0.0
 40
0.0817057825580419
 50
104.626219652207098
 51
115.6287550138335973
  0
ARC
  5
1E20A
  8
0
 10
4527.5668367018997742
 20
-39.4320790903161935
 30
0.0
 40
0.0355657764285408
 50
63.4064068550637217
 51
104.626219652206899
  0
ARC
  5
1E20B
  8
0
 10
4527.5515937977652356
 20
-39.4625269700104297
 30
0.0
 40
0.0696160261249069
 50
50.4887900351373418
 51
63.4064068550635369
  0
ARC
  5
1E20C
  8
0
 10
4527.5780160725225869
 20
-39.4304869616828597
 30
0.0
 40
0.0280865337483275
 50
355.0290726623728119
 51
50.4887900351370789
  0
ARC
  5
1E20D
  8
0
 10
4527.5619392165672252
 20
-40.4462227405807013
 30
0.0
 40
0.0381901479628595
 50
103.8771172633250046
 51
194.5196414027394098
  0
ARC
  5
1E20E
  8
0
 10
4527.5688802554568611
 20
-40.4557930282827911
 30
0.0
 40
0.0493462766908073
 50
59.9516968322948571
 51
109.0429864104941942
  0
ARC
  5
1E20F
  8
0
 10
4527.5599960098315933
 20
-40.4440713621795993
 30
0.0
 40
0.0369378836178402
 50
198.5090611961111904
 51
270.9039438545862026
  0
ARC
  5
1E210
  8
0
 10
4527.5628600234440455
 20
-40.4286610239530688
 30
0.0
 40
0.0523933133876448
 50
267.5044746776130182
 51
304.4240936096190921
  0
ARC
  5
1E211
  8
0
 10
4527.5789303123037826
 20
-40.4411324271234989
 30
0.0
 40
0.031652803919396
 50
336.6946075758269217
 51
62.4112703405443909
  0
ARC
  5
1E212
  8
0
 10
4527.5645915868935845
 20
-40.4324043393714732
 30
0.0
 40
0.0483315605492492
 50
305.2395175489699
 51
333.9158381405649152
  0
ARC
  5
1E213
  8
0
 10
4527.55542053573663
 20
-40.4154573182537931
 30
0.0
 40
0.1457993580988366
 50
268.5950724248145889
 51
341.9354006885249078
  0
ARC
  5
1E214
  8
0
 10
4527.6033560769492397
 20
-40.4393752360781775
 30
0.0
 40
0.0931434657006346
 50
346.7851639418735772
 51
29.3575466154685216
  0
ARC
  5
1E215
  8
0
 10
4527.5700921685129288
 20
-40.4586832224301673
 30
0.0
 40
0.1316024593336001
 50
29.5841584391978785
 51
72.8079178388227746
  0
ARC
  5
1E216
  8
0
 10
4527.5595760263759075
 20
-40.4773379929705968
 30
0.0
 40
0.1525993627684014
 50
71.1059196236466704
 51
89.9643155342499483
  0
ARC
  5
1E217
  8
0
 10
4527.560244762829825
 20
-40.4777243197110295
 30
0.0
 40
0.1529867355878063
 50
90.2148580198894052
 51
116.9282089800234985
  0
ARC
  5
1E218
  8
0
 10
4527.5373961358600354
 20
-40.444027477371101
 30
0.0
 40
0.1127118752167233
 50
114.3292800328318037
 51
188.087358618103508
  0
ARC
  5
1E219
  8
0
 10
4527.5617127471341519
 20
-40.4198856450716022
 30
0.0
 40
0.1416712198069037
 50
196.3994921829007865
 51
266.0063009803640171
  0
ARC
  5
1E21A
  8
0
 10
4527.5882463107136573
 20
-40.5033628013755234
 30
0.0
 40
0.3325428001097596
 50
30.6897217069414197
 51
118.8129831061797006
  0
ARC
  5
1E21B
  8
0
 10
4527.5684937345249637
 20
-40.4521206349816183
 30
0.0
 40
0.3278773993433996
 50
279.5055954437170271
 51
21.1841411602104692
  0
ARC
  5
1E21C
  8
0
 10
4527.5452312122069998
 20
-40.472534586849811
 30
0.0
 40
0.3126945962183508
 50
201.7514721928627068
 51
284.3329470853611269
  0
ARC
  5
1E21D
  8
0
 10
4527.5534072153377565
 20
-40.4977420344154808
 30
0.0
 40
0.3120693549830185
 50
113.6990106177164961
 51
196.8908044962965107
  0
ARC
  5
1E21E
  8
0
 10
4527.5729245968641408
 20
-40.4113698093146283
 30
0.0
 40
0.1549120712348701
 50
134.5891081553428137
 51
198.2505592094497047
  0
ARC
  5
1E21F
  8
0
 10
4527.6454596142930313
 20
-40.4613909143216191
 30
0.0
 40
0.2420218379608768
 50
105.4021558558948044
 51
138.5080003884681048
  0
ARC
  5
1E220
  8
0
 10
4527.6570656648063959
 20
-40.4998200571654507
 30
0.0
 40
0.2821550041069095
 50
74.9135813818165843
 51
105.6017154474804016
  0
ARC
  5
1E221
  8
0
 10
4527.6667309613685575
 20
-40.4639650856413766
 30
0.0
 40
0.2450201560440602
 50
32.1345105859168925
 51
74.9135813818165843
  0
ARC
  5
1E222
  8
0
 10
4527.4381887402469147
 20
-40.5315855037379364
 30
0.0
 40
0.1908880565774849
 50
215.1362845266768886
 51
261.5072686199383156
  0
ARC
  5
1E223
  8
0
 10
4527.4425829502433771
 20
-40.5021576208308574
 30
0.0
 40
0.2206422054288875
 50
261.5072686199383156
 51
301.2326674158139213
  0
ARC
  5
1E224
  8
0
 10
4527.388378640504925
 20
-40.4127707242131891
 30
0.0
 40
0.3251798755818936
 50
301.2326674158139213
 51
330.1209937565004111
  0
ARC
  5
1E225
  8
0
 10
4527.4799735403912564
 20
-40.466021877040383
 30
0.0
 40
0.2192323725372113
 50
330.262941312261205
 51
10.4395739799483405
  0
ARC
  5
1E226
  8
0
 10
4528.3740965791757844
 20
-41.1711688036064487
 30
0.0
 40
0.0429281718618857
 50
109.9576500946128021
 51
188.4391085714447058
  0
ARC
  5
1E227
  8
0
 10
4528.373650149869718
 20
-41.1752185818770329
 30
0.0
 40
0.0466172016640673
 50
56.7296935661512833
 51
107.7424237183932973
  0
ARC
  5
1E228
  8
0
 10
4528.3706182677078687
 20
-41.1712611704572069
 30
0.0
 40
0.0394761913978266
 50
189.0474081361290928
 51
259.0034893130347768
  0
ARC
  5
1E229
  8
0
 10
4528.3724687541662206
 20
-41.1657044885721888
 30
0.0
 40
0.0452901445696876
 50
258.0463127953343019
 51
305.1770846227080938
  0
ARC
  5
1E22A
  8
0
 10
4528.3767823148727985
 20
-41.1689320179486273
 30
0.0
 40
0.0396514713142005
 50
350.4143397391309804
 51
55.530317457956528
  0
ARC
  5
1E22B
  8
0
 10
4528.3740810522749598
 20
-41.1680190380825621
 30
0.0
 40
0.0424694379135134
 50
305.1980926653156985
 51
349.806673353516203
  0
ARC
  5
1E22C
  8
0
 10
4528.3499588243103062
 20
-41.1391947955701127
 30
0.0
 40
0.1639966882588924
 50
271.5361236504671751
 51
339.8407174726950188
  0
ARC
  5
1E22D
  8
0
 10
4528.3773837520029701
 20
-41.1728101619499327
 30
0.0
 40
0.1285812165535959
 50
349.7396725293637019
 51
23.2580751638506698
  0
ARC
  5
1E22E
  8
0
 10
4528.3755527738348974
 20
-41.1794645523153875
 30
0.0
 40
0.133000330906709
 50
25.5809598872946289
 51
67.1025602936030054
  0
ARC
  5
1E22F
  8
0
 10
4528.3821584104398426
 20
-41.1892253964939883
 30
0.0
 40
0.1397717438539218
 50
71.1571836397312865
 51
95.176856541945611
  0
ARC
  5
1E230
  8
0
 10
4528.3793407387165644
 20
-41.1980105212886301
 30
0.0
 40
0.1483104650560473
 50
93.7863957497686442
 51
124.4438256221074965
  0
ARC
  5
1E231
  8
0
 10
4528.3560408548510168
 20
-41.1806743849115122
 30
0.0
 40
0.1212011359138616
 50
119.9910732823539945
 51
186.7543347536243914
  0
ARC
  5
1E232
  8
0
 10
4528.353815395464153
 20
-41.1845436588380309
 30
0.0
 40
0.118590116428042
 50
185.0240986799813925
 51
270.260762614345424
  0
ARC
  5
1E233
  8
0
 10
4528.3780291460343506
 20
-41.2230796362681389
 30
0.0
 40
0.3331335561857521
 50
25.8218970190392696
 51
116.8539900774812992
  0
ARC
  5
1E234
  8
0
 10
4528.3862046109516086
 20
-41.1983866263134217
 30
0.0
 40
0.3155712862415063
 50
278.4389419288733052
 51
22.4307994694591386
  0
ARC
  5
1E235
  8
0
 10
4528.3551069084769551
 20
-41.2075796446984128
 30
0.0
 40
0.3126945962183508
 50
201.7514721928627068
 51
284.3329470853611269
  0
ARC
  5
1E236
  8
0
 10
4528.357988972142266
 20
-41.2114597071130575
 30
0.0
 40
0.3139683388178576
 50
114.5485101855636003
 51
200.8988809676006895
  0
ARC
  5
1E237
  8
0
 10
4528.3841620208950189
 20
-41.1049209742456014
 30
0.0
 40
0.2032708883951891
 50
173.2162772258378141
 51
244.264537638395808
  0
ARC
  5
1E238
  8
0
 10
4528.3771282828929543
 20
-41.1040842783345184
 30
0.0
 40
0.1961875607648802
 50
124.7637686648940019
 51
173.2162772258378141
  0
ARC
  5
1E239
  8
0
 10
4528.4133334431371622
 20
-41.1562470313992392
 30
0.0
 40
0.2596837530566574
 50
77.6492719730252219
 51
124.7637686648937034
  0
ARC
  5
1E23A
  8
0
 10
4528.3322894550783531
 20
-41.3027330266061128
 30
0.0
 40
0.2148437374971225
 50
256.4388279017592822
 51
337.9104935654610244
  0
ARC
  5
1E23B
  8
0
 10
4528.2529002535338805
 20
-41.2705133507859685
 30
0.0
 40
0.3005219309397082
 50
337.9104935654610244
 51
7.1325266047836102
  0
ARC
  5
1E23C
  8
0
 10
4528.3301289106193508
 20
-41.2582218259957969
 30
0.0
 40
0.2223800101387558
 50
6.4607383471810422
 51
51.8918466656429374
  0
ARC
  5
1E23D
  8
0
 10
4528.4585028207211508
 20
-39.4648951577839426
 30
0.0
 40
0.0394215427662795
 50
107.0792981737288017
 51
179.8251092323949933
  0
ARC
  5
1E23E
  8
0
 10
4528.4630947236792053
 20
-39.4718084919021379
 30
0.0
 40
0.0474373027205715
 50
56.8988223141373766
 51
109.9297057842409941
  0
ARC
  5
1E23F
  8
0
 10
4528.457719930888743
 20
-39.4610985492116129
 30
0.0
 40
0.0388129659525608
 50
185.4350760987207138
 51
266.8924661497713942
  0
ARC
  5
1E240
  8
0
 10
4528.4611520425141862
 20
-39.4515503886546384
 30
0.0
 40
0.0486202712589162
 50
263.4618124080624284
 51
302.1523126101820935
  0
ARC
  5
1E241
  8
0
 10
4528.4687984692573082
 20
-39.4630187675448525
 30
0.0
 40
0.0369591665687902
 50
343.3674667992892182
 51
56.8644585532879603
  0
ARC
  5
1E242
  8
0
 10
4528.4608888416241825
 20
-39.451934987607423
 30
0.0
 40
0.0484366105432872
 50
302.6580195860422009
 51
333.4333847413413991
  0
ARC
  5
1E243
  8
0
 10
4528.5064570007998555
 20
-39.5467023334399528
 30
0.0
 40
0.2255203645132329
 50
35.0877980323779184
 51
113.1432176633145019
  0
ARC
  5
1E244
  8
0
 10
4528.5071357581891789
 20
-39.5500530967260602
 30
0.0
 40
0.2269126949609909
 50
296.0559547673889256
 51
35.8786594067222921
  0
ARC
  5
1E245
  8
0
 10
4528.5102028165820229
 20
-39.6489411525646531
 30
0.0
 40
0.4539469410318771
 50
112.3989094659313963
 51
121.8943677850478053
  0
ARC
  5
1E246
  8
0
 10
4528.4679181063256692
 20
-39.4537121402896673
 30
0.0
 40
0.1211240014054199
 50
302.3635599156987155
 51
3.1476568055315011
  0
ARC
  5
1E247
  8
0
 10
4528.4806351034485488
 20
-39.4556407222541878
 30
0.0
 40
0.108563801757389
 50
4.532613400370832
 51
33.7250339008011508
  0
ARC
  5
1E248
  8
0
 10
4528.4656528785808405
 20
-39.4658482054654627
 30
0.0
 40
0.1266920832940203
 50
33.802563594961903
 51
72.9100752945910244
  0
ARC
  5
1E249
  8
0
 10
4528.452300864971221
 20
-39.4889139871857893
 30
0.0
 40
0.1527804107948417
 50
70.6653567810243004
 51
87.1710639225412933
  0
ARC
  5
1E24A
  8
0
 10
4528.4477338066808443
 20
-39.4620764988274715
 30
0.0
 40
0.1263382199069525
 50
84.5007152959410348
 51
122.8913953755823059
  0
ARC
  5
1E24B
  8
0
 10
4528.446075882416153
 20
-39.4530116202243093
 30
0.0
 40
0.1178789770042988
 50
124.607675515812403
 51
175.618353571100613
  0
ARC
  5
1E24C
  8
0
 10
4528.4407776152957013
 20
-39.4540057661370511
 30
0.0
 40
0.1126807958023286
 50
174.9084859927432092
 51
246.726914401966809
  0
ARC
  5
1E24D
  8
0
 10
4528.4674250862180998
 20
-39.5485938398006169
 30
0.0
 40
0.3448724283656644
 50
30.2301843781796897
 51
113.9959578732133991
  0
ARC
  5
1E24E
  8
0
 10
4528.5026871149557337
 20
-39.4876705457220112
 30
0.0
 40
0.2858688157151181
 50
291.3597189879340021
 51
23.2208723022377796
  0
ARC
  5
1E24F
  8
0
 10
4528.4566748313573044
 20
-39.449072340372588
 30
0.0
 40
0.3397966232598538
 50
204.1212767481343064
 51
296.2206424773157778
  0
ARC
  5
1E250
  8
0
 10
4528.3955483577610721
 20
-39.5024311201263032
 30
0.0
 40
0.2632721059232819
 50
139.6660565153451898
 51
198.9522910955608097
  0
ARC
  5
1E251
  8
0
 10
4528.1273945521579662
 20
-39.2315463801579511
 30
0.0
 40
0.1034374816124666
 50
190.9688032407161131
 51
236.9028078374848008
  0
ARC
  5
1E252
  8
0
 10
4528.1458165318963438
 20
-39.2032840928948829
 30
0.0
 40
0.1371736079287568
 50
236.9028078374848008
 51
267.018932834320708
  0
ARC
  5
1E253
  8
0
 10
4528.1461996178722984
 20
-39.1959278681440182
 30
0.0
 40
0.1445398008022776
 50
267.018932834320708
 51
309.1281305670649999
  0
ARC
  5
1E254
  8
0
 10
4528.1670055503282128
 20
-39.2215038956863467
 30
0.0
 40
0.1115698142961245
 50
309.1281305670643746
 51
341.8682885128583848
  0
ARC
  5
1E255
  8
0
 10
4528.182735999012948
 20
-39.2266550370237894
 30
0.0
 40
0.0950174346200645
 50
341.8682885128595217
 51
25.5449577541237609
  0
ARC
  5
1E256
  8
0
 10
4528.1690567693676712
 20
-39.2331928753070684
 30
0.0
 40
0.1101787225970327
 50
25.5449577541237609
 51
77.994293504387187
  0
ARC
  5
1E257
  8
0
 10
4528.1580060821179359
 20
-39.2851568220317588
 30
0.0
 40
0.1633046997448532
 50
77.994293504387187
 51
116.3600899365802945
  0
ARC
  5
1E258
  8
0
 10
4528.1343603262421311
 20
-39.237439327044271
 30
0.0
 40
0.1100498304947638
 50
116.3600899365801951
 51
159.0024014437703102
  0
ARC
  5
1E259
  8
0
 10
4528.1217917093508731
 20
-39.2347080571516997
 30
0.0
 40
0.0973567410704344
 50
157.8524881539127023
 51
189.7694199498772036
  0
ARC
  5
1E25A
  8
0
 10
4528.1566150170992842
 20
-39.2586624673249105
 30
0.0
 40
0.1306084632626869
 50
146.6396654154274017
 51
177.3826365463355899
  0
ARC
  5
1E25B
  8
0
 10
4528.1384480939450441
 20
-39.2467016253411316
 30
0.0
 40
0.1088576279254593
 50
105.8349946370634029
 51
146.639665415427686
  0
ARC
  5
1E25C
  8
0
 10
4528.150780456814573
 20
-39.2901818907733968
 30
0.0
 40
0.1540529889265283
 50
71.2741895751295829
 51
105.8349946370634029
  0
ARC
  5
1E25D
  8
0
 10
4528.1663846819628816
 20
-39.2441494862526525
 30
0.0
 40
0.1054477000330263
 50
35.4889235300883428
 51
71.2741895751295829
  0
ARC
  5
1E25E
  8
0
 10
4528.1513414989176454
 20
-39.2548752972471533
 30
0.0
 40
0.1239230992879398
 50
14.0598182135198098
 51
35.488923530087682
  0
ARC
  5
1E25F
  8
0
 10
4528.0667117845196117
 20
-39.2760697274800492
 30
0.0
 40
0.2111663937693279
 50
8.2386092939934823
 51
14.0598182135194207
  0
LINE
  5
1E260
  8
0
 10
4528.4376702020508674
 20
-39.4943318863832715
 30
0.0
 11
4528.4978760427120505
 21
-39.4402048525956417
 31
0.0
  0
LINE
  5
1E261
  8
0
 10
4528.4807983179316579
 20
-39.4811524329321486
 30
0.0
 11
4528.5055334390290227
 21
-39.4589540425638816
 31
0.0
  0
ARC
  5
1E262
  8
0
 10
4528.4902077228025519
 20
-39.4920976427341088
 30
0.0
 40
0.014433797754251
 50
130.6850707884088933
 51
202.2658858290292017
  0
ARC
  5
1E263
  8
0
 10
4528.46299218560398
 20
-39.4187365010355393
 30
0.0
 40
0.1539936090953736
 50
244.3183296963628095
 51
296.9376788720340983
  0
ARC
  5
1E264
  8
0
 10
4528.3749849332098165
 20
-39.3122489366484871
 30
0.0
 40
0.2903729389680221
 50
248.2419709965660957
 51
302.9109148081765852
  0
ARC
  5
1E265
  8
0
 10
4528.3276882104773904
 20
-39.4307508574721481
 30
0.0
 40
0.1627810692420517
 50
187.9516368325739961
 51
248.2419709965662094
  0
ARC
  5
1E266
  8
0
 10
4528.351994912459304
 20
-39.4273556932623706
 30
0.0
 40
0.1873237443461137
 50
154.9584104887096032
 51
187.9516368325735982
  0
ARC
  5
1E267
  8
0
 10
4528.4141037256331401
 20
-40.3683278251433606
 30
0.0
 40
0.2820385831465862
 50
149.7257689706628128
 51
218.7434795390990985
  0
ARC
  5
1E268
  8
0
 10
4528.4570318705145837
 20
-40.3933871145868721
 30
0.0
 40
0.3317456612192371
 50
102.1328153907505936
 51
149.7257689706628128
  0
ARC
  5
1E269
  8
0
 10
4528.465890572074386
 20
-40.4345941040820165
 30
0.0
 40
0.3738941199877814
 50
65.3837509663505614
 51
102.1328153907505936
  0
ARC
  5
1E26A
  8
0
 10
4528.4994009965957957
 20
-40.3614557967318603
 30
0.0
 40
0.2934443806863162
 50
16.7317165421782086
 51
65.3837509663503909
  0
ARC
  5
1E26B
  8
0
 10
4528.5094380254467978
 20
-40.3584384865858397
 30
0.0
 40
0.2829636312532329
 50
320.5672239623867199
 51
16.7317165421778213
  0
ARC
  5
1E26C
  8
0
 10
4528.4564648760742784
 20
-40.3148750779680469
 30
0.0
 40
0.3515487981989815
 50
283.9618097032516175
 51
320.5672239623867199
  0
ARC
  5
1E26D
  8
0
 10
4528.456256083966764
 20
-40.3140352742914487
 30
0.0
 40
0.3524141676916947
 50
238.1385248813955968
 51
283.9618097032516175
  0
ARC
  5
1E26E
  8
0
 10
4528.1466524424304225
 20
-40.6642056771628688
 30
0.0
 40
0.1224270410831836
 50
120.0363494664754995
 51
175.3606665722670925
  0
ARC
  5
1E26F
  8
0
 10
4528.1554958657879979
 20
-40.6795005186579104
 30
0.0
 40
0.140094477599078
 50
69.8477058791025058
 51
120.0363494664753006
  0
ARC
  5
1E270
  8
0
 10
4528.1648421121990395
 20
-40.6540327490903621
 30
0.0
 40
0.1129659020979255
 50
5.9993141564823436
 51
69.8477058791025058
  0
ARC
  5
1E271
  8
0
 10
4528.1682901719277652
 20
-40.6536703851393568
 30
0.0
 40
0.1094988538538232
 50
327.7860234011570242
 51
5.9993141564815353
  0
ARC
  5
1E272
  8
0
 10
4528.147003220348779
 20
-40.6402580232660426
 30
0.0
 40
0.1346588570047606
 50
277.4366955881055787
 51
327.7860234011570242
  0
ARC
  5
1E273
  8
0
 10
4528.1473339725844198
 20
-40.6427919670402034
 30
0.0
 40
0.1321034180812858
 50
229.4850099783168957
 51
277.4366955881055787
  0
ARC
  5
1E274
  8
0
 10
4528.130497968398231
 20
-40.6624939553246492
 30
0.0
 40
0.1061877977085615
 50
175.5762189899429018
 51
229.4850099783168957
  0
ARC
  5
1E275
  8
0
 10
4528.1470899781288608
 20
-40.6825394527071111
 30
0.0
 40
0.1213855712715956
 50
129.3289250852263876
 51
176.2907178837272113
  0
ARC
  5
1E276
  8
0
 10
4528.1483473788093761
 20
-40.6840741147905689
 30
0.0
 40
0.1233695682934393
 50
84.6862091453604791
 51
129.3289250852263876
  0
ARC
  5
1E277
  8
0
 10
4528.1467296954797348
 20
-40.7014666950488504
 30
0.0
 40
0.1408372168872519
 50
43.9064622575796832
 51
84.6862091453604791
  0
ARC
  5
1E278
  8
0
 10
4528.1887819361500078
 20
-40.660989783374589
 30
0.0
 40
0.0824696631945612
 50
16.8632304422532684
 51
43.9064622575790935
  0
ARC
  5
1E279
  8
0
 10
4528.1476917034879079
 20
-40.6734451523985499
 30
0.0
 40
0.1254061679156487
 50
353.8560636655765279
 51
16.8632304422528811
  0
ARC
  5
1E27A
  8
0
 10
4528.4564877246666583
 20
-40.3299488436996469
 30
0.0
 40
0.0374213662317973
 50
138.6524292413689921
 51
203.0041963523563879
  0
ARC
  5
1E27B
  8
0
 10
4528.4633180385271771
 20
-40.3359594762245521
 30
0.0
 40
0.0465197666836413
 50
99.6121983212374431
 51
138.652429241368111
  0
ARC
  5
1E27C
  8
0
 10
4528.4631113338800787
 20
-40.3347389453140721
 30
0.0
 40
0.0452818561398633
 50
49.2169086011556871
 51
99.6121983212374431
  0
ARC
  5
1E27D
  8
0
 10
4528.4689113510803509
 20
-40.3280155504122106
 30
0.0
 40
0.0364024283134428
 50
1.983086820357272
 51
49.2169086011554313
  0
ARC
  5
1E27E
  8
0
 10
4528.4667317846233345
 20
-40.3280910183844128
 30
0.0
 40
0.0385833009271694
 50
310.5764922510286965
 51
1.9830868203580849
  0
ARC
  5
1E27F
  8
0
 10
4528.4610487654099416
 20
-40.3214550178335784
 30
0.0
 40
0.0473201888562214
 50
253.1419900832665917
 51
310.5764922510289239
  0
ARC
  5
1E280
  8
0
 10
4528.4591349345928393
 20
-40.3277708139672271
 30
0.0
 40
0.0407207927325865
 50
204.3695747163122007
 51
253.1419900832665917
  0
ARC
  5
1E281
  8
0
 10
4528.4910177088313503
 20
-40.262855938586803
 30
0.0
 40
0.2022284763496103
 50
182.6294861149237931
 51
227.4457151393673087
  0
ARC
  5
1E282
  8
0
 10
4528.5039155349077191
 20
-40.2980980143092395
 30
0.0
 40
0.2164761183706873
 50
135.4553003929761132
 51
173.1112861504826981
  0
ARC
  5
1E283
  8
0
 10
4528.4994561142366365
 20
-40.293708909843339
 30
0.0
 40
0.2102190686879512
 50
99.6056937231725215
 51
135.4553003929758006
  0
ARC
  5
1E284
  8
0
 10
4528.5173592358742098
 20
-40.3994945889856325
 30
0.0
 40
0.3175090107884737
 50
63.3438303949052894
 51
99.6056937231725215
  0
ARC
  5
1E285
  8
0
 10
4528.4460380320106196
 20
-40.3161758886026433
 30
0.0
 40
0.1533260188511281
 50
301.9229327749844174
 51
335.0964379614367203
  0
ARC
  5
1E286
  8
0
 10
4528.4693922663373087
 20
-40.3275820876833819
 30
0.0
 40
0.1273412769002648
 50
335.3265102970235034
 51
32.2898485182830584
  0
ARC
  5
1E287
  8
0
 10
4528.47205159189798
 20
-40.3259015912474723
 30
0.0
 40
0.1241954732330934
 50
32.2898485182830584
 51
99.9902858323446679
  0
ARC
  5
1E288
  8
0
 10
4528.4833071858711264
 20
-40.3897985841016478
 30
0.0
 40
0.1890762415044718
 50
99.9902858323446679
 51
139.0471841273293023
  0
ARC
  5
1E289
  8
0
 10
4528.4113635932353645
 20
-40.3273629160933069
 30
0.0
 40
0.0938182068775824
 50
139.0471841273287055
 51
203.1168425246407025
  0
ARC
  5
1E28A
  8
0
 10
4528.5014708009866808
 20
-40.2888976243548882
 30
0.0
 40
0.1917921195149206
 50
203.1168425246407025
 51
222.9020839142388866
  0
ARC
  5
1E28B
  8
0
 10
4528.4656433636582733
 20
-40.2992725239078666
 30
0.0
 40
0.1593720354227877
 50
228.9493409215677957
 51
292.6873265439849092
  0
ARC
  5
1E28C
  8
0
 10
4528.443950042549659
 20
-40.4008247861139722
 30
0.0
 40
0.1901183795277554
 50
349.6601054110777227
 51
42.4739409036481987
  0
ARC
  5
1E28D
  8
0
 10
4528.3851568183472409
 20
-40.3915148800676533
 30
0.0
 40
0.2496317206050739
 50
299.2438295429216737
 51
349.9800407879928912
  0
ARC
  5
1E28E
  8
0
 10
4528.3780224325300878
 20
-40.3787722987580224
 30
0.0
 40
0.2642355844580209
 50
254.2045047614876125
 51
299.2438295429216737
  0
LINE
  5
1E28F
  8
0
 10
4529.5466694815322626
 20
-34.2789500614127931
 30
0.0
 11
4529.5466694815322626
 21
-33.6672228802974232
 31
0.0
  0
ARC
  5
1E290
  8
0
 10
4528.9631011058127115
 20
-39.9399456394436925
 30
0.0
 40
2.8040920460880132
 50
269.6159836032654766
 51
303.9745900697864158
  0
ARC
  5
1E291
  8
0
 10
4529.0928252859330314
 20
-40.1222470508856475
 30
0.0
 40
2.5804252968791519
 50
303.8479436336438084
 51
340.6323956267212907
  0
ARC
  5
1E292
  8
0
 10
4529.25152782785608
 20
-40.2487279958941002
 30
0.0
 40
2.3896899320371099
 50
342.2316568452454817
 51
359.3544000524070725
  0
ARC
  5
1E293
  8
0
 10
4528.9007371593434073
 20
-40.3269912874611833
 30
0.0
 40
2.740809731816062
 50
1.0732511763741071
 51
12.1287975181609902
  0
ARC
  5
1E294
  8
0
 10
4529.2613862329835683
 20
-40.2506225748752868
 30
0.0
 40
2.3721655864299671
 50
12.1556555434088107
 51
50.7006041778598089
  0
ARC
  5
1E295
  8
0
 10
4542.5260151997399589
 20
-24.0440641748797113
 30
0.0
 40
18.5706832359767198
 50
227.2044401422664066
 51
230.7006041778597876
  0
ARC
  5
1E296
  8
0
 10
4530.8195555430138484
 20
-36.8118343777042512
 30
0.0
 40
1.2515676111062499
 50
185.9043270501537961
 51
223.3455855455632104
  0
ARC
  5
1E297
  8
0
 10
4532.7327151579647762
 20
-36.7157018769046175
 30
0.0
 40
3.1660840695933361
 50
166.704093432452197
 51
184.0729927184989094
  0
ARC
  5
1E298
  8
0
 10
4526.5689727376911833
 20
-35.3085536296119002
 30
0.0
 40
3.15642401490032
 50
347.5774020315378152
 51
359.6263619471499169
  0
ARC
  5
1E299
  8
0
 10
4526.0005351211693778
 20
-35.338602960076507
 30
0.0
 40
3.7248065438163209
 50
0.1456045102571903
 51
6.4437362188527452
  0
ARC
  5
1E29A
  8
0
 10
4509.7329279164869149
 20
-37.428175461661823
 30
0.0
 40
20.1257127644452005
 50
7.1574685310542607
 51
8.4447639412809963
  0
ARC
  5
1E29B
  8
0
 10
4529.222112506619851
 20
-34.5556296763048323
 30
0.0
 40
0.4264842778587229
 50
11.2267880511831901
 51
55.2607831083946195
  0
ARC
  5
1E29C
  8
0
 10
4528.9880567063955823
 20
-34.8722618764380883
 30
0.0
 40
0.8201393943264816
 50
54.4289904241142395
 51
74.5677396331033151
  0
ARC
  5
1E29D
  8
0
 10
4528.924881232494954
 20
-35.1571995283831527
 30
0.0
 40
1.1117149268828319
 50
75.3369120414371451
 51
88.9987677637497541
  0
LINE
  5
1E29E
  8
0
 10
4529.6750983445581369
 20
-34.7163213183298183
 30
0.0
 11
4529.6888457264321914
 21
-34.7163201586321506
 31
0.0
  0
LINE
  5
1E29F
  8
0
 10
4529.7285459468321278
 20
-34.6759187913321512
 30
0.0
 11
4529.7479585283772394
 21
-32.4525415065321496
 31
0.0
  0
ARC
  5
1E2A0
  8
0
 10
4529.688688515209833
 20
-34.6764593712987192
 30
0.0
 40
0.0398610973533113
 50
270.225973780684626
 51
0.7770458446025093
  0
ARC
  5
1E2A1
  8
0
 10
4528.9461116470511115
 20
-34.5255633496928169
 30
0.0
 40
0.5474515255037068
 50
47.9200730919573274
 51
90.188848072623756
  0
ARC
  5
1E2A2
  8
0
 10
4528.9368202975747408
 20
-34.4895576693537791
 30
0.0
 40
0.573092834092889
 50
33.7837279756369497
 51
89.2514610021679147
  0
LINE
  5
1E2A3
  8
0
 10
4529.5545434974319505
 20
-33.7241950498321472
 30
0.0
 11
4529.5545434975556418
 21
-34.2884621716817506
 31
0.0
  0
ARC
  5
1E2A4
  8
0
 10
4529.534755045354359
 20
-33.6831167250347718
 30
0.0
 40
0.019863737998685
 50
53.1438253680799804
 51
89.6961634222158892
  0
ARC
  5
1E2A5
  8
0
 10
4529.5427324738329844
 20
-33.7241950498321472
 30
0.0
 40
0.0118110236000053
 50
0.0000000125292481
 51
70.5287802219547331
  0
LINE
  5
1E2A6
  8
0
 10
4529.0624175133316385
 20
-32.5627777270321488
 30
0.0
 11
4529.0624175133316385
 21
-32.7596281207321525
 31
0.0
  0
LINE
  5
1E2A7
  8
0
 10
4529.0427324739312098
 20
-32.5785257585321517
 30
0.0
 11
4529.0427324739312098
 21
-32.5861185622321514
 31
0.0
  0
LINE
  5
1E2A8
  8
0
 10
4529.0427324739312098
 20
-32.6297068609321528
 30
0.0
 11
4529.0427324739312098
 21
-32.7388124235321527
 31
0.0
  0
ARC
  5
1E2A9
  8
0
 10
4528.9503208142023141
 20
-39.7380483876824684
 30
0.0
 40
2.5285373513519169
 50
269.8637343379500066
 51
277.3642474404895779
  0
ARC
  5
1E2AA
  8
0
 10
4528.9111878378207621
 20
-39.4352619933763293
 30
0.0
 40
2.833842101425263
 50
277.3642474404895779
 51
283.2081786149267941
  0
ARC
  5
1E2AB
  8
0
 10
4528.9982302245862229
 20
-39.8061309707734097
 30
0.0
 40
2.452895680666165
 50
283.2081786149267941
 51
296.9255382249623949
  0
ARC
  5
1E2AC
  8
0
 10
4529.021690275306355
 20
-39.8523222176931
 30
0.0
 40
2.4010882943993259
 50
296.9255382249623949
 51
320.5941457019692962
  0
ARC
  5
1E2AD
  8
0
 10
4529.3682032297083424
 20
-40.1370104664986513
 30
0.0
 40
1.952625780273465
 50
320.5941457019692962
 51
345.011684237472025
  0
ARC
  5
1E2AE
  8
0
 10
4529.2839831665260135
 20
-40.1144285263110731
 30
0.0
 40
2.0398207460320941
 50
345.0107712322663929
 51
359.4528399317002254
  0
ARC
  5
1E2AF
  8
0
 10
4529.36104725046971
 20
-40.1342163502365565
 30
0.0
 40
1.9626636736139571
 50
0.0090016963170859
 51
10.7396830143236492
  0
ARC
  5
1E2B0
  8
0
 10
4529.2566902577809742
 20
-40.1745220669214973
 30
0.0
 40
2.0728015733602971
 50
11.29675778414747
 51
45.3491895279073489
  0
ARC
  5
1E2B1
  8
0
 10
4529.0190396341258747
 20
-40.4150872160244319
 30
0.0
 40
2.4109574691933902
 50
45.3491895279073489
 51
70.7503598314508793
  0
ARC
  5
1E2B2
  8
0
 10
4528.9360125993243855
 20
-40.6528449211228988
 30
0.0
 40
2.6627951447737979
 50
70.7503597810019329
 51
89.8215226571158638
  0
ARC
  5
1E2B3
  8
0
 10
4528.9954984802234321
 20
-40.2698836212607389
 30
0.0
 40
2.004787284591603
 50
286.2119223407033246
 51
314.2733143971580034
  0
ARC
  5
1E2B4
  8
0
 10
4529.1835959386098693
 20
-40.4628139355162304
 30
0.0
 40
1.7353382912551829
 50
314.2733143971580034
 51
346.4219269841403843
  0
ARC
  5
1E2B5
  8
0
 10
4529.2815304591831591
 20
-40.4864671202802811
 30
0.0
 40
1.634587889422537
 50
346.4219269841403843
 51
357.0380895532981071
  0
ARC
  5
1E2B6
  8
0
 10
4525.5938936317015759
 20
-40.0573986243222322
 30
0.0
 40
5.3211601284086338
 50
354.773464729034572
 51
359.6605886651585138
  0
ARC
  5
1E2B7
  8
0
 10
4529.3472901329951128
 20
-40.2655681025151466
 30
0.0
 40
1.5701864746553089
 50
336.4663790278431748
 51
349.8556416628999273
  0
ARC
  5
1E2B8
  8
0
 10
4529.3802954972179577
 20
-40.2799422782793783
 30
0.0
 40
1.5341868774857721
 50
320.3837307369408904
 51
336.4663790278431748
  0
ARC
  5
1E2B9
  8
0
 10
4529.3216278250283722
 20
-40.2313800925922891
 30
0.0
 40
1.610345801051958
 50
298.2436909643993204
 51
320.3837307369408904
  0
ARC
  5
1E2BA
  8
0
 10
4529.2517241107716472
 20
-40.1012485884287386
 30
0.0
 40
1.7580642414808061
 50
291.1931802206901807
 51
298.2436909643993204
  0
ARC
  5
1E2BB
  8
0
 10
4529.0464324370750546
 20
-39.5717881444254118
 30
0.0
 40
2.325931332492186
 50
280.1159113355811883
 51
291.1931802206901807
  0
ARC
  5
1E2BC
  8
0
 10
4528.9453262351053127
 20
-39.0029389543364005
 30
0.0
 40
2.9036957745544418
 50
269.9798931450199007
 51
280.1084468915303773
  0
ARC
  5
1E2BD
  8
0
 10
4528.9367368120711035
 20
-40.3697018110800983
 30
0.0
 40
1.7983729900016661
 50
270.2411928911258201
 51
290.6304482540522827
  0
ARC
  5
1E2BE
  8
0
 10
4528.8259136874912656
 20
-40.075336741268849
 30
0.0
 40
2.112908455834313
 50
290.6304482540522827
 51
306.1972064348299796
  0
LINE
  5
1E2BF
  8
0
 10
4530.0836782047317683
 20
-41.7688044049321476
 30
0.0
 11
4530.0856565570402381
 21
-41.6489391550750909
 31
0.0
  0
ARC
  5
1E2C0
  8
0
 10
4530.0599878084167358
 20
-41.7585985322507227
 30
0.0
 40
0.0257952459720148
 50
302.1810346847918822
 51
336.6935205714407857
  0
LINE
  5
1E2C1
  8
0
 10
4530.0762500300315878
 20
-41.7627491412321419
 30
0.0
 11
4530.07731734734989
 21
-41.6534037626590177
 31
0.0
  0
ARC
  5
1E2C2
  8
0
 10
4530.112036731932676
 20
-41.6955750032260326
 30
0.0
 40
0.0301211906422767
 50
115.579779619454996
 51
153.3749680002920002
  0
ARC
  5
1E2C3
  8
0
 10
4529.3758732859587326
 20
-40.3012610117958019
 30
0.0
 40
1.5466232378994429
 50
297.8768206194591812
 51
324.7739007138281977
  0
ARC
  5
1E2C4
  8
0
 10
4529.4170026284682535
 20
-40.3303026385495613
 30
0.0
 40
1.496274068097865
 50
324.7739007138281977
 51
350.9416301795349113
  0
LINE
  5
1E2C5
  8
0
 10
4530.8946158564322104
 20
-40.5658769058321482
 30
0.0
 11
4530.8884910244551065
 21
-40.5658769058321482
 31
0.0
  0
LINE
  5
1E2C6
  8
0
 10
4530.8949208964313584
 20
-40.5709296563321473
 30
0.0
 11
4531.2080868052316873
 21
-40.5709296563321473
 31
0.0
  0
ARC
  5
1E2C7
  8
0
 10
4530.8860988079813978
 20
-40.5690971709119026
 30
0.0
 40
0.0170622448036271
 50
314.0387976586591208
 51
353.7493171102331075
  0
ARC
  5
1E2C8
  8
0
 10
4530.9173388325925771
 20
-40.5700593971975678
 30
0.0
 40
0.0224348214322096
 50
182.223092739125093
 51
210.2535998777630937
  0
ARC
  5
1E2C9
  8
0
 10
4530.986886710278668
 20
-40.562841997864858
 30
0.0
 40
0.0923207513837728
 50
181.8838532991917987
 51
185.025776481975214
  0
LINE
  5
1E2CA
  8
0
 10
4531.2080868052316873
 20
-40.5709296563321473
 30
0.0
 11
4531.2080868052316873
 21
-40.1430554996404609
 31
0.0
  0
LINE
  5
1E2CB
  8
0
 10
4530.9126570165735757
 20
-39.9803784752321434
 30
0.0
 11
4531.0468740113346939
 21
-39.9803784752321434
 31
0.0
  0
ARC
  5
1E2CC
  8
0
 10
4531.051918217021921
 20
-40.157771751901393
 30
0.0
 40
0.1565850901508558
 50
4.1799126038190009
 51
50.5601388931549707
  0
ARC
  5
1E2CD
  8
0
 10
4530.9547062548363101
 20
-40.2759518056946888
 30
0.0
 40
0.3096102211146304
 50
50.5601388931552265
 51
72.6811094949642467
  0
ARC
  5
1E2CE
  8
0
 10
4531.3655671186552354
 20
-40.2756540700293613
 30
0.0
 40
0.3346456648190863
 50
241.9275129541524905
 51
252.7491558132878993
  0
ARC
  5
1E2CF
  8
0
 10
4529.1637901697558846
 20
-40.071786717103187
 30
0.0
 40
1.751254040560928
 50
359.4394358865181971
 51
9.3169365169091503
  0
ARC
  5
1E2D0
  8
0
 10
4529.2881378479905834
 20
-40.0513639533501404
 30
0.0
 40
1.62524041494961
 50
9.3161605177463578
 51
24.1698275324969103
  0
ARC
  5
1E2D1
  8
0
 10
4529.134228999435436
 20
-40.1204359356214297
 30
0.0
 40
1.793937991691547
 50
24.1698275324969103
 51
55.3695509749821611
  0
ARC
  5
1E2D2
  8
0
 10
4528.9423624419951011
 20
-40.3982463651972026
 30
0.0
 40
2.131564132037695
 50
55.3695509749823884
 51
76.6922235983423661
  0
ARC
  5
1E2D3
  8
0
 10
4528.9542725218407213
 20
-40.3478937084546629
 30
0.0
 40
2.0798220790926689
 50
76.6922235983423661
 51
90.2745286970898348
  0
ARC
  5
1E2D4
  8
0
 10
4529.2650384056505573
 20
-40.3129188971758765
 30
0.0
 40
1.7703516430537241
 50
10.8268831771374092
 51
32.1195840859381576
  0
ARC
  5
1E2D5
  8
0
 10
4528.5378529070003424
 20
-39.666567143098618
 30
0.0
 40
2.6048897328768241
 50
303.6093484642602789
 51
306.0672921091937724
  0
ARC
  5
1E2D6
  8
0
 10
4528.8736568034000811
 20
-40.171813771073893
 30
0.0
 40
1.9982280380926349
 50
290.7645349545178988
 51
303.6093484642602789
  0
ARC
  5
1E2D7
  8
0
 10
4528.9108007172453654
 20
-40.2697784374033532
 30
0.0
 40
1.8934580701405641
 50
277.0981114530096079
 51
290.7645349545178988
  0
ARC
  5
1E2D8
  8
0
 10
4528.9434592158413579
 20
-40.5320470085276128
 30
0.0
 40
1.629163951912332
 50
270.0298239705600736
 51
277.0981114530096079
  0
ARC
  5
1E2D9
  8
0
 10
4529.0983759323471531
 20
-39.7571713447896684
 30
0.0
 40
2.1764023459058701
 50
286.2291708426644732
 51
293.530540899951518
  0
ARC
  5
1E2DA
  8
0
 10
4529.0165117103397279
 20
-39.4759273834204478
 30
0.0
 40
2.4693185739498298
 50
276.8497115437169214
 51
286.2291708426644732
  0
ARC
  5
1E2DB
  8
0
 10
4528.9277129429783599
 20
-38.7366943759575406
 30
0.0
 40
3.2138658594915301
 50
270.2958391481695912
 51
276.8497115437169214
  0
ARC
  5
1E2DC
  8
0
 10
4528.9495949407400985
 20
-40.4508535301377634
 30
0.0
 40
1.6972604404063401
 50
269.8214985229375884
 51
284.1373634834268955
  0
ARC
  5
1E2DD
  8
0
 10
4528.8874937962691547
 20
-40.2042991081931191
 30
0.0
 40
1.9515154995988271
 50
284.137363483426725
 51
297.4669008641993742
  0
ARC
  5
1E2DE
  8
0
 10
4528.8155472643111352
 20
-40.0658959533281731
 30
0.0
 40
2.1075018346973118
 50
297.4669008641993742
 51
302.9302948653976841
  0
ARC
  5
1E2DF
  8
0
 10
4529.9093916383362739
 20
-41.7547632187686304
 30
0.0
 40
0.0953467326076896
 50
302.9302948653976841
 51
319.6459439324033838
  0
ARC
  5
1E2E0
  8
0
 10
4529.9608149031546418
 20
-41.7984567940161682
 30
0.0
 40
0.0278672491880901
 50
319.6459439324056007
 51
350.2999558007313112
  0
LINE
  5
1E2E1
  8
0
 10
4529.9882837437316994
 20
-41.8031521507321386
 30
0.0
 11
4529.9882837433324312
 21
-41.7567063771321401
 31
0.0
  0
ARC
  5
1E2E2
  8
0
 10
4529.982483831628997
 20
-41.7564196673306327
 30
0.0
 40
0.0058069939111126
 50
357.169974119116489
 51
72.6653473773360048
  0
ARC
  5
1E2E3
  8
0
 10
4529.9794503691391583
 20
-41.7661382878657079
 30
0.0
 40
0.0159880292110917
 50
72.6653473773361327
 51
95.5282529765311068
  0
ARC
  5
1E2E4
  8
0
 10
4529.9821756133005692
 20
-41.7942954904505726
 30
0.0
 40
0.0442768081374659
 50
95.5282529765311068
 51
109.6615253211068932
  0
ARC
  5
1E2E5
  8
0
 10
4530.0604471813294367
 20
-41.7606190930111794
 30
0.0
 40
0.0159457559424227
 50
313.595081935198607
 51
352.3234325401315914
  0
ARC
  5
1E2E6
  8
0
 10
4528.9481329585769345
 20
-39.6353625628008785
 30
0.0
 40
2.0047091469723579
 50
269.8906585869390256
 51
296.0220593020698061
  0
ARC
  5
1E2E7
  8
0
 10
4529.0436261019376616
 20
-39.8309613540162388
 30
0.0
 40
1.787044663066754
 50
296.0220593067671189
 51
327.7551423174119805
  0
ARC
  5
1E2E8
  8
0
 10
4529.3060363871582013
 20
-39.9964969882777197
 30
0.0
 40
1.4767847655621431
 50
327.7551423174123784
 51
357.7405785221264978
  0
ARC
  5
1E2E9
  8
0
 10
4529.2472896994586335
 20
-39.9941791495976204
 30
0.0
 40
1.535577160407698
 50
357.7405785221264978
 51
28.1584056277484507
  0
ARC
  5
1E2EA
  8
0
 10
4529.1152901240193387
 20
-40.0648333721273389
 30
0.0
 40
1.685296588264761
 50
28.1584056277484507
 51
63.9689979371073889
  0
ARC
  5
1E2EB
  8
0
 10
4528.8797693758751848
 20
-40.5470600494414271
 30
0.0
 40
2.2219646338191579
 50
63.9689979371073889
 51
79.7705039472306652
  0
ARC
  5
1E2EC
  8
0
 10
4528.9719686869830184
 20
-40.0361470885473523
 30
0.0
 40
1.702799181792358
 50
79.7705039472306652
 51
90.9307932304469659
  0
ARC
  5
1E2ED
  8
0
 10
4529.5215748134296518
 20
-38.6941484215029305
 30
0.0
 40
0.0357467884759831
 50
342.6059004470434957
 51
76.3471891928719657
  0
ARC
  5
1E2EE
  8
0
 10
4529.5139118330625934
 20
-38.7060574544222078
 30
0.0
 40
0.0493462766908073
 50
70.9570135895057632
 51
120.0483031677051002
  0
ARC
  5
1E2EF
  8
0
 10
4529.5192058086086035
 20
-38.6881611336469717
 30
0.0
 40
0.0401108390280129
 50
272.817685248790383
 51
335.4374617612372731
  0
ARC
  5
1E2F0
  8
0
 10
4529.520947133080881
 20
-38.6480152769702912
 30
0.0
 40
0.0802085332102708
 50
247.5469550240495096
 51
270.1646164546842783
  0
ARC
  5
1E2F1
  8
0
 10
4529.5038617762147624
 20
-38.6913968532629227
 30
0.0
 40
0.031652803919396
 50
117.5887296594555949
 51
203.305392424173391
  0
ARC
  5
1E2F2
  8
0
 10
4529.5182005016258699
 20
-38.6826687655108827
 30
0.0
 40
0.0483315605492492
 50
206.0841618594351985
 51
234.7604824510301
  0
ARC
  5
1E2F3
  8
0
 10
4529.5177327408164274
 20
-38.6560071348744998
 30
0.0
 40
0.1419075468737965
 50
197.7175915023217954
 51
248.8855223715663953
  0
ARC
  5
1E2F4
  8
0
 10
4529.4732331427012468
 20
-38.6779003540975808
 30
0.0
 40
0.0931434657006346
 50
150.6424533845315068
 51
193.2148360581263944
  0
ARC
  5
1E2F5
  8
0
 10
4529.5064970511357387
 20
-38.6972083404495706
 30
0.0
 40
0.1316024593336001
 50
107.192082161177197
 51
150.4158415608021073
  0
ARC
  5
1E2F6
  8
0
 10
4529.51701319327276
 20
-38.71586311099
 30
0.0
 40
0.1525993627684014
 50
90.0356844657500517
 51
108.8940803763533012
  0
ARC
  5
1E2F7
  8
0
 10
4529.516344456817933
 20
-38.7162494377304185
 30
0.0
 40
0.1529867355878063
 50
63.0717910199765015
 51
89.7851419801106232
  0
ARC
  5
1E2F8
  8
0
 10
4529.5391930837886321
 20
-38.6825525953904972
 30
0.0
 40
0.1127118752167233
 50
351.912641381896492
 51
65.6707199671681536
  0
ARC
  5
1E2F9
  8
0
 10
4529.5182954769943535
 20
-38.6606996903105014
 30
0.0
 40
0.1377505689849332
 50
247.9640261299209101
 51
344.1123303888376199
  0
ARC
  5
1E2FA
  8
0
 10
4529.5177121015367447
 20
-38.8213380676881528
 30
0.0
 40
0.3700941744422734
 50
68.9949319308099263
 51
147.7963781863741985
  0
ARC
  5
1E2FB
  8
0
 10
4529.4655767553567784
 20
-38.715181417501789
 30
0.0
 40
0.2764567028351747
 50
160.7648474014825979
 51
252.2156888389573055
  0
ARC
  5
1E2FC
  8
0
 10
4529.5111963790259324
 20
-38.6321011399905103
 30
0.0
 40
0.3699419348890058
 50
249.4168561455059034
 51
326.4543843075620089
  0
ARC
  5
1E2FD
  8
0
 10
4529.569850646093073
 20
-38.7336012888105614
 30
0.0
 40
0.2700484076820255
 50
337.5955184217186797
 51
72.6519279902655484
  0
ARC
  5
1E2FE
  8
0
 10
4530.3260155911502807
 20
-39.4207443216648201
 30
0.0
 40
0.0381901479628595
 50
345.4803585972601923
 51
76.1228827366749101
  0
ARC
  5
1E2FF
  8
0
 10
4530.3190745522588259
 20
-39.4303146093669028
 30
0.0
 40
0.0493462766908073
 50
70.9570135895057632
 51
120.0483031677051002
  0
ARC
  5
1E300
  8
0
 10
4530.3279587978850032
 20
-39.4185929432636968
 30
0.0
 40
0.0369378836178402
 50
269.0960561454137974
 51
341.4909388038886959
  0
ARC
  5
1E301
  8
0
 10
4530.3250947842725509
 20
-39.4031826050371805
 30
0.0
 40
0.0523933133876448
 50
235.5759063903809931
 51
272.4955253223869818
  0
ARC
  5
1E302
  8
0
 10
4530.3090244954109949
 20
-39.4156540082076106
 30
0.0
 40
0.031652803919396
 50
117.5887296594555949
 51
203.305392424173391
  0
ARC
  5
1E303
  8
0
 10
4530.3233632208221024
 20
-39.4069259204555777
 30
0.0
 40
0.0483315605492492
 50
206.0841618594351985
 51
234.7604824510301
  0
ARC
  5
1E304
  8
0
 10
4530.338799456990273
 20
-39.3907303066958292
 30
0.0
 40
0.1457993580988366
 50
198.0645993114746943
 51
271.4049275751852974
  0
ARC
  5
1E305
  8
0
 10
4530.2908639157776634
 20
-39.4146482245202208
 30
0.0
 40
0.0931434657006346
 50
150.6424533845315068
 51
193.2148360581263944
  0
ARC
  5
1E306
  8
0
 10
4530.3241278242139742
 20
-39.4339562108722177
 30
0.0
 40
0.1316024593336001
 50
107.192082161177197
 51
150.4158415608021073
  0
ARC
  5
1E307
  8
0
 10
4530.3346439663509955
 20
-39.4526109814126471
 30
0.0
 40
0.1525993627684014
 50
90.0356844657500517
 51
108.8940803763533012
  0
ARC
  5
1E308
  8
0
 10
4530.333975229897078
 20
-39.4529973081530727
 30
0.0
 40
0.1529867355878063
 50
63.0717910199765015
 51
89.7851419801106232
  0
ARC
  5
1E309
  8
0
 10
4530.3568238568668676
 20
-39.4193004658131372
 30
0.0
 40
0.1127118752167233
 50
351.912641381896492
 51
65.6707199671681536
  0
ARC
  5
1E30A
  8
0
 10
4530.3325072455936606
 20
-39.3951586335136525
 30
0.0
 40
0.1416712198069037
 50
273.9936990196359261
 51
343.6005078170991851
  0
ARC
  5
1E30B
  8
0
 10
4530.3053333154812208
 20
-39.4927145067225496
 30
0.0
 40
0.3325428001097596
 50
61.1870168938202497
 51
149.3102782930585875
  0
ARC
  5
1E30C
  8
0
 10
4530.284758373673867
 20
-39.4412912140817227
 30
0.0
 40
0.290566850400341
 50
155.974398746436492
 51
251.047461986896792
  0
ARC
  5
1E30D
  8
0
 10
4530.3204457361471214
 20
-39.3697798760204023
 30
0.0
 40
0.3699419348890058
 50
249.4168561455059034
 51
326.4543843075620089
  0
ARC
  5
1E30E
  8
0
 10
4530.3550462647772292
 20
-39.4718509238437321
 30
0.0
 40
0.2922297734581357
 50
339.4968488082189992
 51
67.7702511582810843
  0
ARC
  5
1E30F
  8
0
 10
4530.3266752609988544
 20
-40.4462227405807013
 30
0.0
 40
0.0381901479628595
 50
345.4803585972605902
 51
76.1228827366749101
  0
ARC
  5
1E310
  8
0
 10
4530.319734222108309
 20
-40.4557930282827911
 30
0.0
 40
0.0493462766908073
 50
70.9570135895057632
 51
120.0483031677051002
  0
ARC
  5
1E311
  8
0
 10
4530.3286184677326673
 20
-40.4440713621795993
 30
0.0
 40
0.0369378836178402
 50
269.0960561454137974
 51
341.4909388038886959
  0
ARC
  5
1E312
  8
0
 10
4530.3257544541202151
 20
-40.4286610239530688
 30
0.0
 40
0.0523933133876448
 50
235.5759063903809931
 51
272.4955253223869818
  0
ARC
  5
1E313
  8
0
 10
4530.3096841652595685
 20
-40.4411324271234989
 30
0.0
 40
0.031652803919396
 50
117.5887296594555949
 51
203.305392424173391
  0
ARC
  5
1E314
  8
0
 10
4530.3240228906697666
 20
-40.4324043393714732
 30
0.0
 40
0.0483315605492492
 50
206.0841618594351985
 51
234.7604824510301
  0
ARC
  5
1E315
  8
0
 10
4530.3331939418267211
 20
-40.4154573182537931
 30
0.0
 40
0.1457993580988366
 50
198.0645993114746943
 51
271.4049275751852974
  0
ARC
  5
1E316
  8
0
 10
4530.2852584006159304
 20
-40.4393752360781775
 30
0.0
 40
0.0931434657006346
 50
150.6424533845315068
 51
193.2148360581263944
  0
ARC
  5
1E317
  8
0
 10
4530.3185223090513318
 20
-40.4586832224301673
 30
0.0
 40
0.1316024593336001
 50
107.192082161177197
 51
150.4158415608021073
  0
ARC
  5
1E318
  8
0
 10
4530.3290384511883531
 20
-40.4773379929705968
 30
0.0
 40
0.1525993627684014
 50
90.0356844657500517
 51
108.8940803763533012
  0
ARC
  5
1E319
  8
0
 10
4530.3283697147344355
 20
-40.4777243197110295
 30
0.0
 40
0.1529867355878063
 50
63.0717910199765015
 51
89.7851419801106232
  0
ARC
  5
1E31A
  8
0
 10
4530.3512183417060442
 20
-40.444027477371101
 30
0.0
 40
0.1127118752167233
 50
351.912641381896492
 51
65.6707199671681536
  0
ARC
  5
1E31B
  8
0
 10
4530.3269017304310182
 20
-40.4198856450716022
 30
0.0
 40
0.1416712198069037
 50
273.9936990196359261
 51
343.6005078170991851
  0
ARC
  5
1E31C
  8
0
 10
4530.3003681668506033
 20
-40.5033628013755234
 30
0.0
 40
0.3325428001097596
 50
61.1870168938202497
 51
149.3102782930585875
  0
ARC
  5
1E31D
  8
0
 10
4530.3201207430411159
 20
-40.4521206349816183
 30
0.0
 40
0.3278773993433996
 50
158.815858839789513
 51
260.494404556282916
  0
ARC
  5
1E31E
  8
0
 10
4530.3433832653581703
 20
-40.472534586849811
 30
0.0
 40
0.3126945962183508
 50
255.6670529146387878
 51
338.2485278071372932
  0
ARC
  5
1E31F
  8
0
 10
4530.3352072622255946
 20
-40.4977420344154808
 30
0.0
 40
0.3120693549830185
 50
343.1091955037031198
 51
66.3009893822834471
  0
ARC
  5
1E320
  8
0
 10
4529.5145178983893857
 20
-41.1711688036064487
 30
0.0
 40
0.0429281718618857
 50
351.5608914285552942
 51
70.0423499053871552
  0
ARC
  5
1E321
  8
0
 10
4529.5149643276954521
 20
-41.1752185818770329
 30
0.0
 40
0.0466172016640673
 50
72.25757628160666
 51
123.2703064338487025
  0
ARC
  5
1E322
  8
0
 10
4529.5179962098563919
 20
-41.1712611704572069
 30
0.0
 40
0.0394761913978266
 50
280.9965106869652232
 51
350.9525918638709072
  0
ARC
  5
1E323
  8
0
 10
4529.51614572339804
 20
-41.1657044885721888
 30
0.0
 40
0.0452901445696876
 50
234.8229153772915936
 51
281.9536872046655844
  0
ARC
  5
1E324
  8
0
 10
4529.5118321626905527
 20
-41.1689320179486273
 30
0.0
 40
0.0396514713142005
 50
124.469682542043401
 51
189.585660260868508
  0
ARC
  5
1E325
  8
0
 10
4529.5145334252902103
 20
-41.1680190380825621
 30
0.0
 40
0.0424694379135134
 50
190.1933266464833139
 51
234.8019073346843015
  0
ARC
  5
1E326
  8
0
 10
4529.5386556532548639
 20
-41.1391947955701127
 30
0.0
 40
0.1639966882588924
 50
200.1592825273046117
 51
268.4638763495328249
  0
ARC
  5
1E327
  8
0
 10
4529.5112307255622
 20
-41.1728101619499327
 30
0.0
 40
0.1285812165535959
 50
156.7419248361497068
 51
190.2603274706359002
  0
ARC
  5
1E328
  8
0
 10
4529.5130617037302727
 20
-41.1794645523153875
 30
0.0
 40
0.133000330906709
 50
112.8974397063969946
 51
154.4190401127052894
  0
ARC
  5
1E329
  8
0
 10
4529.5064560671253275
 20
-41.1892253964939883
 30
0.0
 40
0.1397717438539218
 50
84.823143458054389
 51
108.8428163602686993
  0
ARC
  5
1E32A
  8
0
 10
4529.5092737388476962
 20
-41.1980105212886301
 30
0.0
 40
0.1483104650560473
 50
55.5561743778924892
 51
86.2136042502313558
  0
ARC
  5
1E32B
  8
0
 10
4529.5325736227141533
 20
-41.1806743849115122
 30
0.0
 40
0.1212011359138616
 50
353.2456652463752107
 51
60.0089267176459913
  0
ARC
  5
1E32C
  8
0
 10
4529.5347990820991981
 20
-41.1845436588380309
 30
0.0
 40
0.118590116428042
 50
269.739237385654576
 51
354.9759013200181812
  0
ARC
  5
1E32D
  8
0
 10
4529.51058533152991
 20
-41.2230796362681389
 30
0.0
 40
0.3331335561857521
 50
63.1460099225186724
 51
154.1781029809606878
  0
ARC
  5
1E32E
  8
0
 10
4529.5024098666135615
 20
-41.1983866263134217
 30
0.0
 40
0.3155712862415063
 50
157.5692005305407974
 51
261.5610580711268085
  0
ARC
  5
1E32F
  8
0
 10
4529.533507569088215
 20
-41.2075796446984128
 30
0.0
 40
0.3126945962183508
 50
255.6670529146387878
 51
338.2485278071372932
  0
ARC
  5
1E330
  8
0
 10
4529.5306255054229041
 20
-41.2114597071130575
 30
0.0
 40
0.3139683388178576
 50
339.1011190323993105
 51
65.4514898144363855
  0
ARC
  5
1E331
  8
0
 10
4529.4301116568440193
 20
-39.4648951577839426
 30
0.0
 40
0.0394215427662795
 50
0.1748907676049803
 51
72.9207018262711699
  0
ARC
  5
1E332
  8
0
 10
4529.4255197538850553
 20
-39.4718084919021379
 30
0.0
 40
0.0474373027205715
 50
70.0702942157589916
 51
123.101177685862595
  0
ARC
  5
1E333
  8
0
 10
4529.4308945466773366
 20
-39.4610985492116129
 30
0.0
 40
0.0388129659525608
 50
273.1075338502286058
 51
354.5649239012793146
  0
ARC
  5
1E334
  8
0
 10
4529.4274624350509839
 20
-39.4515503886546384
 30
0.0
 40
0.0486202712589162
 50
237.8476873898179065
 51
276.5381875919375148
  0
ARC
  5
1E335
  8
0
 10
4529.4198160083087714
 20
-39.4630187675448525
 30
0.0
 40
0.0369591665687902
 50
123.1355414467119971
 51
196.6325332007108102
  0
ARC
  5
1E336
  8
0
 10
4529.4277256359418971
 20
-39.451934987607423
 30
0.0
 40
0.0484366105432872
 50
206.5666152586586009
 51
237.3419804139577991
  0
ARC
  5
1E337
  8
0
 10
4529.3784116609822377
 20
-39.6489411525646531
 30
0.0
 40
0.4539469410318771
 50
58.1056322149522089
 51
67.60109053406876
  0
ARC
  5
1E338
  8
0
 10
4529.4206963712376819
 20
-39.4537121402896673
 30
0.0
 40
0.1211240014054199
 50
176.8523431944684887
 51
237.6364400843013982
  0
ARC
  5
1E339
  8
0
 10
4529.4079793741148023
 20
-39.4556407222541878
 30
0.0
 40
0.108563801757389
 50
146.2749660991991902
 51
175.46738659962881
  0
ARC
  5
1E33A
  8
0
 10
4529.4229615989843296
 20
-39.4658482054654627
 30
0.0
 40
0.1266920832940203
 50
107.089924705409004
 51
146.1974364050381041
  0
ARC
  5
1E33B
  8
0
 10
4529.4363136125939491
 20
-39.4889139871857893
 30
0.0
 40
0.1527804107948417
 50
92.8289360774587067
 51
109.3346432189756996
  0
ARC
  5
1E33C
  8
0
 10
4529.4408806708843258
 20
-39.4620764988274715
 30
0.0
 40
0.1263382199069525
 50
57.1086046244177368
 51
95.4992847040589794
  0
ARC
  5
1E33D
  8
0
 10
4529.4425385951490171
 20
-39.4530116202243093
 30
0.0
 40
0.1178789770042988
 50
4.3816464288997539
 51
55.392324484187597
  0
ARC
  5
1E33E
  8
0
 10
4529.4478368622703783
 20
-39.4540057661370511
 30
0.0
 40
0.1126807958023286
 50
293.2730855980332194
 51
5.0915140072567988
  0
ARC
  5
1E33F
  8
0
 10
4529.4211893913470703
 20
-39.5485938398006169
 30
0.0
 40
0.3448724283656644
 50
66.0040421267866151
 51
149.7698156218202996
  0
ARC
  5
1E340
  8
0
 10
4529.3859273626103459
 20
-39.4876705457220112
 30
0.0
 40
0.2858688157151181
 50
156.7791276977621919
 51
248.6402810120661115
  0
ARC
  5
1E341
  8
0
 10
4529.4319396462069562
 20
-39.449072340372588
 30
0.0
 40
0.3397966232598538
 50
243.7793575226841938
 51
335.878723251865722
  0
ARC
  5
1E342
  8
0
 10
4529.493066119804098
 20
-39.5024311201263032
 30
0.0
 40
0.2632721059232819
 50
341.0477089044392187
 51
40.3339434846547888
  0
ARC
  5
1E343
  8
0
 10
4529.7612199254072038
 20
-39.2315463801579511
 30
0.0
 40
0.1034374816124666
 50
303.0971921625152277
 51
349.0311967592838869
  0
ARC
  5
1E344
  8
0
 10
4529.7427979456688263
 20
-39.2032840928948829
 30
0.0
 40
0.1371736079287568
 50
272.981067165679292
 51
303.0971921625152277
  0
ARC
  5
1E345
  8
0
 10
4529.7424148596919622
 20
-39.1959278681440182
 30
0.0
 40
0.1445398008022776
 50
230.8718694329351138
 51
272.981067165679292
  0
ARC
  5
1E346
  8
0
 10
4529.7216089272360477
 20
-39.2215038956863467
 30
0.0
 40
0.1115698142961245
 50
198.1317114871411889
 51
230.8718694329355969
  0
ARC
  5
1E347
  8
0
 10
4529.7058784785513126
 20
-39.2266550370237894
 30
0.0
 40
0.0950174346200645
 50
154.4550422458762
 51
198.131711487140393
  0
ARC
  5
1E348
  8
0
 10
4529.7195577081965894
 20
-39.2331928753070684
 30
0.0
 40
0.1101787225970327
 50
102.0057064956127988
 51
154.4550422458762
  0
ARC
  5
1E349
  8
0
 10
4529.7306083954472342
 20
-39.2851568220317588
 30
0.0
 40
0.1633046997448532
 50
63.6399100634196628
 51
102.0057064956127988
  0
ARC
  5
1E34A
  8
0
 10
4529.754254151323039
 20
-39.237439327044271
 30
0.0
 40
0.1100498304947638
 50
20.9975985562296614
 51
63.6399100634198405
  0
ARC
  5
1E34B
  8
0
 10
4529.7668227682133875
 20
-39.2347080571516997
 30
0.0
 40
0.0973567410704344
 50
350.2305800501222848
 51
22.1475118460872906
  0
ARC
  5
1E34C
  8
0
 10
4529.7319994604649764
 20
-39.2586624673249105
 30
0.0
 40
0.1306084632626869
 50
2.617363453664415
 51
33.360334584572243
  0
ARC
  5
1E34D
  8
0
 10
4529.750166383620126
 20
-39.2467016253411316
 30
0.0
 40
0.1088576279254593
 50
33.360334584572243
 51
74.1650053629365829
  0
ARC
  5
1E34E
  8
0
 10
4529.7378340207487781
 20
-39.2901818907733968
 30
0.0
 40
0.1540529889265283
 50
74.1650053629365829
 51
108.7258104248704029
  0
ARC
  5
1E34F
  8
0
 10
4529.7222297956022885
 20
-39.2441494862526525
 30
0.0
 40
0.1054477000330263
 50
108.7258104248704029
 51
144.5110764699116999
  0
ARC
  5
1E350
  8
0
 10
4529.7372729786466152
 20
-39.2548752972471533
 30
0.0
 40
0.1239230992879398
 50
144.5110764699122967
 51
165.9401817864801956
  0
ARC
  5
1E351
  8
0
 10
4529.8219026930446489
 20
-39.2760697274800492
 30
0.0
 40
0.2111663937693279
 50
165.9401817864805935
 51
171.7613907060064946
  0
ARC
  5
1E352
  8
0
 10
4529.4256222919611901
 20
-39.4187365010355393
 30
0.0
 40
0.1539936090953736
 50
243.0623211279659017
 51
295.6816703036371905
  0
ARC
  5
1E353
  8
0
 10
4529.4745107519329395
 20
-40.3683278251433606
 30
0.0
 40
0.2820385831465862
 50
321.2565204609006173
 51
30.2742310293371517
  0
ARC
  5
1E354
  8
0
 10
4529.4315826070487674
 20
-40.3933871145868721
 30
0.0
 40
0.3317456612192371
 50
30.2742310293371517
 51
77.8671846092493638
  0
ARC
  5
1E355
  8
0
 10
4529.4227239054907841
 20
-40.4345941040820165
 30
0.0
 40
0.3738941199877814
 50
77.8671846092493638
 51
114.616249033649396
  0
ARC
  5
1E356
  8
0
 10
4529.3892134809693744
 20
-40.3614557967318603
 30
0.0
 40
0.2934443806863162
 50
114.6162490336495949
 51
163.2682834578218092
  0
ARC
  5
1E357
  8
0
 10
4529.3791764521165533
 20
-40.3584384865858397
 30
0.0
 40
0.2829636312532329
 50
163.2682834578222071
 51
219.4327760376129106
  0
ARC
  5
1E358
  8
0
 10
4529.4321496014908917
 20
-40.3148750779680469
 30
0.0
 40
0.3515487981989815
 50
219.4327760376133085
 51
256.0381902967483825
  0
ARC
  5
1E359
  8
0
 10
4529.4323583935984061
 20
-40.3140352742914487
 30
0.0
 40
0.3524141676916947
 50
256.0381902967483825
 51
301.861475118604119
  0
ARC
  5
1E35A
  8
0
 10
4529.7419620351338381
 20
-40.6642056771628688
 30
0.0
 40
0.1224270410831836
 50
4.6393334277329057
 51
59.9636505335246568
  0
ARC
  5
1E35B
  8
0
 10
4529.7331186117771722
 20
-40.6795005186579104
 30
0.0
 40
0.140094477599078
 50
59.9636505335246568
 51
110.1522941208974942
  0
ARC
  5
1E35C
  8
0
 10
4529.7237723653661305
 20
-40.6540327490903621
 30
0.0
 40
0.1129659020979255
 50
110.1522941208974942
 51
174.0006858435179993
  0
ARC
  5
1E35D
  8
0
 10
4529.7203243056355859
 20
-40.6536703851393568
 30
0.0
 40
0.1094988538538232
 50
174.0006858435185109
 51
212.2139765988430042
  0
ARC
  5
1E35E
  8
0
 10
4529.7416112572163911
 20
-40.6402580232660426
 30
0.0
 40
0.1346588570047606
 50
212.2139765988430042
 51
262.5633044118944213
  0
ARC
  5
1E35F
  8
0
 10
4529.7412805049807503
 20
-40.6427919670402034
 30
0.0
 40
0.1321034180812858
 50
262.5633044118944213
 51
310.51499002168282
  0
ARC
  5
1E360
  8
0
 10
4529.7581165091660296
 20
-40.6624939553246492
 30
0.0
 40
0.1061877977085615
 50
310.5149900216831043
 51
4.4237810100571249
  0
ARC
  5
1E361
  8
0
 10
4529.7415244994363093
 20
-40.6825394527071111
 30
0.0
 40
0.1213855712715956
 50
3.709282116272778
 51
50.6710749147735271
  0
ARC
  5
1E362
  8
0
 10
4529.740267098753975
 20
-40.6840741147905689
 30
0.0
 40
0.1233695682934393
 50
50.6710749147735271
 51
95.3137908546395352
  0
ARC
  5
1E363
  8
0
 10
4529.7418847820863448
 20
-40.7014666950488504
 30
0.0
 40
0.1408372168872519
 50
95.3137908546395352
 51
136.0935377424202954
  0
ARC
  5
1E364
  8
0
 10
4529.6998325414151623
 20
-40.660989783374589
 30
0.0
 40
0.0824696631945612
 50
136.0935377424208923
 51
163.1367695577467032
  0
ARC
  5
1E365
  8
0
 10
4529.7409227740772621
 20
-40.6734451523985499
 30
0.0
 40
0.1254061679156487
 50
163.1367695577471011
 51
186.1439363344231026
  0
ARC
  5
1E366
  8
0
 10
4529.4321267528976023
 20
-40.3299488436996469
 30
0.0
 40
0.0374213662317973
 50
336.9958036476435836
 51
41.3475707586309866
  0
ARC
  5
1E367
  8
0
 10
4529.425296439037993
 20
-40.3359594762245521
 30
0.0
 40
0.0465197666836413
 50
41.3475707586319032
 51
80.3878016787625711
  0
ARC
  5
1E368
  8
0
 10
4529.4255031436832724
 20
-40.3347389453140721
 30
0.0
 40
0.0452818561398633
 50
80.3878016787625711
 51
130.7830913988443058
  0
ARC
  5
1E369
  8
0
 10
4529.4197031264839097
 20
-40.3280155504122106
 30
0.0
 40
0.0364024283134428
 50
130.7830913988445047
 51
178.0169131796426996
  0
ARC
  5
1E36A
  8
0
 10
4529.4218826929409261
 20
-40.3280910183844128
 30
0.0
 40
0.0385833009271694
 50
178.0169131796419038
 51
229.4235077489713888
  0
ARC
  5
1E36B
  8
0
 10
4529.4275657121552285
 20
-40.3214550178335784
 30
0.0
 40
0.0473201888562214
 50
229.4235077489711045
 51
286.8580099167332946
  0
ARC
  5
1E36C
  8
0
 10
4529.4294795429714213
 20
-40.3277708139672271
 30
0.0
 40
0.0407207927325865
 50
286.8580099167332946
 51
335.6304252836878277
  0
ARC
  5
1E36D
  8
0
 10
4529.4425764455527315
 20
-40.3161758886026433
 30
0.0
 40
0.1533260188511281
 50
204.9035620385629102
 51
238.077067225015611
  0
ARC
  5
1E36E
  8
0
 10
4529.4192222112269519
 20
-40.3275820876833819
 30
0.0
 40
0.1273412769002648
 50
147.7101514817169061
 51
204.6734897029760987
  0
ARC
  5
1E36F
  8
0
 10
4529.4165628856671901
 20
-40.3259015912474723
 30
0.0
 40
0.1241954732330934
 50
80.0097141676553321
 51
147.7101514817169061
  0
ARC
  5
1E370
  8
0
 10
4529.4053072916931342
 20
-40.3897985841016478
 30
0.0
 40
0.1890762415044718
 50
40.9528158726706906
 51
80.0097141676553321
  0
ARC
  5
1E371
  8
0
 10
4529.4772508843298056
 20
-40.3273629160933069
 30
0.0
 40
0.0938182068775824
 50
336.883157475358928
 51
40.9528158726713087
  0
ARC
  5
1E372
  8
0
 10
4529.3871436765775798
 20
-40.2888976243548882
 30
0.0
 40
0.1917921195149206
 50
317.097916085761085
 51
336.883157475358928
  0
ARC
  5
1E373
  8
0
 10
4529.4229711139059873
 20
-40.2992725239078666
 30
0.0
 40
0.1593720354227877
 50
247.3126734560150908
 51
311.0506590784319201
  0
ARC
  5
1E374
  8
0
 10
4528.9443081261351836
 20
-39.9373584819109126
 30
0.0
 40
0.0643777640257645
 50
59.5703035268623466
 51
120.5395764285578935
  0
ARC
  5
1E375
  8
0
 10
4528.9496894251260528
 20
-39.9281971622999876
 30
0.0
 40
0.0537528802223726
 50
10.2444033595463608
 51
59.5703035268625598
  0
ARC
  5
1E376
  8
0
 10
4528.9566897837839861
 20
-39.9269319973824892
 30
0.0
 40
0.0466391144392532
 50
308.5891313084277954
 51
10.2444033595487607
  0
ARC
  5
1E377
  8
0
 10
4528.9434608244464471
 20
-39.9103539173973019
 30
0.0
 40
0.067848501540039
 50
249.2740316665388036
 51
308.5891313084272838
  0
ARC
  5
1E378
  8
0
 10
4528.9380986704663883
 20
-39.9245250183657205
 30
0.0
 40
0.0526968416326551
 50
184.096483607287297
 51
249.2740316665386047
  0
ARC
  5
1E379
  8
0
 10
4528.9336975279529725
 20
-39.9248402246873511
 30
0.0
 40
0.0482844261445397
 50
117.2416111358780029
 51
184.0964836072868991
  0
ARC
  5
1E37A
  8
0
 10
4528.9444373460419229
 20
-39.946117502293589
 30
0.0
 40
0.1629037777659544
 50
52.6863563755774607
 51
130.8034535445621884
  0
ARC
  5
1E37B
  8
0
 10
4528.9649666015811817
 20
-39.9191823104596111
 30
0.0
 40
0.1290370552772758
 50
341.7235348763742877
 51
52.6863563755777093
  0
ARC
  5
1E37C
  8
0
 10
4528.9671526354004527
 20
-39.9199042760088219
 30
0.0
 40
0.1267348871450306
 50
295.4289907649816769
 51
341.7235348763742877
  0
ARC
  5
1E37D
  8
0
 10
4528.9435771923162974
 20
-39.8703192748023909
 30
0.0
 40
0.1816391115835972
 50
248.7663433101992041
 51
295.4289907649819042
  0
ARC
  5
1E37E
  8
0
 10
4528.9254566180279653
 20
-39.9169556310905875
 30
0.0
 40
0.1316060730950008
 50
186.2574563887239947
 51
248.7663433101992041
  0
ARC
  5
1E37F
  8
0
 10
4528.9181732851975539
 20
-39.917754244988231
 30
0.0
 40
0.1242790872719674
 50
130.1648480244523114
 51
186.2574563887239947
  0
ARC
  5
1E380
  8
0
 10
4530.3566866324454168
 20
-39.38012501265802
 30
0.0
 40
0.1661553410247776
 50
147.3593180883596858
 51
199.6289249612613901
  0
ARC
  5
1E381
  8
0
 10
4530.3723630932117885
 20
-39.3922997457196402
 30
0.0
 40
0.1859313640844203
 50
94.6360860613886672
 51
146.8056837174480904
  0
ARC
  5
1E382
  8
0
 10
4530.3789121403633544
 20
-39.4730604319947034
 30
0.0
 40
0.2669571529803025
 50
64.0211103444300136
 51
94.6360860613886672
  0
ARC
  5
1E383
  8
0
 10
4530.3704840519167192
 20
-39.4903567454527291
 30
0.0
 40
0.2861976086421038
 50
27.6639269189111303
 51
64.0211103444298288
  0
ARC
  5
1E384
  8
0
 10
4530.2673167492121138
 20
-39.4630621945908615
 30
0.0
 40
0.2122839279106873
 50
317.9652407609685838
 51
27.507588296726329
  0
ARC
  5
1E385
  8
0
 10
4530.2547056485473149
 20
-39.4521244942071476
 30
0.0
 40
0.2289745849894948
 50
246.0516848707183897
 51
318.0453895948334093
  0
ARC
  5
1E386
  8
0
 10
4530.2844080558834321
 20
-39.3852495069180293
 30
0.0
 40
0.3021490130807093
 50
197.5424164685790061
 51
246.0516848707185886
  0
ARC
  5
1E387
  8
0
 10
4529.4953465691050951
 20
-38.7856367169362528
 30
0.0
 40
0.2238912573473325
 50
358.5750906270204723
 51
61.9802449374190516
  0
ARC
  5
1E388
  8
0
 10
4529.5276536536102867
 20
-38.7876417622448599
 30
0.0
 40
0.1915480694737032
 50
303.7840263933517235
 51
358.9343510388193863
  0
ARC
  5
1E389
  8
0
 10
4529.4755382182202084
 20
-38.7097456847571522
 30
0.0
 40
0.285270091933024
 50
254.1016036404417946
 51
303.7840263933517235
  0
ARC
  5
1E38A
  8
0
 10
4529.5187820622168147
 20
-38.5974713096051687
 30
0.0
 40
0.1909319099728774
 50
183.7100974007938134
 51
241.0021860625969907
  0
ARC
  5
1E38B
  8
0
 10
4529.4367725917800271
 20
-38.6027891375336409
 30
0.0
 40
0.1087502055899022
 50
131.4619215996557102
 51
183.7100974007942114
  0
ARC
  5
1E38C
  8
0
 10
4529.5194044542431584
 20
-38.6669641215628275
 30
0.0
 40
0.2124456622811362
 50
109.4804295386826993
 51
136.7100747550130109
  0
ARC
  5
1E38D
  8
0
 10
4529.5404424771986669
 20
-38.8048917415460934
 30
0.0
 40
0.3504714548864618
 50
83.12477090380861
 51
105.1992567338998015
  0
ARC
  5
1E38E
  8
0
 10
4529.4444160390921752
 20
-39.3921371792705628
 30
0.0
 40
0.1820764938112709
 50
170.086213962576096
 51
230.7951218843525965
  0
ARC
  5
1E38F
  8
0
 10
4529.4417147520789513
 20
-39.4184585166817527
 30
0.0
 40
0.1858310448498299
 50
113.4901836747026067
 51
161.9209480312632934
  0
ARC
  5
1E390
  8
0
 10
4529.4766518623728189
 20
-39.5075794087526475
 30
0.0
 40
0.2815135180724496
 50
76.6780231037155744
 51
112.7816748415056054
  0
ARC
  5
1E391
  8
0
 10
4529.4701317371582263
 20
-39.5163590936452209
 30
0.0
 40
0.2915913602695715
 50
59.2582444748598718
 51
75.8288200269832657
  0
ARC
  5
1E392
  8
0
 10
4529.4101661733702713
 20
-39.5114283774835684
 30
0.0
 40
0.1833905505504072
 50
337.4564897495192213
 51
52.0445152475452133
  0
ARC
  5
1E393
  8
0
 10
4529.3181718117939454
 20
-39.4732411931099065
 30
0.0
 40
0.2829958898245426
 50
289.4694560850555831
 51
337.4564897495196192
  0
ARC
  5
1E394
  8
0
 10
4529.3352609330459018
 20
-39.5215812642802078
 30
0.0
 40
0.2317240598798259
 50
244.4440820425560048
 51
289.4694560850555831
  0
ARC
  5
1E395
  8
0
 10
4529.4801609748938063
 20
-40.4154784679462011
 30
0.0
 40
0.2326740365150943
 50
72.3932738938202647
 51
118.7557449337940056
  0
ARC
  5
1E396
  8
0
 10
4529.4707192679770742
 20
-40.4452303807022275
 30
0.0
 40
0.2638881702071166
 50
26.3586367722549397
 51
72.3932738938202647
  0
ARC
  5
1E397
  8
0
 10
4529.512457107704904
 20
-40.4245490801903671
 30
0.0
 40
0.2173074504189449
 50
357.8565392230731845
 51
26.3586367722545809
  0
ARC
  5
1E398
  8
0
 10
4529.5213103693577068
 20
-40.4248804392726413
 30
0.0
 40
0.2084479898965732
 50
324.5187119148224042
 51
357.8565392230731845
  0
ARC
  5
1E399
  8
0
 10
4529.4059824919140738
 20
-40.3309883592365424
 30
0.0
 40
0.164502234903453
 50
283.921229756381706
 51
356.9621434780394793
  0
ARC
  5
1E39A
  8
0
 10
4529.3660266853257781
 20
-40.1750293338056892
 30
0.0
 40
0.3254956548105183
 50
245.6723919286311002
 51
284.1430897198388834
  0
ARC
  5
1E39B
  8
0
 10
4529.3071956705816774
 20
-40.3051583689454134
 30
0.0
 40
0.1826858019213383
 50
182.2794874991689085
 51
245.6723919286314981
  0
LINE
  5
1E39C
  8
0
 10
4529.4072233041488289
 20
-40.3641795624173696
 30
0.0
 11
4529.4650517509353449
 21
-40.3121639300111596
 31
0.0
  0
LINE
  5
1E39D
  8
0
 10
4529.4456014676316045
 20
-40.3485422430321492
 30
0.0
 11
4529.469442991096912
 21
-40.3271458065397681
 31
0.0
  0
ARC
  5
1E39E
  8
0
 10
4529.4548440314119944
 20
-40.3594208798367404
 30
0.0
 40
0.0142747933065159
 50
130.351454888895006
 51
209.2312964076245976
  0
ARC
  5
1E39F
  8
0
 10
4529.3357314917320764
 20
-40.2952606697916309
 30
0.0
 40
0.2117737583691586
 50
148.2322134703221082
 51
184.6488119653268996
  0
ARC
  5
1E3A0
  8
0
 10
4530.3854291038469455
 20
-40.4747577428520202
 30
0.0
 40
0.1975958740330802
 50
81.571544529223047
 51
153.1519729437183912
  0
ARC
  5
1E3A1
  8
0
 10
4530.3730980311838721
 20
-40.5579775901001369
 30
0.0
 40
0.2817243372841725
 50
36.7010314469142784
 51
81.571544529223047
  0
ARC
  5
1E3A2
  8
0
 10
4530.4103005284123356
 20
-40.5302466614468599
 30
0.0
 40
0.2353235807825664
 50
0.1042263993415537
 51
36.7010314469142784
  0
ARC
  5
1E3A3
  8
0
 10
4530.3131973344879952
 20
-40.4665639863739273
 30
0.0
 40
0.1555599487980798
 50
305.5869510030286733
 51
18.6155950971196589
  0
ARC
  5
1E3A4
  8
0
 10
4530.2413277474088318
 20
-40.3749291728531574
 30
0.0
 40
0.27195227911041
 50
251.9997364347273106
 51
306.6659200022094751
  0
ARC
  5
1E3A5
  8
0
 10
4530.225362112422772
 20
-40.4240655757162273
 30
0.0
 40
0.2202871304427167
 50
201.5560938871539065
 51
251.9997364347273106
  0
ARC
  5
1E3A6
  8
0
 10
4530.2590877827178701
 20
-40.4107425246695371
 30
0.0
 40
0.2565490185082159
 50
162.5093619171830142
 51
201.5560938871535086
  0
LINE
  5
1E3A7
  8
0
 10
4530.3332590456711841
 20
-40.4083363725764997
 30
0.0
 11
4530.3085455980326515
 21
-40.4618574692321431
 31
0.0
  0
LINE
  5
1E3A8
  8
0
 10
4530.3359018555920557
 20
-40.4091639042034103
 30
0.0
 11
4530.3396125532235601
 21
-40.4793351868500508
 31
0.0
  0
ARC
  5
1E3A9
  8
0
 10
4530.3217125583259985
 20
-40.4677635219942076
 30
0.0
 40
0.0144308801752532
 50
155.8413345371241121
 51
235.009091732792001
  0
ARC
  5
1E3AA
  8
0
 10
4529.4889077145217016
 20
-41.0575922765946615
 30
0.0
 40
0.2541757909261638
 50
237.7960616471399078
 51
288.9120300685253255
  0
ARC
  5
1E3AB
  8
0
 10
4529.4716866190310611
 20
-41.0849347439128181
 30
0.0
 40
0.2218620686244252
 50
183.260349883021405
 51
237.7960616471401067
  0
ARC
  5
1E3AC
  8
0
 10
4529.4592741155547628
 20
-41.0956374649366509
 30
0.0
 40
0.2090992339204956
 50
144.5695860409192903
 51
180.5248151737299054
  0
ARC
  5
1E3AD
  8
0
 10
4529.5462375479337425
 20
-41.2796707296475986
 30
0.0
 40
0.2383303562651115
 50
40.1048208170101006
 51
111.1136979146088066
  0
ARC
  5
1E3AE
  8
0
 10
4529.5366941745796794
 20
-41.2880224494939725
 30
0.0
 40
0.2510099620977021
 50
352.8490979501393099
 51
40.1596559873799706
  0
ARC
  5
1E3AF
  8
0
 10
4529.5893885164623498
 20
-41.2946334223920672
 30
0.0
 40
0.1979025367313976
 50
316.3978157494734091
 51
352.8490979501393099
  0
ARC
  5
1E3B0
  8
0
 10
4529.4392498296665508
 20
-41.151647368677871
 30
0.0
 40
0.4052347262951898
 50
301.3395254894811046
 51
316.3978157494736934
  0
ENDSEC
  0
EOF
