  0
SECTION
  2
HEADER
  9
$ACADVER
  1
AC1009
  9
$INSBASE
 10
4575.0288389998067942
 20
459.0282607042918812
 30
0.0
  9
$EXTMIN
 10
4518.3237746415179572
 20
448.0282607042830136
 30
0.0
  9
$EXTMAX
 10
4599.4359587714534428
 20
493.4949093291443774
 30
0.0
  9
$LIMMIN
 10
0.0
 20
0.0
  9
$LIMMAX
 10
11.6929133858000007
 20
8.2677165353999982
  9
$ORTHOMODE
 70
     0
  9
$REGENMODE
 70
     1
  9
$FILLMODE
 70
     1
  9
$QTEXTMODE
 70
     0
  9
$MIRRTEXT
 70
     0
  9
$DRAGMODE
 70
     2
  9
$LTSCALE
 40
0.6431102362
  9
$OSMODE
 70
  2039
  9
$ATTMODE
 70
     1
  9
$TEXTSIZE
 40
0.2
  9
$TRACEWID
 40
0.05
  9
$TEXTSTYLE
  7
STANDARD
  9
$CLAYER
  8
0
  9
$CELTYPE
  6
BYLAYER
  9
$CECOLOR
 62
   256
  9
$DIMSCALE
 40
1.0
  9
$DIMASZ
 40
0.1875
  9
$DIMEXO
 40
0.0625
  9
$DIMDLI
 40
0.4443307087
  9
$DIMRND
 40
0.0
  9
$DIMDLE
 40
0.0
  9
$DIMEXE
 40
0.125
  9
$DIMTP
 40
0.01
  9
$DIMTM
 40
0.01
  9
$DIMTXT
 40
2.0
  9
$DIMCEN
 40
0.1052362205
  9
$DIMTSZ
 40
0.0
  9
$DIMTOL
 70
     1
  9
$DIMLIM
 70
     0
  9
$DIMTIH
 70
     1
  9
$DIMTOH
 70
     1
  9
$DIMSE1
 70
     0
  9
$DIMSE2
 70
     0
  9
$DIMTAD
 70
     0
  9
$DIMZIN
 70
     0
  9
$DIMBLK
  1

  9
$DIMASO
 70
     1
  9
$DIMSHO
 70
     1
  9
$DIMPOST
  1
\X
  9
$DIMAPOST
  1

  9
$DIMALT
 70
     1
  9
$DIMALTD
 70
     2
  9
$DIMALTF
 40
25.3999999999999986
  9
$DIMLFAC
 40
1.0
  9
$DIMTOFL
 70
     0
  9
$DIMTVP
 40
0.0
  9
$DIMTIX
 70
     0
  9
$DIMSOXD
 70
     0
  9
$DIMSAH
 70
     0
  9
$DIMBLK1
  1

  9
$DIMBLK2
  1

  9
$DIMSTYLE
  2
STANDARD
  9
$DIMCLRD
 70
     0
  9
$DIMCLRE
 70
     0
  9
$DIMCLRT
 70
     0
  9
$DIMTFAC
 40
1.0
  9
$DIMGAP
 40
0.09
  9
$LUNITS
 70
     2
  9
$LUPREC
 70
     4
  9
$SKETCHINC
 40
0.1
  9
$FILLETRAD
 40
0.0
  9
$AUNITS
 70
     0
  9
$AUPREC
 70
     0
  9
$MENU
  1
.
  9
$ELEVATION
 40
0.0
  9
$PELEVATION
 40
0.0
  9
$THICKNESS
 40
0.0
  9
$LIMCHECK
 70
     0
  9
$BLIPMODE
 70
     0
  9
$CHAMFERA
 40
0.0
  9
$CHAMFERB
 40
0.0
  9
$SKPOLY
 70
     0
  9
$TDCREATE
 40
2458060.468368056230247
  9
$TDUPDATE
 40
2459668.703657406847924
  9
$TDINDWG
 40
1.5284402777999999
  9
$TDUSRTIMER
 40
1.5284402777999999
  9
$USRTIMER
 70
     1
  9
$ANGBASE
 50
0.0
  9
$ANGDIR
 70
     0
  9
$PDMODE
 70
     0
  9
$PDSIZE
 40
0.3125
  9
$PLINEWID
 40
0.0
  9
$COORDS
 70
     1
  9
$SPLFRAME
 70
     0
  9
$SPLINETYPE
 70
     6
  9
$SPLINESEGS
 70
     8
  9
$ATTDIA
 70
     1
  9
$ATTREQ
 70
     1
  9
$HANDLING
 70
     1
  9
$HANDSEED
  5
1CCFE
  9
$SURFTAB1
 70
     6
  9
$SURFTAB2
 70
     6
  9
$SURFTYPE
 70
     6
  9
$SURFU
 70
     6
  9
$SURFV
 70
     6
  9
$UCSNAME
  2

  9
$UCSORG
 10
0.0
 20
0.0
 30
0.0
  9
$UCSXDIR
 10
1.0
 20
0.0
 30
0.0
  9
$UCSYDIR
 10
0.0
 20
1.0
 30
0.0
  9
$PUCSNAME
  2

  9
$PUCSORG
 10
0.0
 20
0.0
 30
0.0
  9
$PUCSXDIR
 10
1.0
 20
0.0
 30
0.0
  9
$PUCSYDIR
 10
0.0
 20
1.0
 30
0.0
  9
$USERI1
 70
     0
  9
$USERI2
 70
     0
  9
$USERI3
 70
     0
  9
$USERI4
 70
     0
  9
$USERI5
 70
     0
  9
$USERR1
 40
0.0
  9
$USERR2
 40
0.0
  9
$USERR3
 40
0.0
  9
$USERR4
 40
0.0
  9
$USERR5
 40
0.0
  9
$WORLDVIEW
 70
     1
  9
$SHADEDGE
 70
     3
  9
$SHADEDIF
 70
    70
  9
$TILEMODE
 70
     1
  9
$MAXACTVP
 70
    64
  9
$PLIMCHECK
 70
     0
  9
$PEXTMIN
 10
1.0000000000000000E+20
 20
1.0000000000000000E+20
 30
1.0000000000000000E+20
  9
$PEXTMAX
 10
-1.0000000000000000E+20
 20
-1.0000000000000000E+20
 30
-1.0000000000000000E+20
  9
$PLIMMIN
 10
0.0
 20
0.0
  9
$PLIMMAX
 10
12.0
 20
9.0
  9
$UNITMODE
 70
     0
  9
$VISRETAIN
 70
     1
  9
$PLINEGEN
 70
     0
  9
$PSLTSCALE
 70
     1
  0
ENDSEC
  0
SECTION
  2
TABLES
  0
TABLE
  2
VPORT
 70
     1
  0
VPORT
  2
*ACTIVE
 70
     0
 10
0.0
 20
0.0
 11
1.0
 21
1.0
 12
662.6948336857577715
 22
318.559568859011506
 13
0.0
 23
0.0
 14
1.0
 24
1.0
 15
0.0
 25
0.0
 16
0.0
 26
0.0
 36
60.4960186965801583
 17
3911.3653564453120453
 27
132.5796051025390057
 37
0.0
 40
104.204224723473601
 41
2.0416666666666661
 42
50.0
 43
0.0
 44
0.0
 50
0.0
 51
0.0
 71
     0
 72
   100
 73
     1
 74
     1
 75
     0
 76
     0
 77
     0
 78
     0
  0
ENDTAB
  0
TABLE
  2
LTYPE
 70
     2
  0
LTYPE
  2
CONTINUOUS
 70
     0
  3
Solid line
 72
    65
 73
     0
 40
0.0
  0
LTYPE
  2
PHANTOM2
 70
     0
  3
___ _ _ ___ _ _ ___ _ _ ___ _ _
 72
    65
 73
     6
 40
1.25
 49
0.625
 49
-0.125
 49
0.125
 49
-0.125
 49
0.125
 49
-0.125
  0
ENDTAB
  0
TABLE
  2
LAYER
 70
     2
  0
LAYER
  2
0
 70
     0
 62
   255
  6
CONTINUOUS
  0
LAYER
  2
DEFPOINTS
 70
     0
 62
     7
  6
CONTINUOUS
  0
ENDTAB
  0
TABLE
  2
STYLE
 70
     1
  0
STYLE
  2
STANDARD
 70
     0
 40
0.0
 41
0.8
 50
0.0
 71
     0
 42
0.2
  3
txt
  4

  0
ENDTAB
  0
TABLE
  2
VIEW
 70
     0
  0
ENDTAB
  0
TABLE
  2
UCS
 70
     0
  0
ENDTAB
  0
TABLE
  2
APPID
 70
    11
  0
APPID
  2
ACAD
 70
     0
  0
APPID
  2
ACAD_MLEADERVER
 70
     0
  0
APPID
  2
ACAD_EXEMPT_FROM_CAD_STANDARDS
 70
     0
  0
APPID
  2
ACAD_NAV_VCDISPLAY
 70
     0
  0
APPID
  2
ACAECLAYERSTANDARD
 70
     0
  0
APPID
  2
ACCMTRANSPARENCY
 70
     0
  0
APPID
  2
ACAD_DSTYLE_DIMJAG
 70
     0
  0
APPID
  2
ACAD_DSTYLE_DIMTALN
 70
     0
  0
APPID
  2
ACDBATTR
 70
     0
  0
APPID
  2
ACADANNOTATIVE
 70
     0
  0
APPID
  2
DCO15
 70
     0
  0
ENDTAB
  0
TABLE
  2
DIMSTYLE
 70
     1
  0
DIMSTYLE
  2
STANDARD
 70
     0
  3

  4

  5

  6

  7

 40
1.0
 41
0.1875
 42
0.0625
 43
0.38
 44
0.125
 45
0.0
 46
0.0
 47
0.01
 48
0.01
140
0.15625
141
0.09
142
0.0
143
25.3999999999999986
144
1.0
145
0.0
146
1.0
147
0.09
 71
     1
 72
     0
 73
     1
 74
     1
 75
     0
 76
     0
 77
     0
 78
     4
170
     0
171
     2
172
     0
173
     0
174
     0
175
     0
176
     0
177
     0
178
     0
  0
ENDTAB
  0
ENDSEC
  0
SECTION
  2
BLOCKS
  0
BLOCK
  8
0
  2
$MODEL_SPACE
 70
     0
 10
0.0
 20
0.0
 30
0.0
  3
$MODEL_SPACE
  1

  0
ENDBLK
  5
21
  8
0
  0
BLOCK
 67
     1
  8
0
  2
$PAPER_SPACE
 70
     0
 10
0.0
 20
0.0
 30
0.0
  3
$PAPER_SPACE
  1

  0
ENDBLK
  5
1D
 67
     1
  8
0
  0
BLOCK
  8
0
  2
_FILLED
 70
     0
 10
0.0
 20
0.0
 30
0.0
  3
_FILLED
  1

  0
SOLID
  5
1B77F
  8
0
  6
BYBLOCK
 62
     0
 10
0.0
 20
0.0
 30
0.0
 11
-1.0
 21
0.1666666667
 31
0.0
 12
-1.0
 22
-0.1666666667
 32
0.0
 13
-1.0
 23
-0.1666666667
 33
0.0
  0
ENDBLK
  5
1B780
  8
0
  6
BYBLOCK
 62
     0
  0
ENDSEC
  0
SECTION
  2
ENTITIES
  0
ATTDEF
  5
159BF
  8
DEFPOINTS
 10
4575.0296634237784019
 20
459.0321403600630106
 30
0.0
 40
0.001
  1
K-R8437-2PC
  3

  2
MODELNUMBER
 70
     0
1001
ACDBATTR
1070
     0
1070
     1
  0
ATTDEF
  5
159C0
  8
DEFPOINTS
 10
4575.0296634237784019
 20
459.0304735196838237
 30
0.0
 40
0.001
  1
KENNON
  3

  2
TRADENAME
 70
     0
1001
ACDBATTR
1070
     0
1070
     1
  0
ATTDEF
  5
159C1
  8
DEFPOINTS
 10
4575.0296634237784019
 20
459.0288070267296234
 30
0.0
 40
0.001
  1
KITCHEN SINK
  3

  2
PRODUCT
 70
     0
1001
ACDBATTR
1070
     0
1070
     1
  0
LINE
  5
1CBA5
  8
0
 10
4558.5288389998077037
 20
469.2811146807828777
 30
0.0
 11
4558.5288389998077037
 21
449.5225527514829196
 31
0.0
  0
LINE
  5
1CBA6
  8
0
 10
4559.475925031107181
 20
449.675996015182875
 30
0.0
 11
4559.4758682127103384
 21
465.4339601935587893
 31
0.0
  0
LINE
  5
1CBA7
  8
0
 10
4560.0231310469080199
 20
448.0282607042830136
 30
0.0
 11
4590.0345469527073874
 21
448.0282607042830136
 31
0.0
  0
LINE
  5
1CBA8
  8
0
 10
4560.1886174405080965
 20
449.1131601947828926
 30
0.0
 11
4589.8690605591073108
 21
449.1131601947828926
 31
0.0
  0
LINE
  5
1CBA9
  8
0
 10
4589.8690606089066932
 20
465.9933612128829168
 30
0.0
 11
4587.2552032306912224
 21
465.9933612128829168
 31
0.0
  0
LINE
  5
1CBAA
  8
0
 10
4586.8022189306238943
 20
465.9933612128829168
 30
0.0
 11
4575.591808858162949
 21
465.9933612128829168
 31
0.0
  0
LINE
  5
1CBAB
  8
0
 10
4574.4894739410019611
 20
465.9933612128829168
 30
0.0
 11
4560.1886173926068295
 21
465.9933612128829168
 31
0.0
  0
LINE
  5
1CBAC
  8
0
 10
4559.275985023407884
 20
470.0282607042829
 30
0.0
 11
4590.7816929762066138
 21
470.0282607043008056
 31
0.0
  0
LINE
  5
1CBAD
  8
0
 10
4590.5817529685082263
 20
465.4305255376829109
 30
0.0
 11
4590.5817529685082263
 21
449.6760027194828808
 31
0.0
  0
LINE
  5
1CBAE
  8
0
 10
4591.5288389998067942
 20
469.2811146807828777
 30
0.0
 11
4591.5288389998067942
 21
449.5225527514469945
 31
0.0
  0
ARC
  5
1CBAF
  8
0
 10
4559.2819902757773889
 20
469.2751094283311772
 30
0.0
 40
0.7531752170318834
 50
90.4568382698806204
 51
179.5431617260481119
  0
ARC
  5
1CBB0
  8
0
 10
4590.7478166811770279
 20
469.2472383856664919
 30
0.0
 40
0.7817566536781375
 50
2.4836075241670819
 51
87.5163924821047061
  0
ARC
  5
1CBB1
  8
0
 10
4590.0342504698555786
 20
449.5228492342341724
 30
0.0
 40
1.494588559358047
 50
270.0113658144242095
 51
359.9886341880445002
  0
ARC
  5
1CBB2
  8
0
 10
4560.0533748713751265
 20
449.5527965758494133
 30
0.0
 40
1.5248358313639501
 50
181.1364876742233037
 51
268.8635123219420962
  0
LINE
  5
1CBB3
  8
0
 10
4560.3598109238073448
 20
465.0281110594829102
 30
0.0
 11
4560.3598052490069676
 21
450.0784046743829094
 31
0.0
  0
LINE
  5
1CBB4
  8
0
 10
4589.6705349379080872
 20
450.10573899308298
 30
0.0
 11
4589.6705349322073744
 21
465.0007789158829041
 31
0.0
  0
ARC
  5
1CBB5
  8
0
 10
4560.9598601709103605
 20
465.0273726673402734
 30
0.0
 40
0.6000497014172903
 50
88.7882132241546742
 51
179.9294945669115009
  0
LINE
  5
1CBB6
  8
0
 10
4560.9725500774211469
 20
465.6272881700936068
 30
0.0
 11
4574.4894739410019611
 21
465.614146783407989
 31
0.0
  0
LINE
  5
1CBB7
  8
0
 10
4575.591808858162949
 20
465.61307507437499
 30
0.0
 11
4586.7979051503707524
 21
465.6021803141396731
 31
0.0
  0
LINE
  5
1CBB8
  8
0
 10
4587.2595246886194218
 20
465.6017315196569939
 30
0.0
 11
4589.0851279221942605
 21
465.5999566366829185
 31
0.0
  0
LINE
  5
1CBB9
  8
0
 10
4560.9726269987559135
 20
449.4791905336945206
 30
0.0
 11
4589.0850510008604033
 21
449.5065781125900912
 31
0.0
  0
ARC
  5
1CBBA
  8
0
 10
4589.0689714615809862
 20
450.107917255279574
 30
0.0
 40
0.6015674200587151
 50
271.5316645250973124
 51
359.7925328082673104
  0
ARC
  5
1CBBB
  8
0
 10
4560.9612296643381342
 20
450.0805106341314854
 30
0.0
 40
0.6014281024540075
 50
180.2006272262700008
 51
271.0858459204491737
  0
ARC
  5
1CBBC
  8
0
 10
4589.0690088048404505
 20
464.9986427259271977
 30
0.0
 40
0.601529920463293
 50
0.2034727148243836
 51
88.4644688014955136
  0
ARC
  5
1CBBD
  8
0
 10
4560.1179234223363892
 20
465.3496666804106212
 30
0.0
 40
0.6475648913950768
 50
83.7325893923839715
 51
172.5205847092086913
  0
ARC
  5
1CBBE
  8
0
 10
4560.1167964708110958
 20
449.7548589682019156
 30
0.0
 40
0.6457054805309344
 50
187.0153100054920117
 51
276.3861486097006832
  0
ARC
  5
1CBBF
  8
0
 10
4589.9413741883108742
 20
449.7542342052128106
 30
0.0
 40
0.6451396340998204
 50
263.5641976169167719
 51
353.0350078174611781
  0
ARC
  5
1CBC0
  8
0
 10
4589.9414579702106494
 20
465.3523923333407879
 30
0.0
 40
0.6450445585112727
 50
6.9572292313406789
 51
96.4442398177072846
  0
ARC
  5
1CBC1
  8
0
 10
4575.0288389998067942
 20
467.9682607042828977
 30
0.0
 40
0.5630919573538856
 50
1.193196209985423
 51
88.7793226376390407
  0
ARC
  5
1CBC2
  8
0
 10
4575.0410192184581319
 20
467.979640071297581
 30
0.0
 40
0.5515848334030548
 50
90.0191693338171888
 51
180.6861830198903078
  0
LINE
  5
1CBC3
  8
0
 10
4574.4733474845315868
 20
465.629221668979028
 30
0.0
 11
4574.4896552435420745
 21
465.6402483603271776
 31
0.0
  0
ARC
  5
1CBC4
  8
0
 10
4575.0400753136700587
 20
459.0909212966597011
 30
0.0
 40
0.9214118839277343
 50
232.0222507514442896
 51
270.0472191130724013
  0
ARC
  5
1CBC5
  8
0
 10
4575.0060251759578023
 20
459.0473042040039218
 30
0.0
 40
0.8660777836824619
 50
190.4325074947639962
 51
232.0222507514442896
  0
ARC
  5
1CBC6
  8
0
 10
4575.3471271421312849
 20
459.1101081982116057
 30
0.0
 40
1.212913325425395
 50
160.7288681672569908
 51
190.4325074947639962
  0
ARC
  5
1CBC7
  8
0
 10
4576.0691562764395712
 20
458.8576655238409217
 30
0.0
 40
1.9778011437579801
 50
149.039859561434497
 51
160.7288681672569908
  0
ARC
  5
1CBC8
  8
0
 10
4572.7638661398359545
 20
460.6255061063312155
 30
0.0
 40
1.775622014857636
 50
335.0011735803428223
 51
346.3688090662732861
  0
LINE
  5
1CBC9
  8
0
 10
4575.591808858162949
 20
467.9799863607223074
 30
0.0
 11
4575.591808858162949
 21
460.1906958931327267
 31
0.0
  0
LINE
  5
1CBCA
  8
0
 10
4574.4894739410019611
 20
467.9730343648677717
 30
0.0
 11
4574.4894739410019611
 21
460.2070431376022839
 31
0.0
  0
ARC
  5
1CBCB
  8
0
 10
4578.5010062255196317
 20
467.9730343648677717
 30
0.0
 40
0.3910477191927
 50
359.9734825739245139
 51
180.0320268655966061
  0
ARC
  5
1CBCC
  8
0
 10
4578.5010062256069432
 20
467.9730325466820204
 30
0.0
 40
0.3910477182680311
 50
180.0317604675257996
 51
359.9737489719985888
  0
ARC
  5
1CBCD
  8
0
 10
4575.0415480758238118
 20
467.9726416854022091
 30
0.0
 40
1.0106450310662971
 50
90.0404442814037509
 51
236.9028142224250928
  0
ARC
  5
1CBCE
  8
0
 10
4575.0415461476222845
 20
467.9753732900163072
 30
0.0
 40
1.00791342577165
 50
58.4256212122372887
 51
90.0404442814037509
  0
ARC
  5
1CBCF
  8
0
 10
4577.3124417182143588
 20
481.8157194668636976
 30
0.0
 40
13.0981532621760408
 50
262.3521918703630149
 51
268.2936718822857074
  0
LINE
  5
1CBD0
  8
0
 10
4576.9224227005315697
 20
468.7233742206789771
 30
0.0
 11
4577.7867068760324401
 21
468.7228849226789862
 31
0.0
  0
ARC
  5
1CBD1
  8
0
 10
4577.9873098449152167
 20
467.2340683676090975
 30
0.0
 40
1.48964362347315
 50
80.3430783383400353
 51
91.8828870178865174
  0
ARC
  5
1CBD2
  8
0
 10
4578.1304352449351427
 20
468.0751937923138826
 30
0.0
 40
0.6364280233956895
 50
19.9285789943758687
 51
80.3430783383400353
  0
ARC
  5
1CBD3
  8
0
 10
4577.7838944595168869
 20
468.5521880121718254
 30
0.0
 40
0.1707200777394553
 50
61.7788130347588123
 51
89.0560753714859459
  0
ARC
  5
1CBD4
  8
0
 10
4579.0750273112626019
 20
467.9735569426032953
 30
0.0
 40
1.4503538821768021
 50
154.2099408972214007
 51
180.0206442715289086
  0
ARC
  5
1CBD5
  8
0
 10
4578.0301828548572303
 20
468.4458543423152719
 30
0.0
 40
0.3055085028834854
 50
122.8102670592054011
 51
148.7005169922379082
  0
ARC
  5
1CBD6
  8
0
 10
4577.9416608802275732
 20
468.5667976651233744
 30
0.0
 40
0.1561448144313586
 50
91.2094338858107108
 51
119.5552944468199001
  0
ARC
  5
1CBD7
  8
0
 10
4579.0671477644145853
 20
467.9640402295921717
 30
0.0
 40
1.5974033467271851
 50
159.4577339784314916
 51
179.6838829886877988
  0
ARC
  5
1CBD8
  8
0
 10
4577.9563404532173081
 20
468.3677613222681089
 30
0.0
 40
0.4157287847316252
 50
128.7355516078411029
 51
157.8408312289311937
  0
ARC
  5
1CBD9
  8
0
 10
4577.7899606378923636
 20
468.5651234334038122
 30
0.0
 40
0.1577950394168394
 50
91.1815329338710967
 51
126.4515641355211955
  0
ARC
  5
1CBDA
  8
0
 10
4577.3124417182143588
 20
454.1299875544941074
 30
0.0
 40
13.0981532621760408
 50
91.7063281177142784
 51
97.5484508941915891
  0
LINE
  5
1CBDB
  8
0
 10
4576.9224227005315697
 20
467.2223328006789984
 30
0.0
 11
4577.7867068760324401
 21
467.2228220986789893
 31
0.0
  0
ARC
  5
1CBDC
  8
0
 10
4577.9873098449152167
 20
468.7116386537488211
 30
0.0
 40
1.48964362347315
 50
268.1171129821133832
 51
279.6569216616599078
  0
ARC
  5
1CBDD
  8
0
 10
4578.1304352449351427
 20
467.8705132290439224
 30
0.0
 40
0.6364280233956895
 50
279.6569216616599078
 51
340.0714210056240745
  0
ARC
  5
1CBDE
  8
0
 10
4577.7838944595168869
 20
467.3935190091862069
 30
0.0
 40
0.1707200777394553
 50
270.9439246285140257
 51
298.221186965241202
  0
ARC
  5
1CBDF
  8
0
 10
4579.0750306033878587
 20
467.9721512340523759
 30
0.0
 40
1.4503573490284789
 50
179.9651122727505879
 51
205.7900436131305923
  0
ARC
  5
1CBE0
  8
0
 10
4578.0301828548572303
 20
467.4998526790425899
 30
0.0
 40
0.3055085028834854
 50
211.2994830077620065
 51
237.1897329407944994
  0
ARC
  5
1CBE1
  8
0
 10
4577.9416608802275732
 20
467.3789093562346011
 30
0.0
 40
0.1561448144313586
 50
240.4447055531801993
 51
268.7905661141892892
  0
ARC
  5
1CBE2
  8
0
 10
4579.1615820689703469
 20
467.99904846845061
 30
0.0
 40
1.692016119388474
 50
180.8870603936566965
 51
199.9713226392111096
  0
ARC
  5
1CBE3
  8
0
 10
4577.9563404532173081
 20
467.5779456990896961
 30
0.0
 40
0.4157287847316252
 50
202.1591687710686926
 51
231.2644483921588119
  0
ARC
  5
1CBE4
  8
0
 10
4577.7899606378923636
 20
467.3805835879541064
 30
0.0
 40
0.1577950394168394
 50
233.5484358644787903
 51
268.8184670661289033
  0
ARC
  5
1CBE5
  8
0
 10
4575.0588865249110313
 20
460.7109445828339176
 30
0.0
 40
0.5951983557575929
 50
196.9268970186450929
 51
268.2620022595929754
  0
ARC
  5
1CBE6
  8
0
 10
4575.0227828267516088
 20
460.7109445828339176
 30
0.0
 40
0.5951983557575929
 50
271.7379977404069109
 51
342.9457620366713968
  0
ARC
  5
1CBE7
  8
0
 10
4575.0415940379925814
 20
459.0909212966597011
 30
0.0
 40
0.9214118839277343
 50
269.9527808869277123
 51
307.9777492485557104
  0
ARC
  5
1CBE8
  8
0
 10
4575.0756441757048378
 20
459.0473042040039218
 30
0.0
 40
0.8660777836824619
 50
307.9777492485557104
 51
349.5674925052359754
  0
ARC
  5
1CBE9
  8
0
 10
4574.7345422095322647
 20
459.1101081982116057
 30
0.0
 40
1.212913325425395
 50
349.5674925052359754
 51
19.2711318327429986
  0
ARC
  5
1CBEA
  8
0
 10
4574.0125130752230689
 20
458.8576655238409217
 30
0.0
 40
1.9778011437579801
 50
19.2711318327429986
 51
30.9601404385655385
  0
ARC
  5
1CBEB
  8
0
 10
4577.0091180542658549
 20
460.5355475745101899
 30
0.0
 40
1.4586596722690031
 50
193.6751541924097921
 51
206.9207266905652034
  0
LINE
  5
1CBEC
  8
0
 10
4575.6083218671310533
 20
465.629221668979028
 30
0.0
 11
4575.5920141081196562
 21
465.6402483603271776
 31
0.0
  0
ARC
  5
1CBED
  8
0
 10
4587.0295895507133537
 20
464.7803993105844143
 30
0.0
 40
0.2559982695614551
 50
177.5773769644567039
 51
269.8033864624648004
  0
ARC
  5
1CBEE
  8
0
 10
4554.5862400774822163
 20
466.1530113939271018
 30
0.0
 40
32.2163744336063615
 50
357.5773769644534923
 51
0.4859461570965954
  0
ARC
  5
1CBEF
  8
0
 10
4580.2679246108673397
 20
466.3708322397670827
 30
0.0
 40
6.5337661861344571
 50
0.4859461570965954
 51
6.2831702211618552
  0
ARC
  5
1CBF0
  8
0
 10
4586.0193875324312103
 20
467.0295541407137989
 30
0.0
 40
0.7451893912575671
 50
4.3366596065673084
 51
34.6430290911959773
  0
ARC
  5
1CBF1
  8
0
 10
4587.0288089565074188
 20
467.9682609660828803
 30
0.0
 40
0.6499337478482162
 50
307.53056162026121
 51
232.4230332415642124
  0
ARC
  5
1CBF2
  8
0
 10
4587.0288089565074188
 20
467.9682609660828803
 30
0.0
 40
1.0006340810579559
 50
284.906879815819309
 51
255.0812134313711113
  0
ARC
  5
1CBF3
  8
0
 10
4587.027832610601763
 20
464.7803993105844143
 30
0.0
 40
0.2559982695614551
 50
270.1966135375350859
 51
2.4226230355432352
  0
ARC
  5
1CBF4
  8
0
 10
4619.4711820838319909
 20
466.1530113939271018
 30
0.0
 40
32.2163744336063615
 50
179.5140538429033938
 51
182.4226230355432108
  0
ARC
  5
1CBF5
  8
0
 10
4593.789497550447777
 20
466.3708322397670827
 30
0.0
 40
6.5337661861344571
 50
173.7168297788381039
 51
179.5140538429033938
  0
ARC
  5
1CBF6
  8
0
 10
4588.0380346288848159
 20
467.0295541407137989
 30
0.0
 40
0.7451893912576021
 50
145.3869501821606889
 51
175.6633403934326907
  0
CIRCLE
  5
1CBF8
  8
0
 10
4584.1038389998084313
 20
457.5532607042829909
 30
0.0
 40
0.31
  0
CIRCLE
  5
1CBF9
  8
0
 10
4584.1038389998084313
 20
457.5532607042829909
 30
0.0
 40
0.2760925586
  0
CIRCLE
  5
1CBFA
  8
0
 10
4584.1038389998084313
 20
457.5532607042829909
 30
0.0
 40
2.25
  0
CIRCLE
  5
1CBFB
  8
0
 10
4584.1038389998084313
 20
457.5532607042829909
 30
0.0
 40
1.6780895467000001
  0
ENDSEC
  0
EOF
