  0
SECTION
  2
HEADER
  9
$ACADVER
  1
AC1009
  9
$INSBASE
 10
3396.5028446052701838
 20
134.0094472833617942
 30
0.0
  9
$EXTMIN
 10
3382.8838466948768655
 20
130.6110301889910943
 30
-0.0015258207003583
  9
$EXTMAX
 10
3396.6179168185890376
 20
135.618772549782193
 30
0.0000000349246037
  9
$LIMMIN
 10
0.0
 20
0.0
  9
$LIMMAX
 10
11.6929133858000007
 20
8.2677165353999982
  9
$ORTHOMODE
 70
     1
  9
$REGENMODE
 70
     1
  9
$FILLMODE
 70
     1
  9
$QTEXTMODE
 70
     0
  9
$MIRRTEXT
 70
     0
  9
$DRAGMODE
 70
     2
  9
$LTSCALE
 40
0.6431102362
  9
$OSMODE
 70
  4095
  9
$ATTMODE
 70
     1
  9
$TEXTSIZE
 40
0.2
  9
$TRACEWID
 40
0.05
  9
$TEXTSTYLE
  7
STANDARD
  9
$CLAYER
  8
0
  9
$CELTYPE
  6
BYLAYER
  9
$CECOLOR
 62
   256
  9
$DIMSCALE
 40
1.0
  9
$DIMASZ
 40
0.1875
  9
$DIMEXO
 40
0.0625
  9
$DIMDLI
 40
0.4443307087
  9
$DIMRND
 40
0.0
  9
$DIMDLE
 40
0.0
  9
$DIMEXE
 40
0.125
  9
$DIMTP
 40
0.01
  9
$DIMTM
 40
0.01
  9
$DIMTXT
 40
2.0
  9
$DIMCEN
 40
0.1052362205
  9
$DIMTSZ
 40
0.0
  9
$DIMTOL
 70
     1
  9
$DIMLIM
 70
     0
  9
$DIMTIH
 70
     1
  9
$DIMTOH
 70
     1
  9
$DIMSE1
 70
     0
  9
$DIMSE2
 70
     0
  9
$DIMTAD
 70
     0
  9
$DIMZIN
 70
     0
  9
$DIMBLK
  1

  9
$DIMASO
 70
     1
  9
$DIMSHO
 70
     1
  9
$DIMPOST
  1
\X
  9
$DIMAPOST
  1

  9
$DIMALT
 70
     1
  9
$DIMALTD
 70
     2
  9
$DIMALTF
 40
25.3999999999999986
  9
$DIMLFAC
 40
1.0
  9
$DIMTOFL
 70
     0
  9
$DIMTVP
 40
0.0
  9
$DIMTIX
 70
     0
  9
$DIMSOXD
 70
     0
  9
$DIMSAH
 70
     0
  9
$DIMBLK1
  1

  9
$DIMBLK2
  1

  9
$DIMSTYLE
  2
STANDARD
  9
$DIMCLRD
 70
     0
  9
$DIMCLRE
 70
     0
  9
$DIMCLRT
 70
     0
  9
$DIMTFAC
 40
1.0
  9
$DIMGAP
 40
0.09
  9
$LUNITS
 70
     2
  9
$LUPREC
 70
     4
  9
$SKETCHINC
 40
0.1
  9
$FILLETRAD
 40
0.0
  9
$AUNITS
 70
     0
  9
$AUPREC
 70
     0
  9
$MENU
  1
.
  9
$ELEVATION
 40
0.0
  9
$PELEVATION
 40
0.0
  9
$THICKNESS
 40
0.0
  9
$LIMCHECK
 70
     0
  9
$BLIPMODE
 70
     0
  9
$CHAMFERA
 40
0.0
  9
$CHAMFERB
 40
0.0
  9
$SKPOLY
 70
     0
  9
$TDCREATE
 40
2458060.468368056230247
  9
$TDUPDATE
 40
2459537.5328703708946705
  9
$TDINDWG
 40
0.3844399306
  9
$TDUSRTIMER
 40
0.3844399306
  9
$USRTIMER
 70
     1
  9
$ANGBASE
 50
0.0
  9
$ANGDIR
 70
     0
  9
$PDMODE
 70
     0
  9
$PDSIZE
 40
0.3125
  9
$PLINEWID
 40
0.0
  9
$COORDS
 70
     1
  9
$SPLFRAME
 70
     0
  9
$SPLINETYPE
 70
     6
  9
$SPLINESEGS
 70
     8
  9
$ATTDIA
 70
     1
  9
$ATTREQ
 70
     1
  9
$HANDLING
 70
     1
  9
$HANDSEED
  5
1A03A
  9
$SURFTAB1
 70
     6
  9
$SURFTAB2
 70
     6
  9
$SURFTYPE
 70
     6
  9
$SURFU
 70
     6
  9
$SURFV
 70
     6
  9
$UCSNAME
  2

  9
$UCSORG
 10
0.0
 20
0.0
 30
0.0
  9
$UCSXDIR
 10
1.0
 20
0.0
 30
0.0
  9
$UCSYDIR
 10
0.0
 20
1.0
 30
0.0
  9
$PUCSNAME
  2

  9
$PUCSORG
 10
0.0
 20
0.0
 30
0.0
  9
$PUCSXDIR
 10
1.0
 20
0.0
 30
0.0
  9
$PUCSYDIR
 10
0.0
 20
1.0
 30
0.0
  9
$USERI1
 70
     0
  9
$USERI2
 70
     0
  9
$USERI3
 70
     0
  9
$USERI4
 70
     0
  9
$USERI5
 70
     0
  9
$USERR1
 40
0.0
  9
$USERR2
 40
0.0
  9
$USERR3
 40
0.0
  9
$USERR4
 40
0.0
  9
$USERR5
 40
0.0
  9
$WORLDVIEW
 70
     1
  9
$SHADEDGE
 70
     3
  9
$SHADEDIF
 70
    70
  9
$TILEMODE
 70
     1
  9
$MAXACTVP
 70
    64
  9
$PLIMCHECK
 70
     0
  9
$PEXTMIN
 10
1.0000000000000000E+20
 20
1.0000000000000000E+20
 30
1.0000000000000000E+20
  9
$PEXTMAX
 10
-1.0000000000000000E+20
 20
-1.0000000000000000E+20
 30
-1.0000000000000000E+20
  9
$PLIMMIN
 10
0.0
 20
0.0
  9
$PLIMMAX
 10
12.0
 20
9.0
  9
$UNITMODE
 70
     0
  9
$VISRETAIN
 70
     1
  9
$PLINEGEN
 70
     0
  9
$PSLTSCALE
 70
     1
  0
ENDSEC
  0
SECTION
  2
TABLES
  0
TABLE
  2
VPORT
 70
     1
  0
VPORT
  2
*ACTIVE
 70
     0
 10
0.0
 20
0.0
 11
1.0
 21
1.0
 12
-413.7931856260792074
 22
7.1196391726367523
 13
0.0
 23
0.0
 14
1.0
 24
1.0
 15
0.0
 25
0.0
 16
0.0
 26
0.0
 36
17.1152628219792007
 17
3803.5440673828129547
 27
125.9952621967499056
 37
0.0
 40
5.8756503288808082
 41
2.344785276073619
 42
50.0
 43
0.0
 44
0.0
 50
0.0
 51
0.0
 71
     0
 72
   100
 73
     1
 74
     1
 75
     0
 76
     0
 77
     0
 78
     0
  0
ENDTAB
  0
TABLE
  2
LTYPE
 70
     2
  0
LTYPE
  2
CONTINUOUS
 70
     0
  3
Solid line
 72
    65
 73
     0
 40
0.0
  0
LTYPE
  2
PHANTOM2
 70
     0
  3
___ _ _ ___ _ _ ___ _ _ ___ _ _
 72
    65
 73
     6
 40
1.25
 49
0.625
 49
-0.125
 49
0.125
 49
-0.125
 49
0.125
 49
-0.125
  0
ENDTAB
  0
TABLE
  2
LAYER
 70
     2
  0
LAYER
  2
0
 70
     0
 62
   255
  6
CONTINUOUS
  0
LAYER
  2
DEFPOINTS
 70
     0
 62
     7
  6
CONTINUOUS
  0
ENDTAB
  0
TABLE
  2
STYLE
 70
     1
  0
STYLE
  2
STANDARD
 70
     0
 40
0.0
 41
0.8
 50
0.0
 71
     0
 42
0.2
  3
txt
  4

  0
ENDTAB
  0
TABLE
  2
VIEW
 70
     0
  0
ENDTAB
  0
TABLE
  2
UCS
 70
     0
  0
ENDTAB
  0
TABLE
  2
APPID
 70
     9
  0
APPID
  2
ACAD
 70
     0
  0
APPID
  2
ACAD_MLEADERVER
 70
     0
  0
APPID
  2
ACAD_EXEMPT_FROM_CAD_STANDARDS
 70
     0
  0
APPID
  2
ACAD_NAV_VCDISPLAY
 70
     0
  0
APPID
  2
ACAECLAYERSTANDARD
 70
     0
  0
APPID
  2
ACCMTRANSPARENCY
 70
     0
  0
APPID
  2
ACAD_DSTYLE_DIMJAG
 70
     0
  0
APPID
  2
ACAD_DSTYLE_DIMTALN
 70
     0
  0
APPID
  2
ACDBATTR
 70
     0
  0
ENDTAB
  0
TABLE
  2
DIMSTYLE
 70
     1
  0
DIMSTYLE
  2
STANDARD
 70
     0
  3

  4

  5

  6

  7

 40
1.0
 41
0.1875
 42
0.0625
 43
0.38
 44
0.125
 45
0.0
 46
0.0
 47
0.01
 48
0.01
140
0.15625
141
0.09
142
0.0
143
25.3999999999999986
144
1.0
145
0.0
146
1.0
147
0.09
 71
     1
 72
     0
 73
     1
 74
     1
 75
     0
 76
     0
 77
     0
 78
     4
170
     0
171
     2
172
     0
173
     0
174
     0
175
     0
176
     0
177
     0
178
     0
  0
ENDTAB
  0
ENDSEC
  0
SECTION
  2
BLOCKS
  0
BLOCK
  8
0
  2
$MODEL_SPACE
 70
     0
 10
0.0
 20
0.0
 30
0.0
  3
$MODEL_SPACE
  1

  0
ENDBLK
  5
21
  8
0
  0
BLOCK
 67
     1
  8
0
  2
$PAPER_SPACE
 70
     0
 10
0.0
 20
0.0
 30
0.0
  3
$PAPER_SPACE
  1

  0
ENDBLK
  5
1D
 67
     1
  8
0
  0
BLOCK
  8
0
  2
_FILLED
 70
     0
 10
0.0
 20
0.0
 30
0.0
  3
_FILLED
  1

  0
SOLID
  5
19486
  8
0
  6
BYBLOCK
 62
     0
 10
0.0
 20
0.0
 30
0.0
 11
-1.0
 21
0.1666666667
 31
0.0
 12
-1.0
 22
-0.1666666667
 32
0.0
 13
-1.0
 23
-0.1666666667
 33
0.0
  0
ENDBLK
  5
19487
  8
0
  6
BYBLOCK
 62
     0
  0
ENDSEC
  0
SECTION
  2
ENTITIES
  0
ATTDEF
  5
19AD2
  8
DEFPOINTS
 10
3396.5035888545271519
 20
134.0141915156578136
 30
0.0
 40
0.001
  1
K-R9071T
  3

  2
MODELNUMBER
 70
     0
1001
ACDBATTR
1070
     0
1070
     1
  0
ATTDEF
  5
19AD3
  8
DEFPOINTS
 10
3396.5035888545271519
 20
134.0125248489912053
 30
0.0
 40
0.001
  1
DRAFT
  3

  2
TRADENAME
 70
     0
1001
ACDBATTR
1070
     0
1070
     1
  0
ATTDEF
  5
19AD4
  8
DEFPOINTS
 10
3396.5035888545271519
 20
134.0108581823245117
 30
0.0
 40
0.001
  1
BOTTLE TRAP
  3

  2
PRODUCT
 70
     0
1001
ACDBATTR
1070
     0
1070
     1
  0
LINE
  5
19F8E
  8
0
 10
3383.0154474646701601
 20
130.6137779920117907
 30
0.0
 11
3384.9839514016698558
 21
130.6137779920117907
 31
0.0
  0
LINE
  5
19F8F
  8
0
 10
3383.0154474646701601
 20
135.1807071259117947
 30
0.0
 11
3384.9839514016698558
 21
135.1807071259117947
 31
0.0
  0
LINE
  5
19F90
  8
0
 10
3396.5028446052701838
 20
135.2988173621118051
 30
0.0
 11
3396.5028446052701838
 21
132.7200772046118118
 31
0.0
  0
LINE
  5
19F91
  8
0
 10
3395.7272540540698174
 20
132.8775575196117984
 30
0.0
 11
3395.7272540540698174
 21
135.1413370472118061
 31
0.0
  0
LINE
  5
19F92
  8
0
 10
3395.7272540540698174
 20
134.634447283411788
 30
0.0
 11
3386.3422191181698508
 21
134.634447283411788
 31
0.0
  0
LINE
  5
19F93
  8
0
 10
3395.7272540540698174
 20
133.384447283411788
 30
0.0
 11
3386.3422191181698508
 21
133.384447283411788
 31
0.0
  0
LINE
  5
19F94
  8
0
 10
3395.8847287569310538
 20
135.2988173621118051
 30
0.0
 11
3396.5028446052701838
 21
135.2988173621118051
 31
0.0
  0
LINE
  5
19F95
  8
0
 10
3395.884734369069065
 20
132.7200772046118118
 30
0.0
 11
3396.5028446052701838
 21
132.7200772046118118
 31
0.0
  0
ARC
  5
19F96
  8
0
 10
3395.884734369069065
 20
132.8775575196117984
 30
0.0
 40
0.1574803149999973
 50
180.0
 51
270.0
  0
ARC
  5
19F97
  8
0
 10
3395.884734369069065
 20
135.1413370472118061
 30
0.0
 40
0.1574803150000142
 50
90.0020418540784988
 51
179.9999999999951115
  0
LINE
  5
19F98
  8
0
 10
3386.3422191181698508
 20
134.8814945275117907
 30
0.0
 11
3386.3422191181698508
 21
133.1374000393118138
 31
0.0
  0
LINE
  5
19F99
  8
0
 10
3385.9091482520698264
 20
134.8854315353117954
 30
0.0
 11
3385.9091482520698264
 21
133.1334630314117931
 31
0.0
  0
LINE
  5
19F9A
  8
0
 10
3384.9800143937700341
 20
135.6059039763117937
 30
0.0
 11
3384.9800143937700341
 21
135.1925181495118125
 31
0.0
  0
LINE
  5
19F9B
  8
0
 10
3383.0154474646701601
 20
135.1807071259117947
 30
0.0
 11
3383.0154474646701601
 21
130.6137779920117907
 31
0.0
  0
LINE
  5
19F9C
  8
0
 10
3383.0193844725699819
 20
135.1925181495118125
 30
0.0
 11
3383.0193844725699819
 21
135.6059039763117937
 31
0.0
  0
ARC
  5
19F9D
  8
0
 10
3383.0272584882700357
 20
135.1925181495118125
 30
0.0
 40
0.0078740157000015
 50
180.0000000000129887
 51
269.9999999999739089
  0
LINE
  5
19F9E
  8
0
 10
3383.0272584882700357
 20
135.6137779920117907
 30
0.0
 11
3384.9721403780699802
 21
135.6137779920117907
 31
0.0
  0
ARC
  5
19F9F
  8
0
 10
3383.0272584882700357
 20
135.6059039763117937
 30
0.0
 40
0.0078740156999997
 50
90.0
 51
180.0
  0
ARC
  5
19FA0
  8
0
 10
3384.9721403780699802
 20
135.6059039763117937
 30
0.0
 40
0.007874015699997
 50
359.9999999999674856
 51
90.0
  0
LINE
  5
19FA1
  8
0
 10
3385.9091482520698264
 20
134.8854315353117954
 30
0.0
 11
3384.9839514016398425
 21
134.8854315353117954
 31
0.0
  0
LINE
  5
19FA2
  8
0
 10
3385.9091482520698264
 20
133.1334630314117931
 30
0.0
 11
3384.9839514016698558
 21
133.1334630314117931
 31
0.0
  0
ARC
  5
19FA3
  8
0
 10
3385.917060486542141
 20
133.13747733535169
 30
0.0
 40
0.0079514036906053
 50
185.6894020236447886
 51
269.7246042501187162
  0
LINE
  5
19FA4
  8
0
 10
3385.9170222677698803
 20
133.1295260235118008
 30
0.0
 11
3386.334345102469797
 21
133.1295260235118008
 31
0.0
  0
ARC
  5
19FA5
  8
0
 10
3386.334345102298812
 20
133.1374000393824986
 30
0.0
 40
0.0078740158707094
 50
270.0000012422032114
 51
359.9999994854833858
  0
ARC
  5
19FA6
  8
0
 10
3385.9170629985478627
 20
134.8814252741053963
 30
0.0
 40
0.0079433735334611
 50
90.2937935463425561
 51
175.1342028965233908
  0
LINE
  5
19FA7
  8
0
 10
3385.9170222677698803
 20
134.8893685432117877
 30
0.0
 11
3386.334345102469797
 21
134.8893685432117877
 31
0.0
  0
ARC
  5
19FA8
  8
0
 10
3386.334345102469797
 20
134.8814945275117907
 30
0.0
 40
0.0078740156999997
 50
359.9999999999935199
 51
90.0
  0
LINE
  5
19FA9
  8
0
 10
3384.9839514016698558
 20
135.1807071259117947
 30
0.0
 11
3384.9839514016698558
 21
134.8854315353117954
 31
0.0
  0
ARC
  5
19FAA
  8
0
 10
3389.0991453118917889
 20
131.1544178321437073
 30
0.0
 40
5.5547532953279983
 50
137.8031808402695901
 51
143.196590690632803
  0
ARC
  5
19FAB
  8
0
 10
3385.8037320800121961
 20
133.6166837691033891
 30
0.0
 40
1.4410597471064741
 50
143.0907710474396879
 51
154.7538531564767936
  0
ARC
  5
19FAC
  8
0
 10
3384.9740621530368117
 20
134.0050471025060972
 30
0.0
 40
0.5250030791424019
 50
154.4709287872786092
 51
213.5311320365977963
  0
ARC
  5
19FAD
  8
0
 10
3386.8114874988650627
 20
135.0621345210022923
 30
0.0
 40
2.6439670915238129
 50
210.6303452958593994
 51
220.9797575295509091
  0
ARC
  5
19FAE
  8
0
 10
3391.1595777961820204
 20
138.6463169200441996
 30
0.0
 40
8.2782799760802064
 50
219.9719971738082052
 51
221.754629665329503
  0
LINE
  5
19FAF
  8
0
 10
3384.9839514016398425
 20
133.1334630314117931
 30
0.0
 11
3384.9839514016698558
 21
130.6137779920117907
 31
0.0
  0
LINE
  5
19FB0
  8
0
 10
3383.0272584882700357
 20
135.184644133811787
 30
0.0
 11
3384.9721403780699802
 21
135.184644133811787
 31
0.0
  0
LINE
  5
19FB1
  8
0
 10
3383.2319828977701945
 20
135.184644133811787
 30
0.0
 11
3383.2319828977701945
 21
135.1807071259117947
 31
0.0
  0
LINE
  5
19FB2
  8
0
 10
3384.7674159685698214
 20
135.184644133811787
 30
0.0
 11
3384.7674159685698214
 21
135.1807071259117947
 31
0.0
  0
ARC
  5
19FB3
  8
0
 10
3384.9721403780699802
 20
135.1925181495118125
 30
0.0
 40
0.0078740157000003
 50
271.1238494354101931
 51
0.0
  0
ENDSEC
  0
EOF
