  0
SECTION
  2
HEADER
  9
$ACADVER
  1
AC1009
  9
$INSBASE
 10
995.747388310832207
 20
138.8259563450041867
 30
0.0
  9
$EXTMIN
 10
993.5376102101422475
 20
135.4311417809564091
 30
-0.0000000000000058
  9
$EXTMAX
 10
997.9252241239287287
 20
139.3842876746738
 30
0.0000000000000104
  9
$LIMMIN
 10
0.0
 20
0.0
  9
$LIMMAX
 10
11.6929133858000007
 20
8.2677165353999982
  9
$ORTHOMODE
 70
     0
  9
$REGENMODE
 70
     1
  9
$FILLMODE
 70
     1
  9
$QTEXTMODE
 70
     0
  9
$MIRRTEXT
 70
     0
  9
$DRAGMODE
 70
     2
  9
$LTSCALE
 40
0.6431102362
  9
$OSMODE
 70
  4095
  9
$ATTMODE
 70
     1
  9
$TEXTSIZE
 40
0.2
  9
$TRACEWID
 40
0.05
  9
$TEXTSTYLE
  7
STANDARD
  9
$CLAYER
  8
0
  9
$CELTYPE
  6
BYLAYER
  9
$CECOLOR
 62
   256
  9
$DIMSCALE
 40
1.0
  9
$DIMASZ
 40
0.1875
  9
$DIMEXO
 40
0.0625
  9
$DIMDLI
 40
0.4443307087
  9
$DIMRND
 40
0.0
  9
$DIMDLE
 40
0.0
  9
$DIMEXE
 40
0.125
  9
$DIMTP
 40
0.01
  9
$DIMTM
 40
0.01
  9
$DIMTXT
 40
1.0
  9
$DIMCEN
 40
0.1052362205
  9
$DIMTSZ
 40
0.0
  9
$DIMTOL
 70
     1
  9
$DIMLIM
 70
     0
  9
$DIMTIH
 70
     0
  9
$DIMTOH
 70
     1
  9
$DIMSE1
 70
     0
  9
$DIMSE2
 70
     0
  9
$DIMTAD
 70
     0
  9
$DIMZIN
 70
     0
  9
$DIMBLK
  1

  9
$DIMASO
 70
     1
  9
$DIMSHO
 70
     1
  9
$DIMPOST
  1
\X
  9
$DIMAPOST
  1

  9
$DIMALT
 70
     1
  9
$DIMALTD
 70
     2
  9
$DIMALTF
 40
25.3999999999999986
  9
$DIMLFAC
 40
1.0
  9
$DIMTOFL
 70
     0
  9
$DIMTVP
 40
0.0
  9
$DIMTIX
 70
     0
  9
$DIMSOXD
 70
     0
  9
$DIMSAH
 70
     0
  9
$DIMBLK1
  1

  9
$DIMBLK2
  1

  9
$DIMSTYLE
  2
STANDARD
  9
$DIMCLRD
 70
     0
  9
$DIMCLRE
 70
     0
  9
$DIMCLRT
 70
     0
  9
$DIMTFAC
 40
1.0
  9
$DIMGAP
 40
0.09
  9
$LUNITS
 70
     2
  9
$LUPREC
 70
     4
  9
$SKETCHINC
 40
0.1
  9
$FILLETRAD
 40
0.0
  9
$AUNITS
 70
     0
  9
$AUPREC
 70
     0
  9
$MENU
  1
.
  9
$ELEVATION
 40
0.0
  9
$PELEVATION
 40
0.0
  9
$THICKNESS
 40
0.0
  9
$LIMCHECK
 70
     0
  9
$BLIPMODE
 70
     0
  9
$CHAMFERA
 40
0.0
  9
$CHAMFERB
 40
0.0
  9
$SKPOLY
 70
     0
  9
$TDCREATE
 40
2458172.5207638889551163
  9
$TDUPDATE
 40
2459152.8771180561743677
  9
$TDINDWG
 40
0.4486696991
  9
$TDUSRTIMER
 40
0.4486696991
  9
$USRTIMER
 70
     1
  9
$ANGBASE
 50
0.0
  9
$ANGDIR
 70
     0
  9
$PDMODE
 70
     0
  9
$PDSIZE
 40
0.3125
  9
$PLINEWID
 40
0.0
  9
$COORDS
 70
     1
  9
$SPLFRAME
 70
     0
  9
$SPLINETYPE
 70
     6
  9
$SPLINESEGS
 70
     8
  9
$ATTDIA
 70
     1
  9
$ATTREQ
 70
     1
  9
$HANDLING
 70
     1
  9
$HANDSEED
  5
C028
  9
$SURFTAB1
 70
     6
  9
$SURFTAB2
 70
     6
  9
$SURFTYPE
 70
     6
  9
$SURFU
 70
     6
  9
$SURFV
 70
     6
  9
$UCSNAME
  2

  9
$UCSORG
 10
0.0
 20
0.0
 30
0.0
  9
$UCSXDIR
 10
1.0
 20
0.0
 30
0.0
  9
$UCSYDIR
 10
0.0
 20
1.0
 30
0.0
  9
$PUCSNAME
  2

  9
$PUCSORG
 10
0.0
 20
0.0
 30
0.0
  9
$PUCSXDIR
 10
1.0
 20
0.0
 30
0.0
  9
$PUCSYDIR
 10
0.0
 20
1.0
 30
0.0
  9
$USERI1
 70
     0
  9
$USERI2
 70
     0
  9
$USERI3
 70
     0
  9
$USERI4
 70
     0
  9
$USERI5
 70
     0
  9
$USERR1
 40
0.0
  9
$USERR2
 40
0.0
  9
$USERR3
 40
0.0
  9
$USERR4
 40
0.0
  9
$USERR5
 40
0.0
  9
$WORLDVIEW
 70
     1
  9
$SHADEDGE
 70
     3
  9
$SHADEDIF
 70
    70
  9
$TILEMODE
 70
     1
  9
$MAXACTVP
 70
    64
  9
$PLIMCHECK
 70
     0
  9
$PEXTMIN
 10
1.0000000000000000E+20
 20
1.0000000000000000E+20
 30
1.0000000000000000E+20
  9
$PEXTMAX
 10
-1.0000000000000000E+20
 20
-1.0000000000000000E+20
 30
-1.0000000000000000E+20
  9
$PLIMMIN
 10
0.0
 20
0.0
  9
$PLIMMAX
 10
12.0
 20
9.0
  9
$UNITMODE
 70
     0
  9
$VISRETAIN
 70
     1
  9
$PLINEGEN
 70
     0
  9
$PSLTSCALE
 70
     1
  0
ENDSEC
  0
SECTION
  2
TABLES
  0
TABLE
  2
VPORT
 70
     1
  0
VPORT
  2
*ACTIVE
 70
     0
 10
0.0
 20
0.0
 11
1.0
 21
1.0
 12
528.9892154592052975
 22
48.2745676078853521
 13
0.0
 23
0.0
 14
1.0
 24
1.0
 15
0.0
 25
0.0
 16
0.0
 26
0.0
 36
24.1179433675886514
 17
466.74220170783002
 27
89.133147119929788
 37
0.0
 40
4.0043341048795966
 41
2.887234042553191
 42
50.0
 43
0.0
 44
0.0
 50
0.0
 51
0.0
 71
     0
 72
   100
 73
     1
 74
     1
 75
     0
 76
     0
 77
     0
 78
     0
  0
ENDTAB
  0
TABLE
  2
LTYPE
 70
     2
  0
LTYPE
  2
CONTINUOUS
 70
     0
  3
Solid line
 72
    65
 73
     0
 40
0.0
  0
LTYPE
  2
PHANTOM2
 70
     0
  3
___ _ _ ___ _ _ ___ _ _ ___ _ _
 72
    65
 73
     6
 40
1.25
 49
0.625
 49
-0.125
 49
0.125
 49
-0.125
 49
0.125
 49
-0.125
  0
ENDTAB
  0
TABLE
  2
LAYER
 70
     2
  0
LAYER
  2
0
 70
     0
 62
   255
  6
CONTINUOUS
  0
LAYER
  2
DEFPOINTS
 70
     0
 62
     7
  6
CONTINUOUS
  0
ENDTAB
  0
TABLE
  2
STYLE
 70
     1
  0
STYLE
  2
STANDARD
 70
     0
 40
0.0
 41
0.8
 50
0.0
 71
     0
 42
0.2
  3
txt
  4

  0
ENDTAB
  0
TABLE
  2
VIEW
 70
     0
  0
ENDTAB
  0
TABLE
  2
UCS
 70
     0
  0
ENDTAB
  0
TABLE
  2
APPID
 70
    11
  0
APPID
  2
ACAD
 70
     0
  0
APPID
  2
ACAD_MLEADERVER
 70
     0
  0
APPID
  2
ACAD_EXEMPT_FROM_CAD_STANDARDS
 70
     0
  0
APPID
  2
ACAD_DSTYLE_DIMJAG
 70
     0
  0
APPID
  2
ACAD_DSTYLE_DIMTALN
 70
     0
  0
APPID
  2
ACAD_NAV_VCDISPLAY
 70
     0
  0
APPID
  2
ACAECLAYERSTANDARD
 70
     0
  0
APPID
  2
ACCMTRANSPARENCY
 70
     0
  0
APPID
  2
DCO15
 70
     0
  0
APPID
  2
ACDBATTR
 70
     0
  0
APPID
  2
ACADANNOTATIVE
 70
     0
  0
ENDTAB
  0
TABLE
  2
DIMSTYLE
 70
     1
  0
DIMSTYLE
  2
STANDARD
 70
     0
  3

  4

  5

  6

  7

 40
1.0
 41
0.1875
 42
0.0625
 43
0.38
 44
0.125
 45
0.0
 46
0.0
 47
0.01
 48
0.01
140
0.15625
141
0.09
142
0.0
143
25.3999999999999986
144
1.0
145
0.0
146
1.0
147
0.09
 71
     1
 72
     0
 73
     1
 74
     1
 75
     0
 76
     0
 77
     0
 78
     4
170
     0
171
     2
172
     0
173
     0
174
     0
175
     0
176
     0
177
     0
178
     0
  0
ENDTAB
  0
ENDSEC
  0
SECTION
  2
BLOCKS
  0
BLOCK
  8
0
  2
$MODEL_SPACE
 70
     0
 10
0.0
 20
0.0
 30
0.0
  3
$MODEL_SPACE
  1

  0
ENDBLK
  5
21
  8
0
  0
BLOCK
 67
     1
  8
0
  2
$PAPER_SPACE
 70
     0
 10
0.0
 20
0.0
 30
0.0
  3
$PAPER_SPACE
  1

  0
ENDBLK
  5
1D
 67
     1
  8
0
  0
ENDSEC
  0
SECTION
  2
ENTITIES
  0
ATTDEF
  5
829
  8
DEFPOINTS
 10
995.74170479168356
 20
138.8225722481265905
 30
0.0
 40
0.001
  1
K-R99063T
  3

  2
MODELNUMBER
 70
     0
1001
ACDBATTR
1070
     0
1070
     1
  0
ATTDEF
  5
82A
  8
DEFPOINTS
 10
995.74170479168356
 20
138.8209055814598969
 30
0.0
 40
0.001
  1
RENEW
  3

  2
TRADENAME
 70
     0
1001
ACDBATTR
1070
     0
1070
     1
  0
ATTDEF
  5
82B
  8
DEFPOINTS
 10
995.74170479168356
 20
138.8192389147932033
 30
0.0
 40
0.001
  1
HANDSHOWER
  3

  2
PRODUCT
 70
     0
1001
ACDBATTR
1070
     0
1070
     1
  0
ARC
  5
BF60
  8
0
 10
995.7380269763024216
 20
139.2754249885250886
 30
0.0
 40
3.7799106160973919
 50
259.245853220750007
 51
270.1418989923179765
  0
ARC
  5
BF61
  8
0
 10
995.57810928820345
 20
138.4334468064575958
 30
0.0
 40
2.92288032139095
 50
242.500576411643209
 51
259.245853220750007
  0
ARC
  5
BF62
  8
0
 10
994.8885048971368406
 20
137.1086965573036878
 30
0.0
 40
1.4293886278044099
 50
215.9746278885023116
 51
242.500576411643209
  0
ARC
  5
BF63
  8
0
 10
994.2271571939680825
 20
136.6286466354167999
 30
0.0
 40
0.6121807521754059
 50
209.4632458945966107
 51
215.9746278885023116
  0
ARC
  5
BF64
  8
0
 10
994.4284205420592571
 20
136.7454444238738063
 30
0.0
 40
0.8448680616144962
 50
187.5512375185587075
 51
209.6462190560208114
  0
ARC
  5
BF65
  8
0
 10
995.7442608251452612
 20
140.2522814070441086
 30
0.0
 40
4.5888892198840479
 50
260.3655943621492952
 51
270.0390490455653776
  0
ARC
  5
BF66
  8
0
 10
995.5230888861862013
 20
138.9493928667104115
 30
0.0
 40
3.267361477036455
 50
245.2000219327910031
 51
260.3655943621492952
  0
ARC
  5
BF67
  8
0
 10
994.699445468929639
 20
137.1668634015105113
 30
0.0
 40
1.3037424271451841
 50
222.9597056008740026
 51
245.2000219327910031
  0
ARC
  5
BF68
  8
0
 10
994.1911750953230467
 20
136.6935614577328124
 30
0.0
 40
0.6092256867639116
 50
199.1690411697979073
 51
222.9597056008740026
  0
ARC
  5
BF69
  8
0
 10
993.9958037415561876
 20
136.6303946577019985
 30
0.0
 40
0.4039706082397659
 50
180.4295829267672957
 51
199.8054481375930891
  0
ARC
  5
BF6A
  8
0
 10
995.746019005119706
 20
140.3120236282098858
 30
0.0
 40
4.6245481415896048
 50
262.6332759370823169
 51
270.0169649957019828
  0
ARC
  5
BF6B
  8
0
 10
995.6330868084791064
 20
139.4385222398115047
 30
0.0
 40
3.7437766862324691
 50
250.997469556722109
 51
262.6332759370823169
  0
ARC
  5
BF6C
  8
0
 10
995.0471581078496683
 20
137.7371058403259099
 30
0.0
 40
1.9442961482272341
 50
234.0232750531581871
 51
250.997469556722109
  0
ARC
  5
BF6D
  8
0
 10
994.4132002001649653
 20
136.8637918178621931
 30
0.0
 40
0.8651390648757121
 50
212.4499077989445937
 51
234.0232750531581871
  0
ARC
  5
BF6E
  8
0
 10
994.2410522201947742
 20
136.7543329296339039
 30
0.0
 40
0.6611386354153197
 50
188.3512214613753031
 51
212.4499077989445937
  0
ARC
  5
BF6F
  8
0
 10
994.3121930985480503
 20
136.7188064368174878
 30
0.0
 40
0.7277878410926777
 50
180.8442055334311931
 51
184.7682470422697918
  0
ARC
  5
BF70
  8
0
 10
994.2681122772867184
 20
136.6731300943835947
 30
0.0
 40
0.6845210082674594
 50
164.6873176437094912
 51
177.0730589063007869
  0
ARC
  5
BF71
  8
0
 10
994.3371693955266437
 20
136.5996050287045875
 30
0.0
 40
0.7723420552278807
 50
132.9993206264772994
 51
160.7764075144910123
  0
ARC
  5
BF72
  8
0
 10
996.0613854065677515
 20
134.4115744054560082
 30
0.0
 40
3.5560047426954799
 50
119.393783802129505
 51
129.2716874606279021
  0
ARC
  5
BF73
  8
0
 10
991.8677490738901952
 20
141.9735233098726894
 30
0.0
 40
5.0910746602583083
 50
298.7444374171088839
 51
307.7573982828441785
  0
ARC
  5
BF74
  8
0
 10
994.4789628682951843
 20
138.4582230765394115
 30
0.0
 40
0.7183590949875601
 50
314.7965663834406769
 51
0.0608618433511994
  0
ARC
  5
BF75
  8
0
 10
989.597337620965277
 20
138.6499708425203892
 30
0.0
 40
5.6032397101524429
 50
358.0467126984278252
 51
1.9996338157930931
  0
ARC
  5
BF76
  8
0
 10
995.747388310832207
 20
138.8296314393170121
 30
0.0
 40
0.5504514275951106
 50
1.650436066620609
 51
178.3495639333777945
  0
LINE
  5
BF77
  8
0
 10
994.8751138421155247
 20
135.5607475749808941
 30
0.0
 11
994.8787030005920542
 21
135.5954791854260009
 31
0.0
  0
LINE
  5
BF78
  8
0
 10
994.7470525623466528
 20
135.5830497497321971
 30
0.0
 11
994.7445580689753797
 21
135.6319433283055957
 31
0.0
  0
ARC
  5
BF79
  8
0
 10
994.7612378602746048
 20
135.5852474044405938
 30
0.0
 40
0.0143545241467691
 50
188.8065263644107006
 51
235.2129060638135059
  0
ARC
  5
BF7A
  8
0
 10
994.8710804814489848
 20
135.8441225643539099
 30
0.0
 40
0.2952807749935926
 50
246.4387622333171066
 51
267.8990736612269075
  0
ARC
  5
BF7B
  8
0
 10
994.8605338043618076
 20
135.5639694639901904
 30
0.0
 40
0.014931780525756
 50
268.9321443000442855
 51
347.5390638203413118
  0
ARC
  5
BF7C
  8
0
 10
995.294882012629273
 20
135.5262359784452997
 30
0.0
 40
0.0185102751684548
 50
187.5863714632156984
 51
237.6711144592522942
  0
ARC
  5
BF7D
  8
0
 10
995.3518629779262028
 20
135.6692727356075068
 30
0.0
 40
0.1721962813415854
 50
247.1454448608770065
 51
283.6190735515172037
  0
ARC
  5
BF7E
  8
0
 10
995.3851546578215448
 20
135.5219143130927932
 30
0.0
 40
0.0212714844673231
 50
289.9408350195010939
 51
327.1893861184699972
  0
ARC
  5
BF7F
  8
0
 10
995.7382209601618115
 20
135.8086746321941121
 30
0.0
 40
0.374973010268695
 50
263.141338768501214
 51
271.4009084031872021
  0
ARC
  5
BF80
  8
0
 10
995.6948615528834807
 20
135.4481087097167915
 30
0.0
 40
0.0118093838336868
 50
183.8086197267541024
 51
263.0935079662282874
  0
LINE
  5
BF81
  8
0
 10
995.6830782502438524
 20
135.4473242829236881
 30
0.0
 11
995.6793381244568764
 21
135.4959700166600953
 31
0.0
  0
ARC
  5
BF82
  8
0
 10
995.7567496453619924
 20
139.2754249885250886
 30
0.0
 40
3.7799106160973919
 50
269.8581010076820235
 51
280.754146779249993
  0
ARC
  5
BF83
  8
0
 10
995.9166673334611914
 20
138.4334468064575958
 30
0.0
 40
2.92288032139095
 50
280.754146779249993
 51
297.4994235883568194
  0
ARC
  5
BF84
  8
0
 10
996.6062717245279146
 20
137.1086965573036878
 30
0.0
 40
1.4293886278044099
 50
297.4994235883568194
 51
324.0253721114975747
  0
ARC
  5
BF85
  8
0
 10
997.2676194276964452
 20
136.6286466354167999
 30
0.0
 40
0.6121807521754059
 50
324.0253721114975747
 51
330.536754105403304
  0
ARC
  5
BF86
  8
0
 10
997.0663560796052707
 20
136.7454444238738063
 30
0.0
 40
0.8448680616144962
 50
330.3537809439791886
 51
352.4487624814414062
  0
ARC
  5
BF87
  8
0
 10
995.7505157965193803
 20
140.2522814070441086
 30
0.0
 40
4.5888892198840479
 50
269.9609509544412163
 51
279.6344056378507048
  0
ARC
  5
BF88
  8
0
 10
995.9716877354784401
 20
138.9493928667104115
 30
0.0
 40
3.267361477036455
 50
279.6344056378507048
 51
294.7999780672088832
  0
ARC
  5
BF89
  8
0
 10
996.7953311527351161
 20
137.1668634015105113
 30
0.0
 40
1.3037424271451841
 50
294.7999780672088832
 51
317.0402943991259122
  0
ARC
  5
BF8A
  8
0
 10
997.3036015263414811
 20
136.6935614577328124
 30
0.0
 40
0.6092256867639116
 50
317.0402943991259122
 51
340.8309588302021211
  0
ARC
  5
BF8B
  8
0
 10
997.4989728801084539
 20
136.6303946577019985
 30
0.0
 40
0.4039706082397659
 50
340.1945518624069109
 51
359.5704170732325906
  0
ARC
  5
BF8C
  8
0
 10
995.7487576165449354
 20
140.3120236282098858
 30
0.0
 40
4.6245481415896048
 50
269.9830350042979035
 51
277.3667240629177968
  0
ARC
  5
BF8D
  8
0
 10
995.8616898131856487
 20
139.4385222398115047
 30
0.0
 40
3.7437766862324691
 50
277.3667240629177968
 51
289.0025304432779194
  0
ARC
  5
BF8E
  8
0
 10
996.4476185138148594
 20
137.7371058403259099
 30
0.0
 40
1.9442961482272341
 50
289.0025304432779194
 51
305.9767249468417845
  0
ARC
  5
BF8F
  8
0
 10
997.0815764214996761
 20
136.8637918178621931
 30
0.0
 40
0.8651390648757121
 50
305.9767249468417845
 51
327.5500922010554063
  0
ARC
  5
BF90
  8
0
 10
997.2537244014699809
 20
136.7543329296339039
 30
0.0
 40
0.6611386354153197
 50
327.5500922010554063
 51
351.6487785386245832
  0
ARC
  5
BF91
  8
0
 10
997.1825835231165911
 20
136.7188064368174878
 30
0.0
 40
0.7277878410926777
 50
355.2317529577301229
 51
359.1557944665686932
  0
ARC
  5
BF92
  8
0
 10
997.226664344377923
 20
136.6731300943835947
 30
0.0
 40
0.6845210082674594
 50
2.9269410936991909
 51
15.3126823562904608
  0
ARC
  5
BF93
  8
0
 10
997.157607226137884
 20
136.5996050287045875
 30
0.0
 40
0.7723420552278807
 50
19.2235924855089984
 51
47.0006793735227077
  0
ARC
  5
BF94
  8
0
 10
995.4333912150968899
 20
134.4115744054560082
 30
0.0
 40
3.5560047426954799
 50
50.7283125393720269
 51
60.6062161978704808
  0
ARC
  5
BF95
  8
0
 10
999.6270275477742189
 20
141.9735233098726894
 30
0.0
 40
5.0910746602583083
 50
232.2426017171547983
 51
241.2555625828910877
  0
ARC
  5
BF96
  8
0
 10
997.0158137533693434
 20
138.4582230765394115
 30
0.0
 40
0.7183590949875601
 50
179.9391381566487951
 51
225.2034336165592947
  0
ARC
  5
BF97
  8
0
 10
1001.8974390006990234
 20
138.6499708425203892
 30
0.0
 40
5.6032397101524429
 50
178.0003661842069107
 51
181.9532873015722032
  0
LINE
  5
BF98
  8
0
 10
996.6196627795492304
 20
135.5607475749808941
 30
0.0
 11
996.6160736210725872
 21
135.5954791854260009
 31
0.0
  0
LINE
  5
BF99
  8
0
 10
996.7477240593178749
 20
135.5830497497321971
 30
0.0
 11
996.7502185526892617
 21
135.6319433283055957
 31
0.0
  0
ARC
  5
BF9A
  8
0
 10
996.7335387613898092
 20
135.5852474044405938
 30
0.0
 40
0.0143545241467691
 50
304.7870939361865226
 51
351.1934736355893278
  0
ARC
  5
BF9B
  8
0
 10
996.6236961402156567
 20
135.8441225643539099
 30
0.0
 40
0.2952807749935926
 50
272.1009263387730925
 51
293.5612377666828934
  0
ARC
  5
BF9C
  8
0
 10
996.6342428173028338
 20
135.5639694639901904
 30
0.0
 40
0.014931780525756
 50
192.4609361796586882
 51
271.0678556999557145
  0
ARC
  5
BF9D
  8
0
 10
996.1998946090352547
 20
135.5262359784452997
 30
0.0
 40
0.0185102751684548
 50
302.3288855407423057
 51
352.4136285367843016
  0
ARC
  5
BF9E
  8
0
 10
996.1429136437385523
 20
135.6692727356075068
 30
0.0
 40
0.1721962813415854
 50
256.3809264484827963
 51
292.8545551391230219
  0
ARC
  5
BF9F
  8
0
 10
996.1096219638430966
 20
135.5219143130927932
 30
0.0
 40
0.0212714844673231
 50
212.8106138815300028
 51
250.0591649804989061
  0
ARC
  5
BFA0
  8
0
 10
995.7565556615029436
 20
135.8086746321941121
 30
0.0
 40
0.374973010268695
 50
268.5990915968127979
 51
276.858661231498786
  0
ARC
  5
BFA1
  8
0
 10
995.7999150687809333
 20
135.4481087097167915
 30
0.0
 40
0.0118093838336868
 50
276.9064920337717126
 51
356.1913802732458976
  0
LINE
  5
BFA2
  8
0
 10
995.8116983714209027
 20
135.4473242829236881
 30
0.0
 11
995.8154384972076514
 21
135.4959700166600953
 31
0.0
  0
ENDSEC
  0
EOF
