  0
SECTION
  2
HEADER
  9
$ACADVER
  1
AC1009
  9
$INSBASE
 10
1005.0569831842340136
 20
130.7903194042577013
 30
0.0
  9
$EXTMIN
 10
1001.6049930504830172
 20
130.3882412871861902
 30
-0.0015258207003583
  9
$EXTMAX
 10
1005.6453816173850555
 20
140.3396692952752005
 30
0.0000000349246037
  9
$LIMMIN
 10
0.0
 20
0.0
  9
$LIMMAX
 10
11.6929133858000007
 20
8.2677165353999982
  9
$ORTHOMODE
 70
     0
  9
$REGENMODE
 70
     1
  9
$FILLMODE
 70
     1
  9
$QTEXTMODE
 70
     0
  9
$MIRRTEXT
 70
     0
  9
$DRAGMODE
 70
     2
  9
$LTSCALE
 40
0.6431102362
  9
$OSMODE
 70
  4095
  9
$ATTMODE
 70
     1
  9
$TEXTSIZE
 40
0.2
  9
$TRACEWID
 40
0.05
  9
$TEXTSTYLE
  7
STANDARD
  9
$CLAYER
  8
0
  9
$CELTYPE
  6
BYLAYER
  9
$CECOLOR
 62
   256
  9
$DIMSCALE
 40
1.0
  9
$DIMASZ
 40
0.1875
  9
$DIMEXO
 40
0.0625
  9
$DIMDLI
 40
0.4443307087
  9
$DIMRND
 40
0.0
  9
$DIMDLE
 40
0.0
  9
$DIMEXE
 40
0.125
  9
$DIMTP
 40
0.01
  9
$DIMTM
 40
0.01
  9
$DIMTXT
 40
1.0
  9
$DIMCEN
 40
0.1052362205
  9
$DIMTSZ
 40
0.0
  9
$DIMTOL
 70
     1
  9
$DIMLIM
 70
     0
  9
$DIMTIH
 70
     0
  9
$DIMTOH
 70
     1
  9
$DIMSE1
 70
     0
  9
$DIMSE2
 70
     0
  9
$DIMTAD
 70
     0
  9
$DIMZIN
 70
     0
  9
$DIMBLK
  1

  9
$DIMASO
 70
     1
  9
$DIMSHO
 70
     1
  9
$DIMPOST
  1
\X
  9
$DIMAPOST
  1

  9
$DIMALT
 70
     1
  9
$DIMALTD
 70
     2
  9
$DIMALTF
 40
25.3999999999999986
  9
$DIMLFAC
 40
1.0
  9
$DIMTOFL
 70
     0
  9
$DIMTVP
 40
0.0
  9
$DIMTIX
 70
     0
  9
$DIMSOXD
 70
     0
  9
$DIMSAH
 70
     0
  9
$DIMBLK1
  1

  9
$DIMBLK2
  1

  9
$DIMSTYLE
  2
STANDARD
  9
$DIMCLRD
 70
     0
  9
$DIMCLRE
 70
     0
  9
$DIMCLRT
 70
     0
  9
$DIMTFAC
 40
1.0
  9
$DIMGAP
 40
0.09
  9
$LUNITS
 70
     2
  9
$LUPREC
 70
     4
  9
$SKETCHINC
 40
0.1
  9
$FILLETRAD
 40
0.0
  9
$AUNITS
 70
     0
  9
$AUPREC
 70
     0
  9
$MENU
  1
.
  9
$ELEVATION
 40
0.0
  9
$PELEVATION
 40
0.0
  9
$THICKNESS
 40
0.0
  9
$LIMCHECK
 70
     0
  9
$BLIPMODE
 70
     0
  9
$CHAMFERA
 40
0.0
  9
$CHAMFERB
 40
0.0
  9
$SKPOLY
 70
     0
  9
$TDCREATE
 40
2458172.5207638889551163
  9
$TDUPDATE
 40
2459153.5663310191594064
  9
$TDINDWG
 40
0.4493409954
  9
$TDUSRTIMER
 40
0.4493409954
  9
$USRTIMER
 70
     1
  9
$ANGBASE
 50
0.0
  9
$ANGDIR
 70
     0
  9
$PDMODE
 70
     0
  9
$PDSIZE
 40
0.3125
  9
$PLINEWID
 40
0.0
  9
$COORDS
 70
     1
  9
$SPLFRAME
 70
     0
  9
$SPLINETYPE
 70
     6
  9
$SPLINESEGS
 70
     8
  9
$ATTDIA
 70
     1
  9
$ATTREQ
 70
     1
  9
$HANDLING
 70
     1
  9
$HANDSEED
  5
D001
  9
$SURFTAB1
 70
     6
  9
$SURFTAB2
 70
     6
  9
$SURFTYPE
 70
     6
  9
$SURFU
 70
     6
  9
$SURFV
 70
     6
  9
$UCSNAME
  2

  9
$UCSORG
 10
0.0
 20
0.0
 30
0.0
  9
$UCSXDIR
 10
1.0
 20
0.0
 30
0.0
  9
$UCSYDIR
 10
0.0
 20
1.0
 30
0.0
  9
$PUCSNAME
  2

  9
$PUCSORG
 10
0.0
 20
0.0
 30
0.0
  9
$PUCSXDIR
 10
1.0
 20
0.0
 30
0.0
  9
$PUCSYDIR
 10
0.0
 20
1.0
 30
0.0
  9
$USERI1
 70
     0
  9
$USERI2
 70
     0
  9
$USERI3
 70
     0
  9
$USERI4
 70
     0
  9
$USERI5
 70
     0
  9
$USERR1
 40
0.0
  9
$USERR2
 40
0.0
  9
$USERR3
 40
0.0
  9
$USERR4
 40
0.0
  9
$USERR5
 40
0.0
  9
$WORLDVIEW
 70
     1
  9
$SHADEDGE
 70
     3
  9
$SHADEDIF
 70
    70
  9
$TILEMODE
 70
     1
  9
$MAXACTVP
 70
    64
  9
$PLIMCHECK
 70
     0
  9
$PEXTMIN
 10
1.0000000000000000E+20
 20
1.0000000000000000E+20
 30
1.0000000000000000E+20
  9
$PEXTMAX
 10
-1.0000000000000000E+20
 20
-1.0000000000000000E+20
 30
-1.0000000000000000E+20
  9
$PLIMMIN
 10
0.0
 20
0.0
  9
$PLIMMAX
 10
12.0
 20
9.0
  9
$UNITMODE
 70
     0
  9
$VISRETAIN
 70
     1
  9
$PLINEGEN
 70
     0
  9
$PSLTSCALE
 70
     1
  0
ENDSEC
  0
SECTION
  2
TABLES
  0
TABLE
  2
VPORT
 70
     1
  0
VPORT
  2
*ACTIVE
 70
     0
 10
0.0
 20
0.0
 11
1.0
 21
1.0
 12
536.8829856261037321
 22
46.2308081713009003
 13
0.0
 23
0.0
 14
1.0
 24
1.0
 15
0.0
 25
0.0
 16
0.0
 26
0.0
 36
24.1179433675886514
 17
466.74220170783002
 27
89.133147119929788
 37
0.0
 40
10.0781977916315402
 41
2.887234042553191
 42
50.0
 43
0.0
 44
0.0
 50
0.0
 51
0.0
 71
     0
 72
   100
 73
     1
 74
     1
 75
     0
 76
     0
 77
     0
 78
     0
  0
ENDTAB
  0
TABLE
  2
LTYPE
 70
     2
  0
LTYPE
  2
CONTINUOUS
 70
     0
  3
Solid line
 72
    65
 73
     0
 40
0.0
  0
LTYPE
  2
PHANTOM2
 70
     0
  3
___ _ _ ___ _ _ ___ _ _ ___ _ _
 72
    65
 73
     6
 40
1.25
 49
0.625
 49
-0.125
 49
0.125
 49
-0.125
 49
0.125
 49
-0.125
  0
ENDTAB
  0
TABLE
  2
LAYER
 70
     2
  0
LAYER
  2
0
 70
     0
 62
   255
  6
CONTINUOUS
  0
LAYER
  2
DEFPOINTS
 70
     0
 62
     7
  6
CONTINUOUS
  0
ENDTAB
  0
TABLE
  2
STYLE
 70
     1
  0
STYLE
  2
STANDARD
 70
     0
 40
0.0
 41
0.8
 50
0.0
 71
     0
 42
0.2
  3
txt
  4

  0
ENDTAB
  0
TABLE
  2
VIEW
 70
     0
  0
ENDTAB
  0
TABLE
  2
UCS
 70
     0
  0
ENDTAB
  0
TABLE
  2
APPID
 70
    11
  0
APPID
  2
ACAD
 70
     0
  0
APPID
  2
ACAD_MLEADERVER
 70
     0
  0
APPID
  2
ACAD_EXEMPT_FROM_CAD_STANDARDS
 70
     0
  0
APPID
  2
ACAD_DSTYLE_DIMJAG
 70
     0
  0
APPID
  2
ACAD_DSTYLE_DIMTALN
 70
     0
  0
APPID
  2
ACAD_NAV_VCDISPLAY
 70
     0
  0
APPID
  2
ACAECLAYERSTANDARD
 70
     0
  0
APPID
  2
ACCMTRANSPARENCY
 70
     0
  0
APPID
  2
DCO15
 70
     0
  0
APPID
  2
ACDBATTR
 70
     0
  0
APPID
  2
ACADANNOTATIVE
 70
     0
  0
ENDTAB
  0
TABLE
  2
DIMSTYLE
 70
     1
  0
DIMSTYLE
  2
STANDARD
 70
     0
  3

  4

  5

  6

  7

 40
1.0
 41
0.1875
 42
0.0625
 43
0.38
 44
0.125
 45
0.0
 46
0.0
 47
0.01
 48
0.01
140
0.15625
141
0.09
142
0.0
143
25.3999999999999986
144
1.0
145
0.0
146
1.0
147
0.09
 71
     1
 72
     0
 73
     1
 74
     1
 75
     0
 76
     0
 77
     0
 78
     4
170
     0
171
     2
172
     0
173
     0
174
     0
175
     0
176
     0
177
     0
178
     0
  0
ENDTAB
  0
ENDSEC
  0
SECTION
  2
BLOCKS
  0
BLOCK
  8
0
  2
$MODEL_SPACE
 70
     0
 10
0.0
 20
0.0
 30
0.0
  3
$MODEL_SPACE
  1

  0
ENDBLK
  5
21
  8
0
  0
BLOCK
 67
     1
  8
0
  2
$PAPER_SPACE
 70
     0
 10
0.0
 20
0.0
 30
0.0
  3
$PAPER_SPACE
  1

  0
ENDBLK
  5
1D
 67
     1
  8
0
  0
ENDSEC
  0
SECTION
  2
ENTITIES
  0
ATTDEF
  5
829
  8
DEFPOINTS
 10
1005.0534148436249779
 20
130.7946062662491897
 30
0.0
 40
0.001
  1
K-R99063T
  3

  2
MODELNUMBER
 70
     0
1001
ACDBATTR
1070
     0
1070
     1
  0
ATTDEF
  5
82A
  8
DEFPOINTS
 10
1005.0534148436249779
 20
130.7929395995824962
 30
0.0
 40
0.001
  1
RENEW
  3

  2
TRADENAME
 70
     0
1001
ACDBATTR
1070
     0
1070
     1
  0
ATTDEF
  5
82B
  8
DEFPOINTS
 10
1005.0534148436249779
 20
130.7912729329158878
 30
0.0
 40
0.001
  1
HANDSHOWER
  3

  2
PRODUCT
 70
     0
1001
ACDBATTR
1070
     0
1070
     1
  0
LINE
  5
CB62
  8
0
  6
CONTINUOUS
 62
     7
 10
1002.3173518731180138
 20
139.5175333647187017
 30
0.0
 11
1002.3323665255039714
 21
139.5186999835837014
 31
0.0
  0
LINE
  5
CB63
  8
0
  6
CONTINUOUS
 62
     7
 10
1002.0201821793830277
 20
140.0837002334104966
 30
0.0
 11
1002.0394756277339638
 21
140.0935307364123901
 31
0.0
  0
LINE
  5
CB64
  8
0
  6
CONTINUOUS
 62
     7
 10
1002.3281949475090187
 20
139.5268871661087928
 30
0.0
 11
1002.3089014916860151
 21
139.517056677957811
 31
0.0
  0
LINE
  5
CB65
  8
0
  6
CONTINUOUS
 62
     7
 10
1002.3173518731180138
 20
139.5175333647187017
 30
0.0
 11
1002.3104503537280152
 21
139.5140168649865018
 31
0.0
  0
LINE
  5
CB66
  8
0
  6
CONTINUOUS
 62
     7
 10
1002.3706403890189449
 20
139.4435832967824069
 30
0.0
 11
1002.3513467529539867
 21
139.433753162200702
 31
0.0
  0
LINE
  5
CB67
  8
0
  6
CONTINUOUS
 62
     7
 10
1003.7723695429309601
 20
136.6933993661442912
 30
0.0
 11
1003.7527264195299495
 21
136.6833907064919913
 31
0.0
  0
LINE
  5
CB68
  8
0
  6
CONTINUOUS
 62
     7
 10
1003.5954962509049437
 20
136.3157466829572968
 30
0.0
 11
1003.8556701559409703
 21
136.4483119089198908
 31
0.0
  0
LINE
  5
CB69
  8
0
  6
CONTINUOUS
 62
     7
 10
1003.2641992823359942
 20
136.6383014175252981
 30
0.0
 11
1003.3282481611970525
 21
136.6687120757931098
 31
0.0
  0
LINE
  5
CB6A
  8
0
  6
CONTINUOUS
 62
     7
 10
1003.1263776317430256
 20
136.8094150439349903
 30
0.0
 11
1003.0723752366980079
 21
136.7855971496838947
 31
0.0
  0
LINE
  5
CB6B
  8
0
  6
CONTINUOUS
 62
     7
 10
1002.3681970904780201
 20
139.4483785400537954
 30
0.0
 11
1002.3590966306900327
 21
139.4377017358343096
 31
0.0
  0
LINE
  5
CB6C
  8
0
  6
CONTINUOUS
 62
     7
 10
1003.031385281955977
 20
136.914685908937912
 30
0.0
 11
1002.9901022062520042
 21
136.887049298563312
 31
0.0
  0
LINE
  5
CB6D
  8
0
  6
CONTINUOUS
 62
     7
 10
1003.1678337078110417
 20
136.731882277442196
 30
0.0
 11
1003.2133708832790262
 21
136.7619075497619008
 31
0.0
  0
LINE
  5
CB6E
  8
0
  6
CONTINUOUS
 62
     7
 10
1004.5266686903960363
 20
130.7903193910223081
 30
0.0
 11
1005.5872976801509822
 21
130.7903194150470938
 31
0.0
  0
LINE
  5
CB6F
  8
0
  6
CONTINUOUS
 62
     7
 10
1003.2297028666910137
 20
136.4811926101226902
 30
0.0
 11
1003.1732778507970352
 21
136.7021353996377968
 31
0.0
  0
LINE
  5
CB70
  8
0
  6
CONTINUOUS
 62
     7
 10
1003.1660526476130144
 20
136.7304270449488115
 30
0.0
 11
1003.1614733956510008
 21
136.7483114925231007
 31
0.0
  0
LINE
  5
CB71
  8
0
  6
CONTINUOUS
 62
     7
 10
1003.8622253962610102
 20
136.4684868643753077
 30
0.0
 11
1001.9143504887770177
 21
140.2914066211124862
 31
0.0
  0
LINE
  5
CB72
  8
0
  6
CONTINUOUS
 62
     7
 10
1001.938123435983016
 20
140.292445612739499
 30
0.0
 11
1002.6129702089519924
 21
138.9679842468806896
 31
0.0
  0
LINE
  5
CB73
  8
0
  6
CONTINUOUS
 62
     7
 10
1003.752922128318005
 20
136.7315724885459076
 30
0.0
 11
1003.7539939001500215
 21
136.7294689860688948
 31
0.0
  0
ARC
  5
CB74
  8
0
  6
CONTINUOUS
 62
     7
 10
1001.9648526302199798
 20
140.3060672931412967
 30
0.0
 40
0.03
 50
51.5821195832012691
 51
207.0000000000009948
  0
ARC
  5
CB75
  8
0
  6
CONTINUOUS
 62
     7
 10
1001.900985390914002
 20
140.2845967636164062
 30
0.0
 40
0.015
 50
27.0000000000010409
 51
135.6007915338018108
  0
ARC
  5
CB76
  8
0
  6
CONTINUOUS
 62
     7
 10
1003.4787856655300402
 20
136.5448041039441023
 30
0.0
 40
0.2570771534
 50
194.3261504157026138
 51
297.0000000000009095
  0
ARC
  5
CB77
  8
0
  6
CONTINUOUS
 62
     7
 10
1005.5874081068809573
 20
130.8098940862348059
 30
0.0
 40
0.0195749826607618
 50
269.6767803447658025
 51
0.3536208634373266
  0
ARC
  5
CB78
  8
0
  6
CONTINUOUS
 62
     7
 10
1004.5266764606750485
 20
130.8100124479892941
 30
0.0
 40
0.0196930585
 50
180.0465515780981889
 51
269.9773928354961754
  0
ARC
  5
CB79
  8
0
  6
CONTINUOUS
 62
     7
 10
1004.8379864748940236
 20
138.4493986869896958
 30
0.0
 40
2.3704748852161428
 50
217.9963625531281934
 51
225.9350201883798945
  0
ARC
  5
CB7A
  8
0
  6
CONTINUOUS
 62
     7
 10
1003.8488602984680256
 20
136.4616770067736127
 30
0.0
 40
0.015
 50
297.0000000000009095
 51
27.0000000000010409
  0
LINE
  5
CB7B
  8
0
  6
CONTINUOUS
 62
     7
 10
1003.0589017254000055
 20
136.7884253458475996
 30
0.0
 11
1002.987637207775947
 21
136.8696232021933952
 31
0.0
  0
LINE
  5
CB7C
  8
0
  6
CONTINUOUS
 62
     7
 10
1003.2133708832790262
 20
136.7619075497619008
 30
0.0
 11
1003.206140711239982
 21
136.7662733552074883
 31
0.0
  0
LINE
  5
CB7D
  8
0
  6
CONTINUOUS
 62
     7
 10
1002.6129702089519924
 20
138.9679842468806896
 30
0.0
 11
1003.906772611597944
 21
136.4293410892991005
 31
0.0
  0
ARC
  5
CB7E
  8
0
 10
967.8641235378693182
 20
130.9303680898395044
 30
0.0
 40
36.6430575804439584
 50
359.8117842800010067
 51
4.1752573694807431
  0
ARC
  5
CB7F
  8
0
 10
986.8037392574252635
 20
132.4137610431870939
 30
0.0
 40
17.6459914866872616
 50
3.8489046131289868
 51
10.1685867664765706
  0
ARC
  5
CB80
  8
0
  6
CONTINUOUS
 62
     7
 10
999.2797556592646515
 20
134.6515562236523067
 30
0.0
 40
4.9708696918680584
 50
10.1678331703349905
 51
18.5999011218279406
  0
ARC
  5
CB81
  8
0
  6
CONTINUOUS
 62
     7
 10
1000.8462568298000406
 20
134.9742960572087895
 30
0.0
 40
3.388792247281692
 50
21.8777538518075509
 51
25.4275724224478985
  0
ARC
  5
CB82
  8
0
 10
991.7547354247458316
 20
131.1483649618839991
 30
0.0
 40
13.8563788849359906
 50
358.6007918973710957
 51
16.5924007392475517
  0
ARC
  5
CB83
  8
0
 10
992.8405258975584502
 20
131.4765033312700098
 30
0.0
 40
12.7220973904069599
 50
16.5725165186617609
 51
24.1478049744000494
  0
ARC
  5
CB84
  8
0
  6
CONTINUOUS
 62
     7
 10
989.0971616958584036
 20
129.4804571309161076
 30
0.0
 40
16.9569380344894789
 50
25.1277279461560603
 51
33.270746945160468
  0
ARC
  5
CB85
  8
0
  6
CONTINUOUS
 62
     7
 10
995.2490788221276716
 20
133.4955669997002019
 30
0.0
 40
9.6107400976848716
 50
33.377661851317967
 51
40.8113366938158677
  0
ARC
  5
CB86
  8
0
  6
CONTINUOUS
 62
     7
 10
997.0742486336934007
 20
135.0981180397465948
 30
0.0
 40
7.1819796500465056
 50
40.6514703816285419
 51
44.8457393190872722
  0
ARC
  5
CB87
  8
0
  6
CONTINUOUS
 62
     7
 10
1000.4527946874909503
 20
138.4672904290652014
 30
0.0
 40
2.4106296486912351
 50
44.6979493438530184
 51
50.5815573979338993
  0
ARC
  5
CB88
  8
0
  6
CONTINUOUS
 62
     7
 10
1003.0071958772749667
 20
136.7027479323174077
 30
0.0
 40
0.1608651320045624
 50
16.4537182480376991
 51
37.4438950605152527
  0
ARC
  5
CB89
  8
0
  6
CONTINUOUS
 62
     7
 10
1003.8386294849409524
 20
136.4817940151050095
 30
0.0
 40
0.0149830808522844
 50
278.3125636116903934
 51
26.6435608088857414
  0
ARC
  5
CB8A
  8
0
  6
CONTINUOUS
 62
     7
 10
1003.8747393862839772
 20
137.3467858320018138
 30
0.0
 40
0.9038606642731386
 50
230.1295970617179023
 51
253.8836275149224946
  0
ARC
  5
CB8B
  8
0
  6
CONTINUOUS
 62
     7
 10
1003.7602211186399472
 20
137.0001321219340014
 30
0.0
 40
0.5392178281082673
 50
255.3491127327544916
 51
278.5938094771717033
  0
ARC
  5
CB8C
  8
0
  6
CONTINUOUS
 62
     7
 10
1003.3813783624340203
 20
136.7691262294214027
 30
0.0
 40
0.1262165850542818
 50
237.9547718043043005
 51
245.7397614862094031
  0
ARC
  5
CB8D
  8
0
  6
CONTINUOUS
 62
     7
 10
1003.278525822530014
 20
136.617508384135192
 30
0.0
 40
0.071373167240288
 50
32.6152423389614512
 51
45.8409047687075528
  0
ARC
  5
CB8E
  8
0
  6
CONTINUOUS
 62
     7
 10
1003.3440532973600057
 20
136.6865448357013122
 30
0.0
 40
0.0355920119050283
 50
245.8969549577645068
 51
255.20057957015581
  0
ARC
  5
CB8F
  8
0
  6
CONTINUOUS
 62
     7
 10
1003.3369546372100558
 20
136.6583925170558018
 30
0.0
 40
0.0065685575848648
 50
252.3388037454845119
 51
283.4313495033795789
  0
ARC
  5
CB90
  8
0
  6
CONTINUOUS
 62
     7
 10
1003.3332497333750553
 20
136.6528357315085032
 30
0.0
 40
0.006242906099294
 50
7.3702628988678782
 51
30.2224961702255008
  0
ARC
  5
CB91
  8
0
  6
CONTINUOUS
 62
     7
 10
1003.3379791267140035
 20
136.653397572768597
 30
0.0
 40
0.001481341086389
 50
289.7781922861282737
 51
9.2848685464197747
  0
ARC
  5
CB92
  8
0
  6
CONTINUOUS
 62
     7
 10
1003.1933704463169761
 20
136.744897706059902
 30
0.0
 40
0.024899759892133
 50
59.1450120481823731
 51
73.2409723874150984
  0
ARC
  5
CB93
  8
0
  6
CONTINUOUS
 62
     7
 10
1003.1993443151759493
 20
136.7647250653425033
 30
0.0
 40
0.0041920020992102
 50
73.2815938525798742
 51
95.7807618780939265
  0
ARC
  5
CB94
  8
0
  6
CONTINUOUS
 62
     7
 10
1003.1990204959170114
 20
136.7678865703234123
 30
0.0
 40
0.0010139657725351
 50
95.5695065629185336
 51
188.6828698607106958
  0
ARC
  5
CB95
  8
0
  6
CONTINUOUS
 62
     7
 10
1003.2070931259039526
 20
136.769090024656407
 30
0.0
 40
0.0091758016038534
 50
188.5016296896106098
 51
215.0802398791572898
  0
ARC
  5
CB96
  8
0
  6
CONTINUOUS
 62
     7
 10
1003.2606713828920419
 20
136.8021896803381026
 30
0.0
 40
0.0721398316736308
 50
212.1358185881009035
 51
219.440428917836698
  0
ARC
  5
CB97
  8
0
  6
CONTINUOUS
 62
     7
 10
1002.7151246718319726
 20
136.0303456157373034
 30
0.0
 40
0.8851170264632505
 50
46.1555183408929679
 51
55.7423259996813698
  0
ARC
  5
CB98
  8
0
  6
CONTINUOUS
 62
     7
 10
1003.2582122167240186
 20
136.6518562667897072
 30
0.0
 40
0.0148181946680036
 50
248.4164338743798055
 51
293.8306538855059102
  0
ARC
  5
CB99
  8
0
  6
CONTINUOUS
 62
     7
 10
1003.2733606797729635
 20
136.6923789650319918
 30
0.0
 40
0.058077798328548
 50
237.3892141477707014
 51
249.2257244778938059
  0
ARC
  5
CB9A
  8
0
  6
CONTINUOUS
 62
     7
 10
1003.3827641536030342
 20
136.864420718097108
 30
0.0
 40
0.2619586821832232
 50
232.1669353233644131
 51
237.5121859556228117
  0
ARC
  5
CB9B
  8
0
  6
CONTINUOUS
 62
     7
 10
1003.5008020912609936
 20
137.0144549645085874
 30
0.0
 40
0.4528575962098205
 50
228.1425106002255916
 51
232.0149769220016935
  0
ARC
  5
CB9C
  8
0
  6
CONTINUOUS
 62
     7
 10
1003.4201659156559572
 20
136.9273324298175964
 30
0.0
 40
0.3341667532415453
 50
222.3692639833433873
 51
228.4722683534942007
  0
ARC
  5
CB9D
  8
0
  6
CONTINUOUS
 62
     7
 10
1003.2256623953529697
 20
136.7513394906264068
 30
0.0
 40
0.0718692081377127
 50
211.9247894278414037
 51
223.2068164952370068
  0
ARC
  5
CB9E
  8
0
  6
CONTINUOUS
 62
     7
 10
1003.1758963293559646
 20
136.7210946557603108
 30
0.0
 40
0.0136522863893196
 50
148.200406449489293
 51
214.6389586610621052
  0
ARC
  5
CB9F
  8
0
  6
CONTINUOUS
 62
     7
 10
1003.1750533933210363
 20
136.7212285620965133
 30
0.0
 40
0.0128695574719555
 50
124.1242499896530944
 51
146.7293869972899927
  0
ARC
  5
CBA0
  8
0
  6
CONTINUOUS
 62
     7
 10
1003.067609380148042
 20
136.7964006004667112
 30
0.0
 40
0.0118079607664959
 50
222.4862592846214113
 51
293.804293206318107
  0
ARC
  5
CBA1
  8
0
  6
CONTINUOUS
 62
     7
 10
1002.9966767975899984
 20
136.877231902854902
 30
0.0
 40
0.0118155198684158
 50
123.809742547748499
 51
220.0876082006581953
  0
ARC
  5
CBA2
  8
0
  6
CONTINUOUS
 62
     7
 10
1003.2833385180470032
 20
136.7632507880250898
 30
0.0
 40
0.1178083761140771
 50
231.9758226846259959
 51
237.1222623889483998
  0
ARC
  5
CBA3
  8
0
  6
CONTINUOUS
 62
     7
 10
1003.3344763225950373
 20
136.8297322013523001
 30
0.0
 40
0.2016808536362473
 50
227.9918059963281962
 51
232.1656803184905868
  0
ARC
  5
CBA4
  8
0
  6
CONTINUOUS
 62
     7
 10
1003.3099975342320249
 20
136.8041669673380909
 30
0.0
 40
0.1663060261830843
 50
222.477728392231711
 51
228.3638039445534957
  0
ARC
  5
CBA5
  8
0
  6
CONTINUOUS
 62
     7
 10
1003.2124847870750273
 20
136.7154778782540063
 30
0.0
 40
0.0344972199061021
 50
216.1617022025612016
 51
223.2068164952370068
  0
ARC
  5
CBA6
  8
0
  6
CONTINUOUS
 62
     7
 10
1003.1862574330400548
 20
136.6972453698230936
 30
0.0
 40
0.0023617784617259
 50
186.3172048574529924
 51
207.1498256656867056
  0
ARC
  5
CBA7
  8
0
  6
CONTINUOUS
 62
     7
 10
1003.1841958400509611
 20
136.6970310701069877
 30
0.0
 40
0.0002894548256439
 50
93.1299803752021234
 51
189.0586468977608945
  0
ARC
  5
CBA8
  8
0
  6
CONTINUOUS
 62
     7
 10
1003.1842845532379442
 20
136.6961333053079102
 30
0.0
 40
0.0011913812634406
 50
74.1774106354896929
 51
95.0329284641287444
  0
ARC
  5
CBA9
  8
0
  6
CONTINUOUS
 62
     7
 10
1003.1804838548109728
 20
136.6854967285437965
 30
0.0
 40
0.0124841845036295
 50
57.0600474375569178
 51
70.703222552168441
  0
ARC
  5
CBAA
  8
0
  6
CONTINUOUS
 62
     7
 10
1003.1439673503989525
 20
136.6270174064823948
 30
0.0
 40
0.0814267877114531
 50
53.3104048193183786
 51
57.8710743580957327
  0
ARC
  5
CBAB
  8
0
  6
CONTINUOUS
 62
     7
 10
1002.9820789241119883
 20
136.4129257967964008
 30
0.0
 40
0.3498336417170701
 50
50.9933842244173405
 51
52.9991541770528869
  0
ARC
  5
CBAC
  8
0
  6
CONTINUOUS
 62
     7
 10
1003.0021609686019701
 20
136.4398484331800887
 30
0.0
 40
0.3162757773585752
 50
47.9452876076281314
 51
50.7506033491687774
  0
ARC
  5
CBAD
  8
0
  6
CONTINUOUS
 62
     7
 10
1003.1390031977309718
 20
136.5897858884422931
 30
0.0
 40
0.1132900604293936
 50
42.0442568610888188
 51
48.5380381191362389
  0
ARC
  5
CBAE
  8
0
  6
CONTINUOUS
 62
     7
 10
1003.2116285992719895
 20
136.6553138331547927
 30
0.0
 40
0.0154720876733556
 50
30.1631186121764792
 51
41.9505046468731209
  0
ARC
  5
CBAF
  8
0
  6
CONTINUOUS
 62
     7
 10
1003.2233311259390121
 20
136.662164317600201
 30
0.0
 40
0.0019124627434882
 50
3.5843646737219639
 51
28.8799977799148309
  0
ARC
  5
CBB0
  8
0
  6
CONTINUOUS
 62
     7
 10
1003.2248612530189575
 20
136.6622661844438937
 30
0.0
 40
0.0003790079334967
 50
265.5987703619168201
 51
2.6762554774321541
  0
ARC
  5
CBB1
  8
0
  6
CONTINUOUS
 62
     7
 10
1003.2250476724700547
 20
136.6659548900352092
 30
0.0
 40
0.004072302084861
 50
245.361315466056908
 51
266.966511722225107
  0
ARC
  5
CBB2
  8
0
  6
CONTINUOUS
 62
     7
 10
1003.2327566386200033
 20
136.6840336195350005
 30
0.0
 40
0.0237247937827208
 50
239.9620158264700081
 51
246.6409519272943101
  0
ARC
  5
CBB3
  8
0
  6
CONTINUOUS
 62
     7
 10
1003.0390614139270156
 20
136.3325334703303042
 30
0.0
 40
0.3776160757967795
 50
61.2170921688001002
 51
61.4754418024612193
  0
ARC
  5
CBB4
  8
0
  6
CONTINUOUS
 62
     7
 10
1003.1952886768050348
 20
136.7006199079442865
 30
0.0
 40
0.0119900673045121
 50
201.7976165430279138
 51
207.291569532257995
  0
LINE
  5
CBB5
  8
0
  6
CONTINUOUS
 62
     7
 10
1003.0261313134980128
 20
137.0145576445742108
 30
0.0
 11
1002.9663299298349557
 21
136.9885390888981078
 31
0.0
  0
LINE
  5
CBB6
  8
0
  6
CONTINUOUS
 62
     7
 10
1002.9350467044770312
 20
137.1234089663392126
 30
0.0
 11
1002.8878237246980234
 21
137.0921348275516038
 31
0.0
  0
ARC
  5
CBB7
  8
0
  6
CONTINUOUS
 62
     7
 10
1002.9609491272119612
 20
137.0014343673202859
 30
0.0
 40
0.0139728752391289
 50
259.2233244093047233
 51
292.6492748123008028
  0
ARC
  5
CBB8
  8
0
  6
CONTINUOUS
 62
     7
 10
1002.9613714832610185
 20
137.0040167357394978
 30
0.0
 40
0.0165888114808098
 50
247.3018804337800987
 51
259.4580085859682868
  0
ARC
  5
CBB9
  8
0
  6
CONTINUOUS
 62
     7
 10
1002.9656476871630275
 20
137.0142201011354928
 30
0.0
 40
0.0276520184692973
 50
235.2230091916430865
 51
247.2857523587491073
  0
ARC
  5
CBBA
  8
0
  6
CONTINUOUS
 62
     7
 10
1002.9980808714129807
 20
137.0604144705579017
 30
0.0
 40
0.0840949390720282
 50
225.6701759404878942
 51
235.0244736255797022
  0
ARC
  5
CBBB
  8
0
  6
CONTINUOUS
 62
     7
 10
1003.1389473457739996
 20
137.2068696848338902
 30
0.0
 40
0.2872986966115372
 50
220.0983822032600017
 51
225.9843224197869915
  0
ARC
  5
CBBC
  8
0
  6
CONTINUOUS
 62
     7
 10
1003.210156585981963
 20
137.2688402785196899
 30
0.0
 40
0.3816879463952112
 50
215.0535007714973119
 51
220.3292160253004113
  0
ARC
  5
CBBD
  8
0
  6
CONTINUOUS
 62
     7
 10
1003.0271724085910137
 20
137.1425260195636895
 30
0.0
 40
0.1593556719050699
 50
206.5099733206320138
 51
215.6620246006029902
  0
ARC
  5
CBBE
  8
0
  6
CONTINUOUS
 62
     7
 10
1002.9025529166930255
 20
137.0809708397636086
 30
0.0
 40
0.0203709048416325
 50
170.2685337130189112
 51
208.0326089446757862
  0
ARC
  5
CBBF
  8
0
  6
CONTINUOUS
 62
     7
 10
1002.8948798932880209
 20
137.0815335941545925
 30
0.0
 40
0.0127348209530401
 50
123.6476896747151955
 51
166.9268372308152095
  0
ARC
  5
CBC0
  8
0
  6
CONTINUOUS
 62
     7
 10
1002.921026683461946
 20
137.1264260916514104
 30
0.0
 40
0.0056276662976085
 50
67.0323757270083433
 51
87.7105988576891065
  0
ARC
  5
CBC1
  8
0
  6
CONTINUOUS
 62
     7
 10
1002.9211463271329876
 20
137.1304869498185042
 30
0.0
 40
0.0015658516142388
 50
86.1490482246073555
 51
168.7193975855996086
  0
ARC
  5
CBC2
  8
0
  6
CONTINUOUS
 62
     7
 10
1002.9238750682490036
 20
137.1297616030302038
 30
0.0
 40
0.0043873583584116
 50
166.4000431539452052
 51
187.0937008442683975
  0
ARC
  5
CBC3
  8
0
  6
CONTINUOUS
 62
     7
 10
1002.9410696031669659
 20
137.132519584476313
 30
0.0
 40
0.0217995016200899
 50
188.706318310912593
 51
199.9818089390903992
  0
ARC
  5
CBC4
  8
0
  6
CONTINUOUS
 62
     7
 10
1002.9763435714800153
 20
137.1458022217663029
 30
0.0
 40
0.0594905324500371
 50
200.3951346954497126
 51
209.5321617402707943
  0
ARC
  5
CBC5
  8
0
  6
CONTINUOUS
 62
     7
 10
1002.9134456402770184
 20
137.1089783973071974
 30
0.0
 40
0.0246510076745091
 50
52.5016544238625116
 51
66.6331108680057866
  0
ARC
  5
CBC6
  8
0
  6
CONTINUOUS
 62
     7
 10
1002.852668201208985
 20
137.0242441410630079
 30
0.0
 40
0.1289181149906045
 50
45.7123204035195698
 51
53.9959949736113671
  0
ARC
  5
CBC7
  8
0
  6
CONTINUOUS
 62
     7
 10
1002.6053524699580066
 20
136.763889995505707
 30
0.0
 40
0.4880049795787359
 50
41.1214381742791915
 51
46.2707264708919865
  0
ARC
  5
CBC8
  8
0
  6
CONTINUOUS
 62
     7
 10
1002.2709690511089775
 20
136.4720400877774011
 30
0.0
 40
0.9318390002581312
 50
38.7678836463993406
 51
41.1181152093932383
  0
ARC
  5
CBC9
  8
0
  6
CONTINUOUS
 62
     7
 10
1002.4099622775180478
 20
136.6037044855962108
 30
0.0
 40
0.7411883163742174
 50
34.6383747242366766
 51
37.5599921806708821
  0
ARC
  5
CBCA
  8
0
  6
CONTINUOUS
 62
     7
 10
1002.9234325939710288
 20
136.9591905414939106
 30
0.0
 40
0.1166728035830389
 50
22.6200605900651084
 51
34.3317846662302131
  0
ARC
  5
CBCB
  8
0
  6
CONTINUOUS
 62
     7
 10
1003.0201667808579487
 20
136.9994740665017048
 30
0.0
 40
0.0118860631905853
 50
355.9833769190959742
 51
22.7213952579603706
  0
ARC
  5
CBCC
  8
0
  6
CONTINUOUS
 62
     7
 10
1003.0299286013589608
 20
136.9987742823985002
 30
0.0
 40
0.0020992516011606
 50
275.1702871385468825
 51
356.3733990306777173
  0
ARC
  5
CBCD
  8
0
  6
CONTINUOUS
 62
     7
 10
1003.0297311738439703
 20
137.0023606407461045
 30
0.0
 40
0.0056902171365294
 50
251.2053124902591037
 51
273.8957827529019937
  0
ARC
  5
CBCE
  8
0
  6
CONTINUOUS
 62
     7
 10
1003.0410038655669496
 20
137.0301976494992005
 30
0.0
 40
0.0357153769930708
 50
231.6665169016868049
 51
248.4720227952749099
  0
ARC
  5
CBCF
  8
0
  6
CONTINUOUS
 62
     7
 10
1003.0907048243700501
 20
137.0985905035909127
 30
0.0
 40
0.1202391308549661
 50
228.7647210451333137
 51
233.3029429345785104
  0
ARC
  5
CBD0
  8
0
  6
CONTINUOUS
 62
     7
 10
1002.9969899704359477
 20
137.0939508716510886
 30
0.0
 40
0.1025763671898973
 50
221.7631479979218057
 51
227.4957830549346909
  0
ARC
  5
CBD1
  8
0
  6
CONTINUOUS
 62
     7
 10
1003.0584889302469946
 20
137.1500265268230123
 30
0.0
 40
0.1858000872083137
 50
215.0750796990745926
 51
222.0300549476557137
  0
ARC
  5
CBD2
  8
0
  6
CONTINUOUS
 62
     7
 10
1002.9602673160189852
 20
137.0821180359602067
 30
0.0
 40
0.0663976309050498
 50
206.2851669680757141
 51
215.8229894123091981
  0
ARC
  5
CBD3
  8
0
  6
CONTINUOUS
 62
     7
 10
1002.9063154254509982
 20
137.0555241531127137
 30
0.0
 40
0.0062476789922983
 50
184.5527204856500987
 51
206.7244613296454077
  0
ARC
  5
CBD4
  8
0
  6
CONTINUOUS
 62
     7
 10
1002.90062890706497
 20
137.0550990050288931
 30
0.0
 40
0.0005460528350005
 50
79.3256537116879201
 51
187.4466408164472
  0
ARC
  5
CBD5
  8
0
  6
CONTINUOUS
 62
     7
 10
1002.9003857118409542
 20
137.053140527960295
 30
0.0
 40
0.0025187294288319
 50
62.710492843148657
 51
82.1424126896356341
  0
ARC
  5
CBD6
  8
0
  6
CONTINUOUS
 62
     7
 10
1002.8971704136830567
 20
137.0467118897369119
 30
0.0
 40
0.0097064571251106
 50
54.5680261336875034
 51
63.2417952771587579
  0
ARC
  5
CBD7
  8
0
  6
CONTINUOUS
 62
     7
 10
1002.8800587410520393
 20
137.0236017640040131
 30
0.0
 40
0.0384608020155577
 50
45.9994168910329222
 51
53.756266384059991
  0
ARC
  5
CBD8
  8
0
  6
CONTINUOUS
 62
     7
 10
1002.8093998917649969
 20
136.9503533229450909
 30
0.0
 40
0.140235092685689
 50
41.0859231111617191
 51
46.0222787814367607
  0
ARC
  5
CBD9
  8
0
  6
CONTINUOUS
 62
     7
 10
1002.7662881123540046
 20
136.9120415003042979
 30
0.0
 40
0.1979084108485998
 50
36.6451760419321033
 51
41.2433974759545521
  0
ARC
  5
CBDA
  8
0
  6
CONTINUOUS
 62
     7
 10
1002.8520517530370171
 20
136.9745869479091027
 30
0.0
 40
0.0917709784503896
 50
29.1044656879763117
 51
37.2729746526267789
  0
ARC
  5
CBDB
  8
0
  6
CONTINUOUS
 62
     7
 10
1002.9202625551159827
 20
137.0126022923475091
 30
0.0
 40
0.0136821150868488
 50
14.97727298272385
 51
28.94810185838557
  0
ARC
  5
CBDC
  8
0
  6
CONTINUOUS
 62
     7
 10
1002.9311583811260107
 20
137.0156413466980894
 30
0.0
 40
0.0023740685816347
 50
351.8265385026674039
 51
12.0813962948713591
  0
ARC
  5
CBDD
  8
0
  6
CONTINUOUS
 62
     7
 10
1002.9329893584459796
 20
137.015396027061314
 30
0.0
 40
0.0005271028020764
 50
276.6459481832316101
 51
349.9257780643490037
  0
ARC
  5
CBDE
  8
0
  6
CONTINUOUS
 62
     7
 10
1002.933206142022982
 20
137.0179056608268979
 30
0.0
 40
0.003037192250401
 50
236.745982377890698
 51
267.0599635667134066
  0
ARC
  5
CBDF
  8
0
  6
CONTINUOUS
 62
     7
 10
1002.9406928376829455
 20
137.0307038279077858
 30
0.0
 40
0.0178610298512164
 50
230.157238700976194
 51
239.175599505447309
  0
ARC
  5
CBE0
  8
0
  6
CONTINUOUS
 62
     7
 10
1002.9559739198549551
 20
137.0498108713549072
 30
0.0
 40
0.0423249092186257
 50
228.0578779975404018
 51
230.8458295915775977
  0
ARC
  5
CBE1
  8
0
  6
CONTINUOUS
 62
     7
 10
1001.7437444997150351
 20
136.4322037129749958
 30
0.0
 40
1.3077144502060749
 50
28.6361105134135983
 51
28.965405386738091
  0
LINE
  5
CBE2
  8
0
  6
CONTINUOUS
 62
     7
 10
1003.0902766634619638
 20
137.1376182699345065
 30
0.0
 11
1003.0162979989510177
 21
137.1038336725000875
 31
0.0
  0
LINE
  5
CBE3
  8
0
  6
CONTINUOUS
 62
     7
 10
1002.988512519298979
 20
137.2402241992284075
 30
0.0
 11
1002.9336894847240274
 21
137.2051095566638992
 31
0.0
  0
ARC
  5
CBE4
  8
0
  6
CONTINUOUS
 62
     7
 10
1003.0096266708089843
 20
137.1245867873612951
 30
0.0
 40
0.0217990457499686
 50
266.3769780595425232
 51
287.8206006789324078
  0
ARC
  5
CBE5
  8
0
  6
CONTINUOUS
 62
     7
 10
1003.0102737846340233
 20
137.1338289887291921
 30
0.0
 40
0.0310637293918722
 50
259.7846726599590284
 51
266.2630057787889086
  0
ARC
  5
CBE6
  8
0
  6
CONTINUOUS
 62
     7
 10
1003.0117999816479823
 20
137.1409536546873937
 30
0.0
 40
0.038346866019981
 50
250.0934419294499094
 51
259.4283785501935995
  0
ARC
  5
CBE7
  8
0
  6
CONTINUOUS
 62
     7
 10
1003.0214968279709637
 20
137.1659087604942897
 30
0.0
 40
0.0651154921757049
 50
238.4833435398998915
 51
249.547398246695991
  0
ARC
  5
CBE8
  8
0
  6
CONTINUOUS
 62
     7
 10
1002.9488602802059631
 20
137.1894418315403925
 30
0.0
 40
0.0228747393139965
 50
156.4642813885022008
 51
193.3720723086784119
  0
ARC
  5
CBE9
  8
0
  6
CONTINUOUS
 62
     7
 10
1002.942244619011035
 20
137.1916713224086095
 30
0.0
 40
0.0159303629140054
 50
122.4819055674505961
 51
154.3138923766944117
  0
ARC
  5
CBEA
  8
0
  6
CONTINUOUS
 62
     7
 10
1003.0033160374759973
 20
137.1809035611526042
 30
0.0
 40
0.0572600674052026
 50
228.1653725071232088
 51
239.2016342814233099
  0
ARC
  5
CBEB
  8
0
  6
CONTINUOUS
 62
     7
 10
1003.0209850103229883
 20
137.2020050631521997
 30
0.0
 40
0.0847720109038283
 50
213.0844451954282874
 51
228.7802098024862971
  0
ARC
  5
CBEC
  8
0
  6
CONTINUOUS
 62
     7
 10
1002.9720117983359842
 20
137.1711861674380089
 30
0.0
 40
0.0269311415540843
 50
192.0519037883271096
 51
215.0231608785150001
  0
ARC
  5
CBED
  8
0
  6
CONTINUOUS
 62
     7
 10
1002.9512621728570139
 20
137.166366032598205
 30
0.0
 40
0.0056453283244147
 50
168.5910075399447976
 51
188.1778359811231951
  0
ARC
  5
CBEE
  8
0
  6
CONTINUOUS
 62
     7
 10
1002.9482761890919846
 20
137.1669681429476952
 30
0.0
 40
0.0025992430632191
 50
134.6200223504370967
 51
168.5811257407495134
  0
ARC
  5
CBEF
  8
0
  6
CONTINUOUS
 62
     7
 10
1002.948222131812031
 20
137.1668663903481047
 30
0.0
 40
0.0026359926451954
 50
97.9506284241366529
 51
132.2295026740339097
  0
ARC
  5
CBF0
  8
0
  6
CONTINUOUS
 62
     7
 10
1002.948661403023948
 20
137.163293068289903
 30
0.0
 40
0.0062360075973217
 50
76.1698195971273719
 51
97.4065848010000366
  0
ARC
  5
CBF1
  8
0
  6
CONTINUOUS
 62
     7
 10
1002.9452503762549895
 20
137.1501697056673095
 30
0.0
 40
0.0197950693952147
 50
60.0784760836499387
 51
75.6631188488972555
  0
ARC
  5
CBF2
  8
0
  6
CONTINUOUS
 62
     7
 10
1002.9266750130719856
 20
137.1174069487537963
 30
0.0
 40
0.0574570131112122
 50
49.331601973027503
 51
60.3208534638984801
  0
ARC
  5
CBF3
  8
0
  6
CONTINUOUS
 62
     7
 10
1002.9077925381260457
 20
137.0941211698531106
 30
0.0
 40
0.0874286259794986
 50
36.0635173609506126
 51
49.8903815605229326
  0
ARC
  5
CBF4
  8
0
  6
CONTINUOUS
 62
     7
 10
1002.952167888824988
 20
137.1250493065682008
 30
0.0
 40
0.0333691803585344
 50
16.1287937243568891
 51
37.989937488973041
  0
ARC
  5
CBF5
  8
0
  6
CONTINUOUS
 62
     7
 10
1002.9783020940240021
 20
137.1327521006784877
 30
0.0
 40
0.0061254003565828
 50
341.0527092293414171
 51
14.8229466482007002
  0
ARC
  5
CBF6
  8
0
  6
CONTINUOUS
 62
     7
 10
1002.9816663471290212
 20
137.1318989427122972
 30
0.0
 40
0.0026816455951044
 50
275.5221385038086055
 51
334.9425580526137196
  0
ARC
  5
CBF7
  8
0
  6
CONTINUOUS
 62
     7
 10
1002.9813077715530198
 20
137.1387099491628021
 30
0.0
 40
0.0095002397103159
 50
245.890298334813906
 51
273.7215086927117795
  0
ARC
  5
CBF8
  8
0
  6
CONTINUOUS
 62
     7
 10
1002.9874805632570087
 20
137.154897451431907
 30
0.0
 40
0.0268149609732656
 50
239.8141611056709053
 51
247.9805574517955904
  0
ARC
  5
CBF9
  8
0
  6
CONTINUOUS
 62
     7
 10
1003.0615272878279711
 20
137.2291997136258033
 30
0.0
 40
0.1399999300032257
 50
224.5649111322456974
 51
238.0575592427244942
  0
ARC
  5
CBFA
  8
0
  6
CONTINUOUS
 62
     7
 10
1003.0904550259200505
 20
137.2614473529004897
 30
0.0
 40
0.1832579188001443
 50
213.3434180234035011
 51
225.4015762673938923
  0
ARC
  5
CBFB
  8
0
  6
CONTINUOUS
 62
     7
 10
1002.9991470503559867
 20
137.2032671620943916
 30
0.0
 40
0.0750176993478876
 50
194.762640254864408
 51
214.5538948568081992
  0
ARC
  5
CBFC
  8
0
  6
CONTINUOUS
 62
     7
 10
1002.9888667616679641
 20
137.23343766689419
 30
0.0
 40
0.0155421606964523
 50
161.8254997285445995
 51
190.3069448872900011
  0
ARC
  5
CBFD
  8
0
  6
CONTINUOUS
 62
     7
 10
1002.9812992132040108
 20
137.2359243345287894
 30
0.0
 40
0.0075765285337451
 50
122.2678633900649032
 51
161.8421386952940964
  0
ARC
  5
CBFE
  8
0
  6
CONTINUOUS
 62
     7
 10
1002.9791430460320498
 20
137.222963526669588
 30
0.0
 40
0.0194591108833097
 50
68.2477698399217303
 51
95.5701181146838934
  0
ARC
  5
CBFF
  8
0
  6
CONTINUOUS
 62
     7
 10
1002.9534358958210305
 20
137.1503702707782963
 30
0.0
 40
0.0964577522674814
 50
58.5138764390876531
 51
70.0454569726167762
  0
ARC
  5
CC00
  8
0
  6
CONTINUOUS
 62
     7
 10
1002.8649890411679735
 20
137.0095574858034126
 30
0.0
 40
0.2627400126953884
 50
47.6155409139344812
 51
58.1040899698160516
  0
ARC
  5
CC01
  8
0
  6
CONTINUOUS
 62
     7
 10
1002.8681207446979897
 20
137.0132027576892142
 30
0.0
 40
0.2579364280218013
 50
34.8515292989911813
 51
47.5835341305140602
  0
ARC
  5
CC02
  8
0
  6
CONTINUOUS
 62
     7
 10
1003.0264584711890166
 20
137.1223887841130988
 30
0.0
 40
0.0656102042627488
 50
10.5016540121887196
 51
35.6204232896484285
  0
ARC
  5
CC03
  8
0
  6
CONTINUOUS
 62
     7
 10
1003.0822593824200339
 20
137.1330599585045036
 30
0.0
 40
0.0088048955533237
 50
335.7200231547562908
 51
8.4062632173889238
  0
ARC
  5
CC04
  8
0
  6
CONTINUOUS
 62
     7
 10
1003.0875961430169809
 20
137.1313186100121015
 30
0.0
 40
0.0032808179427257
 50
283.9064697761345997
 51
325.0556687901870987
  0
ARC
  5
CC05
  8
0
  6
CONTINUOUS
 62
     7
 10
1003.0842597670670102
 20
137.137395320101291
 30
0.0
 40
0.0101384179847718
 50
274.0486467457566846
 51
294.0075098499740989
  0
ARC
  5
CC06
  8
0
  6
CONTINUOUS
 62
     7
 10
1003.0819146188860032
 20
137.1497943469829863
 30
0.0
 40
0.022719288678755
 50
267.979594087298608
 51
277.742970394631925
  0
ARC
  5
CC07
  8
0
  6
CONTINUOUS
 62
     7
 10
1003.0826746303409891
 20
137.16406955781531
 30
0.0
 40
0.0370133067445394
 50
254.9876353780433078
 51
267.5829056209948931
  0
ARC
  5
CC08
  8
0
  6
CONTINUOUS
 62
     7
 10
1003.0832731226080341
 20
137.1685119840882976
 30
0.0
 40
0.0414630933089134
 50
252.9562534868312866
 51
255.7789698464347907
  0
ARC
  5
CC09
  8
0
  6
CONTINUOUS
 62
     7
 10
999.8287890805580673
 20
134.9157528302108062
 30
0.0
 40
3.7725735147436472
 50
35.4210345525077273
 51
37.4148007107450269
  0
ARC
  5
CC0A
  8
0
  6
CONTINUOUS
 62
     7
 10
1002.340767892908957
 20
136.8417221031768065
 30
0.0
 40
0.6072426111007942
 50
37.0859530496878023
 51
39.8242234972826026
  0
ARC
  5
CC0B
  8
0
  6
CONTINUOUS
 62
     7
 10
1002.7434094872929791
 20
137.180017569004491
 30
0.0
 40
0.0813759880628916
 50
38.4513286382828525
 51
45.3828323547076735
  0
ARC
  5
CC0C
  8
0
  6
CONTINUOUS
 62
     7
 10
1002.7905364744759709
 20
137.227987660656197
 30
0.0
 40
0.0141304795498032
 50
44.7873667692902089
 51
53.5611846911581821
  0
ARC
  5
CC0D
  8
0
  6
CONTINUOUS
 62
     7
 10
1002.7977865129359998
 20
137.2379122267728064
 30
0.0
 40
0.0018410398173639
 50
51.6238101804981895
 51
76.0242002846460707
  0
ARC
  5
CC0E
  8
0
  6
CONTINUOUS
 62
     7
 10
1002.7981618265040424
 20
137.2394456053933141
 30
0.0
 40
0.0002624812526347
 50
74.6872472407571308
 51
177.9700051016253894
  0
ARC
  5
CC0F
  8
0
  6
CONTINUOUS
 62
     7
 10
1002.8010312595720279
 20
137.2393742235321952
 30
0.0
 40
0.0031327886493353
 50
178.5242814559638873
 51
205.8871528203617913
  0
ARC
  5
CC10
  8
0
  6
CONTINUOUS
 62
     7
 10
1002.8343446821429552
 20
137.2523363835601913
 30
0.0
 40
0.0388697558245423
 50
201.6333342310142882
 51
209.8496360400181118
  0
ARC
  5
CC11
  8
0
  6
CONTINUOUS
 62
     7
 10
1002.9712185317130206
 20
137.3250142934450082
 30
0.0
 40
0.1938256647025245
 50
208.344970490778195
 51
209.9378725288902103
  0
LINE
  5
CC12
  8
0
  6
CONTINUOUS
 62
     7
 10
1002.8071380088530304
 20
137.2306211950904924
 30
0.0
 11
1002.7827205171950027
 21
137.215919028758691
 31
0.0
  0
ARC
  5
CC13
  8
0
  6
CONTINUOUS
 62
     7
 10
1002.7893697788309737
 20
137.2057418885636935
 30
0.0
 40
0.0121567620217538
 50
123.1587000239827034
 51
192.2023941887873946
  0
ARC
  5
CC14
  8
0
  6
CONTINUOUS
 62
     7
 10
1002.7982240977900119
 20
137.2075308259908013
 30
0.0
 40
0.0211895126843025
 50
191.8698617403753985
 51
207.7949572780499921
  0
ARC
  5
CC15
  8
0
  6
CONTINUOUS
 62
     7
 10
1002.8034529882339712
 20
137.2094832465479897
 30
0.0
 40
0.0267349944133166
 50
206.2707687549456921
 51
211.9868250262391882
  0
ARC
  5
CC16
  8
0
  6
CONTINUOUS
 62
     7
 10
1002.911749326754034
 20
137.0376142430833113
 30
0.0
 40
0.0123349769899453
 50
250.279724295758399
 51
288.8417534360366972
  0
ARC
  5
CC17
  8
0
  6
CONTINUOUS
 62
     7
 10
1002.9142600925340503
 20
137.0431693340563015
 30
0.0
 40
0.0184179666404763
 50
226.2101901723827098
 51
248.7581251145930992
  0
ARC
  5
CC18
  8
0
  6
CONTINUOUS
 62
     7
 10
1004.0213584126199748
 20
137.9626231874539997
 30
0.0
 40
1.458696115109142
 50
211.7368784561143116
 51
218.257200951844311
  0
ARC
  5
CC19
  8
0
  6
CONTINUOUS
 62
     7
 10
1003.1323724318050381
 20
137.2556709883535859
 30
0.0
 40
0.3229237600717993
 50
217.428060515681608
 51
224.3650847608884078
  0
ARC
  5
CC1A
  8
0
  6
CONTINUOUS
 62
     7
 10
1003.3253467992899459
 20
137.4652635952550952
 30
0.0
 40
0.6010062221707608
 50
216.2731134154402923
 51
218.445513616494793
  0
ARC
  5
CC1B
  8
0
  6
CONTINUOUS
 62
     7
 10
1003.1644480657480472
 20
137.3498915655891892
 30
0.0
 40
0.4030364696642696
 50
214.4530255160076138
 51
216.5829798980956014
  0
ARC
  5
CC1C
  8
0
  6
CONTINUOUS
 62
     7
 10
1003.1396350269390041
 20
137.3453888993003886
 30
0.0
 40
0.3801688083373729
 50
213.4416454849360036
 51
216.0092578568275883
  0
ARC
  5
CC1D
  8
0
  6
CONTINUOUS
 62
     7
 10
1003.0674938696239451
 20
137.2986306738382041
 30
0.0
 40
0.2942038566558446
 50
212.6250000865084075
 51
213.585525412611986
  0
ARC
  5
CC1E
  8
0
  6
CONTINUOUS
 62
     7
 10
1002.7596677974820523
 20
137.0269553403219902
 30
0.0
 40
0.1174154560330924
 50
29.9544409687040485
 51
33.5153168170348934
  0
ARC
  5
CC1F
  8
0
  6
CONTINUOUS
 62
     7
 10
1002.8622664131139572
 20
137.0833155512285941
 30
0.0
 40
0.0001003620614879
 50
267.7075962720330722
 51
344.9897451870821214
  0
ARC
  5
CC20
  8
0
  6
CONTINUOUS
 62
     7
 10
1002.8667483772100013
 20
137.0897890157189067
 30
0.0
 40
0.0080328493304335
 50
223.7687359197566934
 51
232.7212550607547996
  0
ARC
  5
CC21
  8
0
  6
CONTINUOUS
 62
     7
 10
1002.8958597433130535
 20
137.1184847730116019
 30
0.0
 40
0.0489090282709848
 50
220.6705909192617128
 51
224.4535103952748898
  0
ARC
  5
CC22
  8
0
  6
CONTINUOUS
 62
     7
 10
1002.9907353476929757
 20
137.2004355001498936
 30
0.0
 40
0.174277573768572
 50
218.6552946726461926
 51
220.7776948323270005
  0
ARC
  5
CC23
  8
0
  6
CONTINUOUS
 62
     7
 10
1002.8155629620099489
 20
137.1476549011738086
 30
0.0
 40
0.0000911386202675
 50
80.6507448874175452
 51
168.6586428337255086
  0
ARC
  5
CC24
  8
0
  6
CONTINUOUS
 62
     7
 10
1002.9618138186580154
 20
137.2290698441732957
 30
0.0
 40
0.1677031078186834
 50
209.6772936272041932
 51
212.0752206807217135
  0
ARC
  5
CC25
  8
0
  6
CONTINUOUS
 62
     7
 10
1002.8223079753470302
 20
137.1496305950201133
 30
0.0
 40
0.0071652289624008
 50
198.0787014530027932
 51
210.0956885528945008
  0
ARC
  5
CC26
  8
0
  6
CONTINUOUS
 62
     7
 10
1002.8160619846039481
 20
137.1475896162303059
 30
0.0
 40
0.0005942359564127
 50
171.9507263090596041
 51
197.8909586684040107
  0
ARC
  5
CC27
  8
0
  6
CONTINUOUS
 62
     7
 10
1002.8153568785080552
 20
137.1468952764751066
 30
0.0
 40
0.0008777993894377
 50
49.6269002920816789
 51
75.425437939710406
  0
ARC
  5
CC28
  8
0
  6
CONTINUOUS
 62
     7
 10
1002.8100547145589871
 20
137.1402208783406991
 30
0.0
 40
0.0094014723103959
 50
41.9095533257658488
 51
51.3580143872844914
  0
ARC
  5
CC29
  8
0
  6
CONTINUOUS
 62
     7
 10
1002.7857378802240191
 20
137.1168946791433996
 30
0.0
 40
0.043093427808667
 50
41.0969119142359602
 51
43.3945454573952887
  0
ARC
  5
CC2A
  8
0
  6
CONTINUOUS
 62
     7
 10
1002.7045628313840098
 20
137.0467261787268001
 30
0.0
 40
0.1503918011504664
 50
38.422362209870883
 51
40.9139333030337582
  0
ARC
  5
CC2B
  8
0
  6
CONTINUOUS
 62
     7
 10
1002.4496598877959741
 20
136.843231030338103
 30
0.0
 40
0.4765596397711837
 50
37.1698644075282729
 51
38.5447685100035713
  0
ARC
  5
CC2C
  8
0
  6
CONTINUOUS
 62
     7
 10
1002.1054598780480092
 20
136.5817650003237986
 30
0.0
 40
0.9088073139905581
 50
35.8114919547344073
 51
37.194441975332488
  0
ARC
  5
CC2D
  8
0
  6
CONTINUOUS
 62
     7
 10
1002.8626749268449885
 20
137.0844511530912087
 30
0.0
 40
0.0013182851174222
 50
233.0745986137814043
 51
247.3835041259511911
  0
ARC
  5
CC2E
  8
0
  6
CONTINUOUS
 62
     7
 10
1002.862269473690958
 20
137.0834949469200978
 30
0.0
 40
0.0002797669075835
 50
248.725857750102108
 51
268.5508993611080086
  0
ARC
  5
CC2F
  8
0
  6
CONTINUOUS
 62
     7
 10
1002.8619557138599703
 20
137.0833838272855019
 30
0.0
 40
0.000418395146605
 50
346.9788344663826933
 51
12.4043027967096595
  0
ARC
  5
CC30
  8
0
  6
CONTINUOUS
 62
     7
 10
1002.8607489203690193
 20
137.0831825724872886
 30
0.0
 40
0.0016414456331211
 50
10.2161160405435307
 51
18.5453895179393093
  0
ARC
  5
CC31
  8
0
  6
CONTINUOUS
 62
     7
 10
1002.8530857089630217
 20
137.0804136198703986
 30
0.0
 40
0.0097892055011121
 50
19.6448608563242608
 51
31.8695555674180611
  0
ARC
  5
CC32
  8
0
  6
CONTINUOUS
 62
     7
 10
1002.3552210094029533
 20
136.7588065929610082
 30
0.0
 40
0.6026792433217313
 50
33.5387581006174074
 51
36.0557294720023194
  0
ARC
  5
CC33
  8
0
  6
CONTINUOUS
 62
     7
 10
1008.355982487762958
 20
140.913102075793006
 30
0.0
 40
6.6685596319957536
 50
212.1060589058392907
 51
213.5668221479182023
  0
ARC
  5
CC34
  8
0
  6
CONTINUOUS
 62
     7
 10
4041.2459534341501239
 20
-6751.9116980400549437
 30
0.0
 40
7529.4918121582186359
 50
113.7998979069785008
 51
113.8003037640673938
  0
ARC
  5
CC35
  8
0
  6
CONTINUOUS
 62
     7
 10
1002.7136596872660448
 20
137.2643290585830016
 30
0.0
 40
0.0118124173472357
 50
212.9823732841892081
 51
293.7892259780142012
  0
ARC
  5
CC36
  8
0
  6
CONTINUOUS
 62
     7
 10
1014.8844095092620137
 20
145.0601101810594002
 30
0.0
 40
14.4652323753249199
 50
212.224964114654
 51
212.6412288893488949
  0
ARC
  5
CC37
  8
0
  6
CONTINUOUS
 62
     7
 10
1002.657434122690006
 20
137.3528373102979003
 30
0.0
 40
0.0118253528460791
 50
123.8676339391854953
 51
211.841780898493198
  0
LINE
  5
CC38
  8
0
  6
CONTINUOUS
 62
     7
 10
1002.6508441355739478
 20
137.3626562226484964
 30
0.0
 11
1002.6914744475150201
 21
137.3898558457476895
 31
0.0
  0
ARC
  5
CC39
  8
0
  6
CONTINUOUS
 62
     7
 10
996.504845773084071
 20
151.5858186850358038
 30
0.0
 40
15.4842185831365509
 50
293.4007022383792105
 51
293.5466748890145823
  0
ARC
  5
CC3A
  8
0
  6
CONTINUOUS
 62
     7
 10
1002.650513486006048
 20
137.3876601367319097
 30
0.0
 40
0.0131142592275884
 50
217.905181939268914
 51
287.9020773587923259
  0
LINE
  5
CC3B
  8
0
  6
CONTINUOUS
 62
     7
 10
1002.6226208487460099
 20
137.5075879996479102
 30
0.0
 11
1002.5891858448210314
 21
137.4854451872402024
 31
0.0
  0
ARC
  5
CC3C
  8
0
  6
CONTINUOUS
 62
     7
 10
1002.5962942713019856
 20
137.4750606431854862
 30
0.0
 40
0.0125844539917659
 50
124.3924144336317994
 51
204.3129502877679045
  0
ARC
  5
CC3D
  8
0
  6
CONTINUOUS
 62
     7
 10
1002.8382790226149837
 20
137.5870275690841993
 30
0.0
 40
0.2792170688964569
 50
204.8067863084775126
 51
210.8079718170191938
  0
ARC
  5
CC3E
  8
0
  6
CONTINUOUS
 62
     7
 10
1003.4286911681559786
 20
137.9245358018648062
 30
0.0
 40
0.9592558843284704
 50
210.0610407575711918
 51
212.9178107335044956
  0
ARC
  5
CC3F
  8
0
  6
CONTINUOUS
 62
     7
 10
1002.8513286791679775
 20
137.5467229809910918
 30
0.0
 40
0.2692929247376627
 50
212.1952220665178004
 51
218.3590095352064964
  0
ARC
  5
CC40
  8
0
  6
CONTINUOUS
 62
     7
 10
1002.9182663812639476
 20
137.6110172272761929
 30
0.0
 40
0.3590028729347614
 50
211.781922173021286
 51
214.0615672421018871
  0
ARC
  5
CC41
  8
0
  6
CONTINUOUS
 62
     7
 10
1003.4128814983879465
 20
137.9170605195639894
 30
0.0
 40
0.9406441398085922
 50
211.1818277137047914
 51
211.7604310724701122
  0
ARC
  5
CC42
  8
0
  6
CONTINUOUS
 62
     7
 10
1002.8132742837780143
 20
137.5536513707000097
 30
0.0
 40
0.2395063492525449
 50
208.5049279000189983
 51
211.0725402719164094
  0
ARC
  5
CC43
  8
0
  6
CONTINUOUS
 62
     7
 10
1002.686798917416013
 20
137.4870212344607125
 30
0.0
 40
0.0965815105334975
 50
207.7324846670657905
 51
209.5760327768149125
  0
ARC
  5
CC44
  8
0
  6
CONTINUOUS
 62
     7
 10
1002.5408006584590339
 20
137.3649302913545114
 30
0.0
 40
0.0937697632236837
 50
25.9341522190282703
 51
28.8957053701962501
  0
ARC
  5
CC45
  8
0
  6
CONTINUOUS
 62
     7
 10
1002.6345919473679942
 20
137.4127070140114881
 30
0.0
 40
0.0127574206209828
 50
218.8065564380823105
 51
223.7814718872305093
  0
ARC
  5
CC46
  8
0
  6
CONTINUOUS
 62
     7
 10
1002.6592984712930274
 20
137.4326631679819002
 30
0.0
 40
0.0445168143534165
 50
216.1926369174441049
 51
218.8937574412736922
  0
ARC
  5
CC47
  8
0
  6
CONTINUOUS
 62
     7
 10
1002.7249857396830066
 20
137.4806771066668034
 30
0.0
 40
0.1258811492032673
 50
214.1866481424432038
 51
216.1746700562640058
  0
ARC
  5
CC48
  8
0
  6
CONTINUOUS
 62
     7
 10
1002.6469859799259439
 20
137.4667846760106045
 30
0.0
 40
0.0519285662471052
 50
203.5277347324908988
 51
208.410763393897895
  0
ARC
  5
CC49
  8
0
  6
CONTINUOUS
 62
     7
 10
1002.6036125996910187
 20
137.4479033497300122
 30
0.0
 40
0.0046236562030907
 50
191.7969202098151129
 51
203.5609825062491893
  0
ARC
  5
CC4A
  8
0
  6
CONTINUOUS
 62
     7
 10
1002.5995674853700166
 20
137.4470298514058868
 30
0.0
 40
0.0004862103487387
 50
168.5101025374746087
 51
188.4891348205449049
  0
ARC
  5
CC4B
  8
0
  6
CONTINUOUS
 62
     7
 10
1002.5982756301540348
 20
137.4456203152097942
 30
0.0
 40
0.0018227990228459
 50
43.2061010424429526
 51
55.1137010793507613
  0
ARC
  5
CC4C
  8
0
  6
CONTINUOUS
 62
     7
 10
1002.5956617329110259
 20
137.4427499669739916
 30
0.0
 40
0.0057012075085089
 50
39.5428142018214714
 51
46.2490505839978923
  0
ARC
  5
CC4D
  8
0
  6
CONTINUOUS
 62
     7
 10
1002.5822023308149937
 20
137.4311563940210021
 30
0.0
 40
0.0234644539647846
 50
37.7084943095096108
 51
40.4496972580159166
  0
ARC
  5
CC4E
  8
0
  6
CONTINUOUS
 62
     7
 10
1002.5353119177600547
 20
137.3953731198253081
 30
0.0
 40
0.0824484720617007
 50
34.6353613898524628
 51
37.4507227304253476
  0
ARC
  5
CC4F
  8
0
  6
CONTINUOUS
 62
     7
 10
1002.3984078228900216
 20
137.3003857928231071
 30
0.0
 40
0.2490776537403887
 50
33.0383521098931823
 51
34.7146190310394118
  0
ARC
  5
CC50
  8
0
  6
CONTINUOUS
 62
     7
 10
1002.2119812799079455
 20
137.1789253439127947
 30
0.0
 40
0.4715804160527631
 50
31.40521708590909
 51
33.0603667611656107
  0
ARC
  5
CC51
  8
0
  6
CONTINUOUS
 62
     7
 10
1002.606173195444967
 20
137.3967436393799062
 30
0.0
 40
0.0210672463120396
 50
21.2608139918750716
 51
25.8803901234603302
  0
ARC
  5
CC52
  8
0
  6
CONTINUOUS
 62
     7
 10
1002.303374696807964
 20
137.2333306049806083
 30
0.0
 40
0.3652278699787893
 50
28.9721702556861409
 51
31.5917252116395417
  0
ARC
  5
CC53
  8
0
  6
CONTINUOUS
 62
     7
 10
1002.5990551934879704
 20
137.4467314869343966
 30
0.0
 40
0.0004654630183188
 50
55.597786523556799
 51
70.464577510355042
  0
ARC
  5
CC54
  8
0
  6
CONTINUOUS
 62
     7
 10
1002.5991701982170525
 20
137.4470952951866991
 30
0.0
 40
0.0000851808938103
 50
61.5027229431894895
 51
158.3639803078017962
  0
ARC
  5
CC55
  8
0
  6
CONTINUOUS
 62
     7
 10
1002.6230251208139634
 20
137.4032354739449033
 30
0.0
 40
0.0030088558864205
 50
8.2762402499326271
 51
22.4176472076354614
  0
ARC
  5
CC56
  8
0
  6
CONTINUOUS
 62
     7
 10
1002.6271450617140317
 20
137.4055266471179948
 30
0.0
 40
0.0024129285677493
 50
223.0325844424413049
 51
234.7920317996432118
  0
ARC
  5
CC57
  8
0
  6
CONTINUOUS
 62
     7
 10
1002.6257316882530404
 20
137.4036352048316019
 30
0.0
 40
0.0002730014704178
 50
350.5731627394532097
 51
7.0234525125621019
  0
ARC
  5
CC58
  8
0
  6
CONTINUOUS
 62
     7
 10
1002.6259934895280139
 20
137.4038935296335069
 30
0.0
 40
0.0004146321195349
 50
234.7010698591982987
 51
254.4757762187605863
  0
ARC
  5
CC59
  8
0
  6
CONTINUOUS
 62
     7
 10
1002.6259172221050449
 20
137.4035652043199036
 30
0.0
 40
0.0000748512896279
 50
271.169744537620204
 51
335.0741429111791945
  0
ARC
  5
CC5A
  8
0
  6
CONTINUOUS
 62
     7
 10
1002.6259143421050339
 20
137.403628083352686
 30
0.0
 40
0.0001377852531656
 50
256.644237298668088
 51
271.8333292861846076
  0
ARC
  5
CC5B
  8
0
  6
CONTINUOUS
 62
     7
 10
1002.6258465503490243
 20
137.4036030661191887
 30
0.0
 40
0.0001549637556147
 50
333.391283158821409
 51
355.3451962674423044
  0
LINE
  5
CC5C
  8
0
  6
CONTINUOUS
 62
     7
 10
1002.7855360029459462
 20
137.3509704650930132
 30
0.0
 11
1002.7520186625409906
 21
137.3367431538690084
 31
0.0
  0
LINE
  5
CC5D
  8
0
  6
CONTINUOUS
 62
     7
 10
1002.6520493889280488
 20
137.5460115811486048
 30
0.0
 11
1002.6279829014059715
 21
137.531520255535014
 31
0.0
  0
LINE
  5
CC5E
  8
0
  6
CONTINUOUS
 62
     7
 10
1002.7451396959570502
 20
137.55957567337299
 30
0.0
 11
1002.6821211229530491
 21
137.5331550906963116
 31
0.0
  0
LINE
  5
CC5F
  8
0
  6
CONTINUOUS
 62
     7
 10
1002.6670678680110314
 20
137.6766522635437866
 30
0.0
 11
1002.6136576591160292
 21
137.6422975769544905
 31
0.0
  0
LINE
  5
CC60
  8
0
  6
CONTINUOUS
 62
     7
 10
1002.6038522879430275
 20
137.5436622522512948
 30
0.0
 11
1002.5561124133860176
 21
137.5214417961435061
 31
0.0
  0
LINE
  5
CC61
  8
0
  6
CONTINUOUS
 62
     7
 10
1002.5378120907889752
 20
137.6586977749078073
 30
0.0
 11
1002.4935710221769796
 21
137.6321571483329933
 31
0.0
  0
LINE
  5
CC62
  8
0
  6
CONTINUOUS
 62
     7
 10
1002.524388334473997
 20
137.6999568380363996
 30
0.0
 11
1002.4755763312280124
 21
137.6775538919688984
 31
0.0
  0
LINE
  5
CC63
  8
0
  6
CONTINUOUS
 62
     7
 10
1002.5386798144030536
 20
137.7247731978646073
 30
0.0
 11
1002.4859805027159609
 21
137.7026814102866865
 31
0.0
  0
LINE
  5
CC64
  8
0
  6
CONTINUOUS
 62
     7
 10
1002.4708643415069673
 20
137.8450702977472986
 30
0.0
 11
1002.4238290191290162
 21
137.8148161640646947
 31
0.0
  0
LINE
  5
CC65
  8
0
  6
CONTINUOUS
 62
     7
 10
1002.5110432909840483
 20
137.8744211812222034
 30
0.0
 11
1002.4792653035809735
 21
137.8609343048458129
 31
0.0
  0
LINE
  5
CC66
  8
0
  6
CONTINUOUS
 62
     7
 10
1002.3993442949009705
 20
138.0808384362397874
 30
0.0
 11
1002.3705341591009983
 21
138.0635277578041951
 31
0.0
  0
LINE
  5
CC67
  8
0
  6
CONTINUOUS
 62
     7
 10
1002.676132229031964
 20
137.9205301324963102
 30
0.0
 11
1002.6044634446079726
 21
137.8895876755717893
 31
0.0
  0
LINE
  5
CC68
  8
0
  6
CONTINUOUS
 62
     7
 10
1002.604213161512007
 20
138.0402011373041944
 30
0.0
 11
1002.5403469376759631
 21
138.0012782790884103
 31
0.0
  0
LINE
  5
CC69
  8
0
  6
CONTINUOUS
 62
     7
 10
1002.3713401423590312
 20
138.2712003813458921
 30
0.0
 11
1002.309804668768038
 21
138.2466639962991906
 31
0.0
  0
LINE
  5
CC6A
  8
0
  6
CONTINUOUS
 62
     7
 10
1002.3127174868700422
 20
138.398589039900088
 30
0.0
 11
1002.2549370581449466
 21
138.3628387595506979
 31
0.0
  0
LINE
  5
CC6B
  8
0
  6
CONTINUOUS
 62
     7
 10
1002.2070550216850506
 20
138.4419997766821098
 30
0.0
 11
1002.1751526151490452
 21
138.428460450880209
 31
0.0
  0
LINE
  5
CC6C
  8
0
  6
CONTINUOUS
 62
     7
 10
1002.1152261446439979
 20
138.6588356214510043
 30
0.0
 11
1002.0833033412189934
 21
138.6396546315802993
 31
0.0
  0
LINE
  5
CC6D
  8
0
  6
CONTINUOUS
 62
     7
 10
1002.2201411847750023
 20
138.7710103473411891
 30
0.0
 11
1002.1548966969679668
 21
138.7447066151993056
 31
0.0
  0
LINE
  5
CC6E
  8
0
  6
CONTINUOUS
 62
     7
 10
1002.1823864520280267
 20
138.9074189358090905
 30
0.0
 11
1002.1132946911239969
 21
138.8675865308887012
 31
0.0
  0
LINE
  5
CC6F
  8
0
  6
CONTINUOUS
 62
     7
 10
1002.0241569365670102
 20
138.9240899945748993
 30
0.0
 11
1001.9679607513360224
 21
138.902721161374501
 31
0.0
  0
LINE
  5
CC70
  8
0
  6
CONTINUOUS
 62
     7
 10
1001.9834580757479898
 20
139.0594685044169125
 30
0.0
 11
1001.9250361352210348
 21
139.024585939518488
 31
0.0
  0
LINE
  5
CC71
  8
0
  6
CONTINUOUS
 62
     7
 10
1001.8978361650340503
 20
139.098718138636201
 30
0.0
 11
1001.8708230601209834
 21
139.0824871307366948
 31
0.0
  0
LINE
  5
CC72
  8
0
  6
CONTINUOUS
 62
     7
 10
1001.9745421899890516
 20
138.8752344809441013
 30
0.0
 11
1001.9496152703679854
 21
138.8646536128086098
 31
0.0
  0
LINE
  5
CC73
  8
0
  6
CONTINUOUS
 62
     7
 10
1001.9884644392060409
 20
138.7776396980694074
 30
0.0
 11
1001.9393537308560553
 21
138.7595002637879986
 31
0.0
  0
LINE
  5
CC74
  8
0
  6
CONTINUOUS
 62
     7
 10
1001.9193470640459509
 20
138.8950475915528955
 30
0.0
 11
1001.8903890665610561
 21
138.8781437550298108
 31
0.0
  0
LINE
  5
CC75
  8
0
  6
CONTINUOUS
 62
     7
 10
1001.8121125836529473
 20
139.260635878426001
 30
0.0
 11
1001.7867199851920077
 21
139.2453784660588099
 31
0.0
  0
LINE
  5
CC76
  8
0
  6
CONTINUOUS
 62
     7
 10
1001.8709719926499702
 20
139.0294556192226025
 30
0.0
 11
1001.860672443909948
 21
139.0250834353556968
 31
0.0
  0
LINE
  5
CC77
  8
0
  6
CONTINUOUS
 62
     7
 10
1001.8146419876429718
 20
139.3111680859676085
 30
0.0
 11
1001.7642383404389648
 21
139.2925716649010042
 31
0.0
  0
LINE
  5
CC78
  8
0
  6
CONTINUOUS
 62
     7
 10
1001.7796518636389465
 20
139.4474203928332088
 30
0.0
 11
1001.7301774001280137
 21
139.4185410434764094
 31
0.0
  0
LINE
  5
CC79
  8
0
  6
CONTINUOUS
 62
     7
 10
1001.7305293598809612
 20
139.6591602236925951
 30
0.0
 11
1001.6842265794150535
 21
139.6418483233672134
 31
0.0
  0
LINE
  5
CC7A
  8
0
  6
CONTINUOUS
 62
     7
 10
1001.7217075459129774
 20
139.8053126513891016
 30
0.0
 11
1001.6668640907149666
 21
139.7755350847554894
 31
0.0
  0
LINE
  5
CC7B
  8
0
  6
CONTINUOUS
 62
     7
 10
1001.8554813811150552
 20
139.5662524927398067
 30
0.0
 11
1001.7879610793499978
 21
139.5289819947512058
 31
0.0
  0
LINE
  5
CC7C
  8
0
  6
CONTINUOUS
 62
     7
 10
1001.8684428098480339
 20
139.4196978369583917
 30
0.0
 11
1001.8119844688879994
 21
139.3981445691902081
 31
0.0
  0
LINE
  5
CC7D
  8
0
  6
CONTINUOUS
 62
     7
 10
1002.1543152898090057
 20
138.3986377816906952
 30
0.0
 11
1002.107121125127037
 21
138.3713901733545129
 31
0.0
  0
LINE
  5
CC7E
  8
0
  6
CONTINUOUS
 62
     7
 10
1002.2182179249119827
 20
138.189274454510894
 30
0.0
 11
1002.2016770247950035
 21
138.1819112304852126
 31
0.0
  0
LINE
  5
CC7F
  8
0
  6
CONTINUOUS
 62
     7
 10
1002.2019401734310122
 20
138.2301544488011871
 30
0.0
 11
1002.1926478273439898
 21
138.2260978494250026
 31
0.0
  0
LINE
  5
CC80
  8
0
  6
CONTINUOUS
 62
     7
 10
1002.2345011727360315
 20
138.1576579792470056
 30
0.0
 11
1002.2202454472469526
 21
138.1494312284787043
 31
0.0
  0
LINE
  5
CC81
  8
0
  6
CONTINUOUS
 62
     7
 10
1002.3161578717799784
 20
138.0795498907488934
 30
0.0
 11
1002.2667960544430343
 21
138.0575412659100039
 31
0.0
  0
LINE
  5
CC82
  8
0
  6
CONTINUOUS
 62
     7
 10
1002.3185415847219701
 20
138.0745420876320111
 30
0.0
 11
1002.281645705456981
 21
138.0531206956391941
 31
0.0
  0
LINE
  5
CC83
  8
0
  6
CONTINUOUS
 62
     7
 10
1002.379105973157948
 20
137.9577230651541129
 30
0.0
 11
1002.3400754216339692
 21
137.9402296310989016
 31
0.0
  0
LINE
  5
CC84
  8
0
  6
CONTINUOUS
 62
     7
 10
1002.3941708779240116
 20
137.9277548747564026
 30
0.0
 11
1002.3447054312860018
 21
137.9057313745950921
 31
0.0
  0
LINE
  5
CC85
  8
0
  6
CONTINUOUS
 62
     7
 10
1002.413934854626973
 20
137.8863718082263006
 30
0.0
 11
1002.3671441337370425
 21
137.8608415336053099
 31
0.0
  0
LINE
  5
CC86
  8
0
  6
CONTINUOUS
 62
     7
 10
1002.1839753156390316
 20
138.3670560206940081
 30
0.0
 11
1002.137051858593054
 21
138.3404186469659862
 31
0.0
  0
LINE
  5
CC87
  8
0
  6
CONTINUOUS
 62
     7
 10
1002.1281439614599549
 20
138.4649397781132052
 30
0.0
 11
1002.0800912246739927
 21
138.4443855624400044
 31
0.0
  0
LINE
  5
CC88
  8
0
  6
CONTINUOUS
 62
     7
 10
1002.0987815322249617
 20
138.5398668053873052
 30
0.0
 11
1002.0604602790759827
 21
138.5252972556451141
 31
0.0
  0
LINE
  5
CC89
  8
0
  6
CONTINUOUS
 62
     7
 10
1002.0571535665529836
 20
138.6715809279085931
 30
0.0
 11
1002.0086073072219506
 21
138.6425957223017065
 31
0.0
  0
LINE
  5
CC8A
  8
0
  6
CONTINUOUS
 62
     7
 10
1002.0309443553479696
 20
138.6667111368998064
 30
0.0
 11
1001.9855395488090153
 21
138.6415427712259998
 31
0.0
  0
LINE
  5
CC8B
  8
0
  6
CONTINUOUS
 62
     7
 10
1002.3168049577290049
 20
138.1522721669120983
 30
0.0
 11
1002.264250082738954
 21
138.1313202658537023
 31
0.0
  0
LINE
  5
CC8C
  8
0
  6
CONTINUOUS
 62
     7
 10
1002.2557833965070131
 20
138.2761398937547028
 30
0.0
 11
1002.2074067941830435
 21
138.2462033049613979
 31
0.0
  0
ARC
  5
CC8D
  8
0
  6
CONTINUOUS
 62
     7
 10
1002.7463231860059523
 20
137.3522845661154861
 30
0.0
 40
0.0165521583965019
 50
236.9857139446336873
 51
290.1264194000368093
  0
ARC
  5
CC8E
  8
0
  6
CONTINUOUS
 62
     7
 10
1002.7816895428220505
 20
137.405738130877296
 30
0.0
 40
0.080645876687582
 50
220.3526582943995891
 51
236.6078565661603932
  0
ARC
  5
CC8F
  8
0
  6
CONTINUOUS
 62
     7
 10
1002.9510943227589905
 20
137.5619063745799906
 30
0.0
 40
0.3110020194502357
 50
218.3733374105601968
 51
222.0706199525702118
  0
ARC
  5
CC90
  8
0
  6
CONTINUOUS
 62
     7
 10
1003.2593997202260425
 20
137.7997527047612039
 30
0.0
 40
0.7003763008104684
 50
213.2855615445969875
 51
217.9705637131127105
  0
ARC
  5
CC91
  8
0
  6
CONTINUOUS
 62
     7
 10
1003.234782445408996
 20
137.7887325859113901
 30
0.0
 40
0.6737633297157366
 50
205.7185527075668006
 51
213.6510625688833898
  0
ARC
  5
CC92
  8
0
  6
CONTINUOUS
 62
     7
 10
1002.6599282323329589
 20
137.5200175446979927
 30
0.0
 40
0.0387803680349593
 50
180.1447280938625966
 51
202.9975361691620037
  0
ARC
  5
CC93
  8
0
  6
CONTINUOUS
 62
     7
 10
1002.6355745286570027
 20
137.519233558654804
 30
0.0
 40
0.0144428433676606
 50
121.7108297371565016
 51
177.2774119797618937
  0
ARC
  5
CC94
  8
0
  6
CONTINUOUS
 62
     7
 10
1002.8998115299200435
 20
137.5711865719935076
 30
0.0
 40
0.2674348530537768
 50
205.7322430492359899
 51
217.3214073043077121
  0
ARC
  5
CC95
  8
0
  6
CONTINUOUS
 62
     7
 10
1002.4586053208510066
 20
137.2821453206159958
 30
0.0
 40
0.269757789956431
 50
29.1101730817450886
 51
40.5439670903906304
  0
ARC
  5
CC96
  8
0
  6
CONTINUOUS
 62
     7
 10
1002.6203751961120361
 20
137.370072580688003
 30
0.0
 40
0.0856665625333209
 50
20.2807546972140109
 51
30.3667959442080218
  0
ARC
  5
CC97
  8
0
  6
CONTINUOUS
 62
     7
 10
1002.7774607086199694
 20
137.4768047785995861
 30
0.0
 40
0.1129168169145093
 50
216.8762460200921964
 51
223.7640224032319907
  0
ARC
  5
CC98
  8
0
  6
CONTINUOUS
 62
     7
 10
1002.7078256585280087
 20
137.4095056085378985
 30
0.0
 40
0.0160825465827769
 50
222.2060863392013914
 51
239.1409787677619079
  0
ARC
  5
CC99
  8
0
  6
CONTINUOUS
 62
     7
 10
1002.6908477579030432
 20
137.3960159429043983
 30
0.0
 40
0.0105708164832573
 50
2.0127011240105168
 51
20.7806509291808617
  0
ARC
  5
CC9A
  8
0
  6
CONTINUOUS
 62
     7
 10
1002.7007306208359978
 20
137.3975517347764992
 30
0.0
 40
0.0021821023314959
 50
238.0679863227148871
 51
268.3300273110343142
  0
ARC
  5
CC9B
  8
0
  6
CONTINUOUS
 62
     7
 10
1002.6999265584239538
 20
137.3964163057393932
 30
0.0
 40
0.0014857795600885
 50
328.9395049176545172
 51
358.8775665869142131
  0
ARC
  5
CC9C
  8
0
  6
CONTINUOUS
 62
     7
 10
1002.7006589258550093
 20
137.3960330362068873
 30
0.0
 40
0.0006625265150518
 50
270.7007961664958771
 51
324.6510552851677858
  0
ARC
  5
CC9D
  8
0
  6
CONTINUOUS
 62
     7
 10
1002.684523113151954
 20
137.4661670201300865
 30
0.0
 40
0.0279230903945046
 50
193.5726774524412122
 51
203.4044658616577976
  0
ARC
  5
CC9E
  8
0
  6
CONTINUOUS
 62
     7
 10
1002.6403501648950396
 20
137.436156075159488
 30
0.0
 40
0.0315561067351499
 50
42.5524144798456589
 51
51.3638841771739507
  0
ARC
  5
CC9F
  8
0
  6
CONTINUOUS
 62
     7
 10
1002.6566074922479856
 20
137.45677369884271
 30
0.0
 40
0.0053033575747895
 50
49.4833757515833312
 51
69.0649032235538982
  0
ARC
  5
CCA0
  8
0
  6
CONTINUOUS
 62
     7
 10
1002.658025923112973
 20
137.4606173701369869
 30
0.0
 40
0.0012075813697323
 50
66.7589089226835455
 51
102.5971168382477003
  0
ARC
  5
CCA1
  8
0
  6
CONTINUOUS
 62
     7
 10
1002.657969307545045
 20
137.4611842402979107
 30
0.0
 40
0.0006456406427211
 50
108.6765861857950028
 51
163.5959863131143095
  0
ARC
  5
CCA2
  8
0
  6
CONTINUOUS
 62
     7
 10
1002.6605072203160489
 20
137.4605439017803121
 30
0.0
 40
0.0032626918287803
 50
165.3954926531947081
 51
196.5582244019207963
  0
ARC
  5
CCA3
  8
0
  6
CONTINUOUS
 62
     7
 10
1002.8226954240800524
 20
137.398017691600586
 30
0.0
 40
0.073740839867572
 50
225.9767868822405887
 51
227.7113022645781939
  0
ARC
  5
CCA4
  8
0
  6
CONTINUOUS
 62
     7
 10
1002.8069669001069997
 20
137.379105656854108
 30
0.0
 40
0.0491792801455589
 50
226.4414418517615104
 51
237.0606176547686061
  0
ARC
  5
CCA5
  8
0
  6
CONTINUOUS
 62
     7
 10
1002.7884439716509632
 20
137.350726001877689
 30
0.0
 40
0.0152903140120022
 50
237.4871321428655904
 51
250.1591334000530082
  0
ARC
  5
CCA6
  8
0
  6
CONTINUOUS
 62
     7
 10
1002.7848120042749542
 20
137.3400032579260994
 30
0.0
 40
0.0039776189880276
 50
246.9448732675689939
 51
286.5887367391346743
  0
ARC
  5
CCA7
  8
0
  6
CONTINUOUS
 62
     7
 10
1002.7850941972850478
 20
137.3384071341442905
 30
0.0
 40
0.0023745984785607
 50
291.0630012946913894
 51
333.8772764609973933
  0
ARC
  5
CCA8
  8
0
  6
CONTINUOUS
 62
     7
 10
1002.7800451574889848
 20
137.3403398750770066
 30
0.0
 40
0.0077741866683174
 50
337.4743665429804196
 51
9.332126402555966
  0
ARC
  5
CCA9
  8
0
  6
CONTINUOUS
 62
     7
 10
1002.7171525312249969
 20
137.3301185008874086
 30
0.0
 40
0.0714919828780712
 50
9.242054848352053
 51
24.1482503856692716
  0
ARC
  5
CCAA
  8
0
  6
CONTINUOUS
 62
     7
 10
1002.5816248777219926
 20
137.2768687041026112
 30
0.0
 40
0.2170523042311329
 50
22.3385977378567588
 51
25.4744864260127493
  0
ARC
  5
CCAB
  8
0
  6
CONTINUOUS
 62
     7
 10
1002.3957785040220188
 20
137.188213994655797
 30
0.0
 40
0.4229613299410783
 50
25.4881953757772806
 51
28.6583107660242611
  0
ARC
  5
CCAC
  8
0
  6
CONTINUOUS
 62
     7
 10
1002.2004064281539968
 20
137.0832211841205037
 30
0.0
 40
0.6447543140585661
 50
28.5190739170659491
 51
30.3498019992355204
  0
ARC
  5
CCAD
  8
0
  6
CONTINUOUS
 62
     7
 10
988.9929498556892895
 20
129.1242160621029882
 30
0.0
 40
16.0649082683620499
 50
31.0447218267681286
 51
31.121837371504931
  0
ARC
  5
CCAE
  8
0
  6
CONTINUOUS
 62
     7
 10
1001.661697615675962
 20
136.7501097800447099
 30
0.0
 40
1.2782059833779289
 50
32.003333963551313
 51
33.5677926483103874
  0
ARC
  5
CCAF
  8
0
  6
CONTINUOUS
 62
     7
 10
1001.8272937474309856
 20
136.8559409034297971
 30
0.0
 40
1.081714748348382
 50
33.7468261370560114
 51
35.0315743389950924
  0
ARC
  5
CCB0
  8
0
  6
CONTINUOUS
 62
     7
 10
1002.8366126653600077
 20
137.5722000186626133
 30
0.0
 40
0.1560669375822189
 50
213.1055997051313113
 51
217.6469677692045082
  0
ARC
  5
CCB1
  8
0
  6
CONTINUOUS
 62
     7
 10
1002.0646420643230385
 20
137.0278187396293106
 30
0.0
 40
0.7886676706593516
 50
35.6034376558212031
 51
39.1023425891738725
  0
ARC
  5
CCB2
  8
0
  6
CONTINUOUS
 62
     7
 10
1002.9314509202159797
 20
137.7457101863579965
 30
0.0
 40
0.3369338327737795
 50
219.1661981529043999
 51
220.8704155506160873
  0
ARC
  5
CCB3
  8
0
  6
CONTINUOUS
 62
     7
 10
1002.6516930290390519
 20
137.6745267617355921
 30
0.0
 40
0.0099078053272028
 50
67.5039820966693753
 51
94.9731723463326603
  0
ARC
  5
CCB4
  8
0
  6
CONTINUOUS
 62
     7
 10
1002.6512733399390527
 20
137.6798321470176916
 30
0.0
 40
0.0045862007543146
 50
95.4955267430606085
 51
149.6721258652347899
  0
ARC
  5
CCB5
  8
0
  6
CONTINUOUS
 62
     7
 10
1002.7089135229520025
 20
137.6824673160741952
 30
0.0
 40
0.0633181361560359
 50
192.1647878438591022
 51
196.4731659714273917
  0
ARC
  5
CCB6
  8
0
  6
CONTINUOUS
 62
     7
 10
1002.6870486458519736
 20
137.6780439131642026
 30
0.0
 40
0.0410130836689822
 50
184.4091511671967112
 51
192.5606733462946067
  0
ARC
  5
CCB7
  8
0
  6
CONTINUOUS
 62
     7
 10
1002.6590969838059664
 20
137.6765472690584033
 30
0.0
 40
0.0130456227671028
 50
154.5759646689161002
 51
187.2943945805992882
  0
ARC
  5
CCB8
  8
0
  6
CONTINUOUS
 62
     7
 10
1002.6345188956679522
 20
137.636006510541506
 30
0.0
 40
0.05208028712721
 50
53.4597280528484902
 51
66.2621547259695944
  0
ARC
  5
CCB9
  8
0
  6
CONTINUOUS
 62
     7
 10
1002.5900563389900526
 20
137.5791444785687077
 30
0.0
 40
0.1242519365357819
 50
44.4918396636553766
 51
52.5983211086967728
  0
ARC
  5
CCBA
  8
0
  6
CONTINUOUS
 62
     7
 10
1002.4918391601620442
 20
137.4821405496182933
 30
0.0
 40
0.2622965410835318
 50
35.0219140852632194
 51
44.5718814580458869
  0
ARC
  5
CCBB
  8
0
  6
CONTINUOUS
 62
     7
 10
1002.0467806709490333
 20
137.1833104091348901
 30
0.0
 40
0.7983366001527862
 50
31.5149228508410992
 51
34.2544847078737007
  0
ARC
  5
CCBC
  8
0
  6
CONTINUOUS
 62
     7
 10
1002.558561110991036
 20
137.5023504388080937
 30
0.0
 40
0.1953239349530559
 50
18.9614443187541184
 51
30.2051377596625201
  0
ARC
  5
CCBD
  8
0
  6
CONTINUOUS
 62
     7
 10
1002.6872206117880069
 20
137.545773152916297
 30
0.0
 40
0.0595409932896746
 50
3.4089298071895588
 51
19.6726718520297794
  0
ARC
  5
CCBE
  8
0
  6
CONTINUOUS
 62
     7
 10
1002.7355348392700307
 20
137.547825542430104
 30
0.0
 40
0.0112205195256112
 50
325.0587790529069139
 51
7.6208584072554837
  0
ARC
  5
CCBF
  8
0
  6
CONTINUOUS
 62
     7
 10
1002.7403248442869881
 20
137.5450896338070095
 30
0.0
 40
0.0057488514605401
 50
260.2439276066240836
 51
320.062500885814984
  0
ARC
  5
CCC0
  8
0
  6
CONTINUOUS
 62
     7
 10
1002.7416965960029529
 20
137.5563456475285022
 30
0.0
 40
0.0170835633137133
 50
242.3510321184552936
 51
262.1071960761941
  0
ARC
  5
CCC1
  8
0
  6
CONTINUOUS
 62
     7
 10
1002.7604406761410019
 20
137.5913919099425016
 30
0.0
 40
0.0568270688644499
 50
227.0820348468496945
 51
242.0079125117277101
  0
ARC
  5
CCC2
  8
0
  6
CONTINUOUS
 62
     7
 10
1002.7180627007400062
 20
137.6347941793729888
 30
0.0
 40
0.1014796121434577
 50
202.7153421731158005
 51
221.321847736519004
  0
ARC
  5
CCC3
  8
0
  6
CONTINUOUS
 62
     7
 10
1002.5560544881869873
 20
137.5289328560994022
 30
0.0
 40
0.103747064389817
 50
25.0584747132972616
 51
40.4193145616686778
  0
ARC
  5
CCC4
  8
0
  6
CONTINUOUS
 62
     7
 10
1002.6203351682960374
 20
137.5585058412320905
 30
0.0
 40
0.0329941913610459
 50
12.0372750597885396
 51
25.8159317535217312
  0
ARC
  5
CCC5
  8
0
  6
CONTINUOUS
 62
     7
 10
1002.6652978139879906
 20
137.5874234573649915
 30
0.0
 40
0.0305830606868729
 50
219.9429056179326949
 51
238.3306319616719122
  0
ARC
  5
CCC6
  8
0
  6
CONTINUOUS
 62
     7
 10
1002.6511108246279491
 20
137.5644716282824049
 30
0.0
 40
0.0036006202123471
 50
238.7179236998692886
 51
274.8949607532579762
  0
ARC
  5
CCC7
  8
0
  6
CONTINUOUS
 62
     7
 10
1002.6453845987849718
 20
137.5636084253297042
 30
0.0
 40
0.0074350819340819
 50
348.8809078917757915
 51
13.8378762604169108
  0
ARC
  5
CCC8
  8
0
  6
CONTINUOUS
 62
     7
 10
1002.6511458326209549
 20
137.5624127439629092
 30
0.0
 40
0.001552655384252
 50
280.0979896292118951
 51
351.1763980854685201
  0
ARC
  5
CCC9
  8
0
  6
CONTINUOUS
 62
     7
 10
1002.644764627063978
 20
137.604155350676109
 30
0.0
 40
0.022035686498443
 50
188.0741318830862951
 51
202.8244331737699042
  0
ARC
  5
CCCA
  8
0
  6
CONTINUOUS
 62
     7
 10
1002.604832466787002
 20
137.5716199893946055
 30
0.0
 40
0.0389438519929181
 50
39.1361971619648017
 51
55.0878781252805112
  0
ARC
  5
CCCB
  8
0
  6
CONTINUOUS
 62
     7
 10
1002.623746392713997
 20
137.5985525982472097
 30
0.0
 40
0.0060342394791645
 50
55.9989542658623094
 51
78.9338040432931507
  0
ARC
  5
CCCC
  8
0
  6
CONTINUOUS
 62
     7
 10
1002.6245450409429623
 20
137.6029019873994059
 30
0.0
 40
0.0016132351029368
 50
77.1208860495682984
 51
130.674746575658105
  0
ARC
  5
CCCD
  8
0
  6
CONTINUOUS
 62
     7
 10
1002.6248543308399803
 20
137.6028008742106863
 30
0.0
 40
0.0018990110935012
 50
135.770474035982204
 51
167.9271039343313134
  0
ARC
  5
CCCE
  8
0
  6
CONTINUOUS
 62
     7
 10
1002.6283753683610485
 20
137.6020029700210898
 30
0.0
 40
0.0055092319627213
 50
167.4714742411086945
 51
189.8517320330510927
  0
ARC
  5
CCCF
  8
0
  6
CONTINUOUS
 62
     7
 10
1002.6219550817389745
 20
137.6296237004320915
 30
0.0
 40
0.0151484114109264
 50
123.2122488196639978
 51
166.2755289929550031
  0
ARC
  5
CCD0
  8
0
  6
CONTINUOUS
 62
     7
 10
1002.6329900040700522
 20
137.6275830372337055
 30
0.0
 40
0.0263600826026778
 50
167.6573461119357091
 51
192.309384436814014
  0
ARC
  5
CCD1
  8
0
  6
CONTINUOUS
 62
     7
 10
1002.6877583496019497
 20
137.6394436440091908
 30
0.0
 40
0.0823979553298238
 50
192.2480911314665093
 51
204.7530188272880878
  0
ARC
  5
CCD2
  8
0
  6
CONTINUOUS
 62
     7
 10
1002.7813148555729867
 20
137.6796504256963942
 30
0.0
 40
0.1842126869816053
 50
203.9255891967183913
 51
209.3608960890250899
  0
ARC
  5
CCD3
  8
0
  6
CONTINUOUS
 62
     7
 10
1002.8361594404219659
 20
137.7098745374684086
 30
0.0
 40
0.2468321765316848
 50
209.2334568348435084
 51
215.6700236579343937
  0
ARC
  5
CCD4
  8
0
  6
CONTINUOUS
 62
     7
 10
1002.8116027280379967
 20
137.6923549618759921
 30
0.0
 40
0.2166666484230941
 50
215.6929541665907095
 51
219.1178531404746082
  0
ARC
  5
CCD5
  8
0
  6
CONTINUOUS
 62
     7
 10
1002.7556857943379782
 20
137.6465035263458958
 30
0.0
 40
0.1443553275461797
 50
219.0008237576201964
 51
224.8906516110548068
  0
ARC
  5
CCD6
  8
0
  6
CONTINUOUS
 62
     7
 10
1002.6957624871789676
 20
137.5854793604594875
 30
0.0
 40
0.0588417255756464
 50
223.9737097293433976
 51
238.636478007362598
  0
ARC
  5
CCD7
  8
0
  6
CONTINUOUS
 62
     7
 10
1002.6770015348399738
 20
137.5544706741131051
 30
0.0
 40
0.0225998314482795
 50
238.3339616477605887
 51
265.867959233359386
  0
ARC
  5
CCD8
  8
0
  6
CONTINUOUS
 62
     7
 10
1002.6761825910559764
 20
137.5466634318422052
 30
0.0
 40
0.0147560645706227
 50
266.8552746184375906
 51
293.7312330847732937
  0
ARC
  5
CCD9
  8
0
  6
CONTINUOUS
 62
     7
 10
1008.8302110452519855
 20
141.1761238901997046
 30
0.0
 40
7.2105708253939076
 50
210.2577867355751948
 51
210.6086040025344914
  0
ARC
  5
CCDA
  8
0
  6
CONTINUOUS
 62
     7
 10
1002.55111934762499
 20
137.5322756865662086
 30
0.0
 40
0.0119291193046392
 50
213.6466005647600923
 51
294.7437794495236858
  0
ARC
  5
CCDB
  8
0
  6
CONTINUOUS
 62
     7
 10
1002.4997655878960359
 20
137.6219353188693049
 30
0.0
 40
0.0119523404418204
 50
121.2164249747644931
 51
208.8167174076847914
  0
ARC
  5
CCDC
  8
0
  6
CONTINUOUS
 62
     7
 10
1004.0837778014820287
 20
138.4702851283948917
 30
0.0
 40
1.8088355843490811
 50
208.1764360250544996
 51
211.4816125330368948
  0
ARC
  5
CCDD
  8
0
  6
CONTINUOUS
 62
     7
 10
1002.5286003599959486
 20
137.6712969321899038
 30
0.0
 40
0.0011946689143591
 50
37.5560688846742181
 51
48.4114160686494799
  0
ARC
  5
CCDE
  8
0
  6
CONTINUOUS
 62
     7
 10
1002.5183368413120206
 20
137.6633144751664872
 30
0.0
 40
0.0141969381183061
 50
33.4087841908947283
 51
37.8472726485731812
  0
ARC
  5
CCDF
  8
0
  6
CONTINUOUS
 62
     7
 10
1002.4656975193480548
 20
137.6280878160594909
 30
0.0
 40
0.0775355762545443
 50
32.0565003264234605
 51
33.7208177847895172
  0
ARC
  5
CCE0
  8
0
  6
CONTINUOUS
 62
     7
 10
1001.8898461557130304
 20
137.2724768866088993
 30
0.0
 40
0.7543384073753419
 50
30.7971686454676714
 51
31.7339210630284683
  0
ARC
  5
CCE1
  8
0
  6
CONTINUOUS
 62
     7
 10
997.8107702634393945
 20
134.8689127771689868
 30
0.0
 40
5.4888819235909372
 50
29.1365133597142396
 51
30.5480781102741901
  0
ARC
  5
CCE2
  8
0
  6
CONTINUOUS
 62
     7
 10
1002.5293000070120115
 20
137.6720788508623059
 30
0.0
 40
0.0001455010543571
 50
50.0921074228618721
 51
69.5730815699653249
  0
ARC
  5
CCE3
  8
0
  6
CONTINUOUS
 62
     7
 10
1002.5293451728000491
 20
137.6721963131795974
 30
0.0
 40
0.0000197064095583
 50
73.438950192956284
 51
170.4033327962403064
  0
ARC
  5
CCE4
  8
0
  6
CONTINUOUS
 62
     7
 10
1002.5297690990900037
 20
137.6721928668274018
 30
0.0
 40
0.0004434080256694
 50
179.1301267210837125
 51
201.8385288287093999
  0
ARC
  5
CCE5
  8
0
  6
CONTINUOUS
 62
     7
 10
1002.5429609270020137
 20
137.6772085972064019
 30
0.0
 40
0.0145565206658675
 50
200.8486511405463943
 51
207.3141255177939115
  0
ARC
  5
CCE6
  8
0
  6
CONTINUOUS
 62
     7
 10
1002.8772219362380156
 20
137.8476243526484097
 30
0.0
 40
0.389752212973322
 50
207.0249958691302936
 51
209.1103602952983067
  0
ARC
  5
CCE7
  8
0
  6
CONTINUOUS
 62
     7
 10
1008.7417348907140422
 20
141.1479655555206136
 30
0.0
 40
7.1197020952583907
 50
209.0055367775279933
 51
209.3550949610269072
  0
ARC
  5
CCE8
  8
0
  6
CONTINUOUS
 62
     7
 10
1002.6604709368619979
 20
137.9333756094883938
 30
0.0
 40
0.0260709175812189
 50
247.0188376393136025
 51
283.7247011754413961
  0
ARC
  5
CCE9
  8
0
  6
CONTINUOUS
 62
     7
 10
1002.6646400709439604
 20
137.9181690751946974
 30
0.0
 40
0.0103189012544077
 50
281.2684291897354001
 51
338.8492193521661875
  0
ARC
  5
CCEA
  8
0
  6
CONTINUOUS
 62
     7
 10
1002.631314120059983
 20
137.9309639220309123
 30
0.0
 40
0.0460165932666269
 50
338.9636162720855168
 51
10.5234157755954296
  0
ARC
  5
CCEB
  8
0
  6
CONTINUOUS
 62
     7
 10
1002.5438064500980317
 20
137.9177731029147935
 30
0.0
 40
0.1344953090623367
 50
9.2396614627458913
 51
31.6243902676570094
  0
ARC
  5
CCEC
  8
0
  6
CONTINUOUS
 62
     7
 10
1002.522073171740999
 20
137.9075809243620938
 30
0.0
 40
0.1583688416301606
 50
30.6413192849221403
 51
44.6889921241965808
  0
ARC
  5
CCED
  8
0
  6
CONTINUOUS
 62
     7
 10
1002.5568501029939625
 20
137.9430806699616028
 30
0.0
 40
0.108682038329857
 50
44.2773408701011491
 51
57.4623006678950574
  0
ARC
  5
CCEE
  8
0
  6
CONTINUOUS
 62
     7
 10
1002.5817447506790359
 20
137.9800945504248944
 30
0.0
 40
0.0640973273500195
 50
58.426893368601803
 51
72.1070262274013203
  0
ARC
  5
CCEF
  8
0
  6
CONTINUOUS
 62
     7
 10
1002.5959116715220034
 20
138.024091327455892
 30
0.0
 40
0.017875974905412
 50
71.9920567889207064
 51
103.5321203892086999
  0
ARC
  5
CCF0
  8
0
  6
CONTINUOUS
 62
     7
 10
1002.5985979133009778
 20
138.0259038934113107
 30
0.0
 40
0.0170152890595425
 50
113.8096030225164981
 51
164.8399162088317951
  0
ARC
  5
CCF1
  8
0
  6
CONTINUOUS
 62
     7
 10
1002.6111935209130479
 20
138.0206139452702132
 30
0.0
 40
0.0306096393239612
 50
161.446399787709197
 51
169.6699754361966939
  0
ARC
  5
CCF2
  8
0
  6
CONTINUOUS
 62
     7
 10
1002.595168258151034
 20
137.9133653118425968
 30
0.0
 40
0.0255299133935984
 50
250.5067067640117955
 51
291.3515911758063908
  0
ARC
  5
CCF3
  8
0
  6
CONTINUOUS
 62
     7
 10
1002.6121406469189878
 20
137.9513516332685867
 30
0.0
 40
0.0670848904321487
 50
219.6845131089480958
 51
247.6668957633029038
  0
ARC
  5
CCF4
  8
0
  6
CONTINUOUS
 62
     7
 10
1002.6637994043579738
 20
137.9996151045222916
 30
0.0
 40
0.1377218390613827
 50
206.7604761645461906
 51
221.4133682530388114
  0
ARC
  5
CCF5
  8
0
  6
CONTINUOUS
 62
     7
 10
1002.6381945393379738
 20
137.9892021803823923
 30
0.0
 40
0.1101933918738402
 50
192.8067646909661903
 51
207.9206957887201952
  0
ARC
  5
CCF6
  8
0
  6
CONTINUOUS
 62
     7
 10
1002.5759624736499518
 20
137.9765827882592077
 30
0.0
 40
0.0467359308311623
 50
165.2889258854434047
 51
194.6326604641338065
  0
ARC
  5
CCF7
  8
0
  6
CONTINUOUS
 62
     7
 10
1002.5522160268079688
 20
137.9824088714894117
 30
0.0
 40
0.0222919227519675
 50
122.1703970582753982
 51
164.2731443164701091
  0
ARC
  5
CCF8
  8
0
  6
CONTINUOUS
 62
     7
 10
1002.6014328847890056
 20
137.9638947168118079
 30
0.0
 40
0.0565635179472539
 50
191.9799177304834075
 51
231.5504444021090933
  0
ARC
  5
CCF9
  8
0
  6
CONTINUOUS
 62
     7
 10
1002.5230232164830113
 20
137.9166406350753959
 30
0.0
 40
0.0563382216661803
 50
14.3503295339116903
 51
47.3589726154636068
  0
ARC
  5
CCFA
  8
0
  6
CONTINUOUS
 62
     7
 10
1002.5537918054379816
 20
137.9249325819232013
 30
0.0
 40
0.0244778898883348
 50
357.6662831930235029
 51
13.3970843532904098
  0
ARC
  5
CCFB
  8
0
  6
CONTINUOUS
 62
     7
 10
1002.5750376360200562
 20
137.9322447418535091
 30
0.0
 40
0.0153953351472704
 50
235.2405302960931976
 51
256.0067375188677943
  0
ARC
  5
CCFC
  8
0
  6
CONTINUOUS
 62
     7
 10
1002.5727052794489964
 20
137.9228557288338948
 30
0.0
 40
0.0057209714286691
 50
255.9346834003551976
 51
295.4629932921274076
  0
ARC
  5
CCFD
  8
0
  6
CONTINUOUS
 62
     7
 10
1002.5686047441839719
 20
137.9242016206430037
 30
0.0
 40
0.0096483105175389
 50
329.8287089763642257
 51
358.421526822756789
  0
ARC
  5
CCFE
  8
0
  6
CONTINUOUS
 62
     7
 10
1002.5737114218579791
 20
137.9210333921645031
 30
0.0
 40
0.0036452236009282
 50
293.4988716359566183
 51
332.5406015398510817
  0
ARC
  5
CCFF
  8
0
  6
CONTINUOUS
 62
     7
 10
1002.5660771598750216
 20
137.9556159769410897
 30
0.0
 40
0.0202736559943108
 50
175.6566434121855877
 51
189.8324522499623868
  0
ARC
  5
CD00
  8
0
  6
CONTINUOUS
 62
     7
 10
1002.547795611891047
 20
137.944323285167286
 30
0.0
 40
0.0192009344141328
 50
45.7789464210169399
 51
78.0616365384609594
  0
ARC
  5
CD01
  8
0
  6
CONTINUOUS
 62
     7
 10
1002.5510934321730474
 20
137.9580731780037866
 30
0.0
 40
0.005080653292257
 50
82.3758449376571917
 51
122.8967968176393981
  0
ARC
  5
CD02
  8
0
  6
CONTINUOUS
 62
     7
 10
1002.5510354799409924
 20
137.9584541404211109
 30
0.0
 40
0.0047319496189635
 50
124.8133087050623971
 51
147.2594907788958096
  0
ARC
  5
CD03
  8
0
  6
CONTINUOUS
 62
     7
 10
1002.5526504109219559
 20
137.9574252269316901
 30
0.0
 40
0.0066467916240275
 50
147.3281312138674082
 51
162.0079015308477892
  0
ARC
  5
CD04
  8
0
  6
CONTINUOUS
 62
     7
 10
1002.556446259608947
 20
137.9562378103036053
 30
0.0
 40
0.0106238837165489
 50
162.240523052821203
 51
175.0669921379684126
  0
ARC
  5
CD05
  8
0
  6
CONTINUOUS
 62
     7
 10
1002.3039360986230122
 20
138.2625064494100116
 30
0.0
 40
0.0168944794567089
 50
243.0353276397981972
 51
290.3263009421634138
  0
ARC
  5
CD06
  8
0
  6
CONTINUOUS
 62
     7
 10
1002.3205956914190438
 20
138.2897225094507121
 30
0.0
 40
0.0487704312144614
 50
214.6542553953179038
 51
240.0880994112222027
  0
ARC
  5
CD07
  8
0
  6
CONTINUOUS
 62
     7
 10
1002.4377530951959443
 20
138.3761920125662073
 30
0.0
 40
0.1943648159595301
 50
202.7249707814160899
 51
215.9842304016576975
  0
ARC
  5
CD08
  8
0
  6
CONTINUOUS
 62
     7
 10
1002.4224908245059851
 20
138.3729569398678905
 30
0.0
 40
0.1790613034474353
 50
194.2556837178373996
 51
203.6567910173822895
  0
ARC
  5
CD09
  8
0
  6
CONTINUOUS
 62
     7
 10
1002.3006417735839477
 20
138.3438187969597095
 30
0.0
 40
0.0538180912836036
 50
171.8248075070229959
 51
196.1344169415096985
  0
ARC
  5
CD0A
  8
0
  6
CONTINUOUS
 62
     7
 10
1002.2645891896399917
 20
138.348211977646713
 30
0.0
 40
0.0175244512395373
 50
123.4205964794603005
 51
169.2798316327265127
  0
ARC
  5
CD0B
  8
0
  6
CONTINUOUS
 62
     7
 10
1002.3464090949479441
 20
138.334170521540301
 30
0.0
 40
0.0878800872469725
 50
192.595525540806392
 51
218.4018302108763123
  0
ARC
  5
CD0C
  8
0
  6
CONTINUOUS
 62
     7
 10
1002.194496901877983
 20
138.2635641622796072
 30
0.0
 40
0.0924131024349436
 50
20.1822074034992589
 51
34.3737512562377319
  0
ARC
  5
CD0D
  8
0
  6
CONTINUOUS
 62
     7
 10
1002.2101697951239885
 20
138.2688845863480083
 30
0.0
 40
0.0758680662847991
 50
14.8800532029707
 51
20.4944873870409303
  0
ARC
  5
CD0E
  8
0
  6
CONTINUOUS
 62
     7
 10
1002.2871713876470494
 20
138.2876475750813086
 30
0.0
 40
0.012562818458764
 50
219.9437646605148018
 51
243.5865571883167888
  0
ARC
  5
CD0F
  8
0
  6
CONTINUOUS
 62
     7
 10
1002.2824831077499539
 20
138.2782399676360114
 30
0.0
 40
0.0020517833794845
 50
243.9755004011929032
 51
1.3341844483433301
  0
ARC
  5
CD10
  8
0
  6
CONTINUOUS
 62
     7
 10
1002.2391292181390554
 20
138.2766176302924066
 30
0.0
 40
0.0458939794552374
 50
9.3296588171754351
 51
14.8338029902054895
  0
ARC
  5
CD11
  8
0
  6
CONTINUOUS
 62
     7
 10
1002.2680825525479804
 20
138.2808368447979888
 30
0.0
 40
0.0166480952275674
 50
351.1924042392914771
 51
11.1552343558962104
  0
ARC
  5
CD12
  8
0
  6
CONTINUOUS
 62
     7
 10
1002.2814411158569783
 20
138.3190803648911071
 30
0.0
 40
0.0211923654129552
 50
177.8423178217670113
 51
191.0823590107929135
  0
ARC
  5
CD13
  8
0
  6
CONTINUOUS
 62
     7
 10
1002.2446228563869681
 20
138.2980292043077952
 30
0.0
 40
0.0315822868521966
 50
34.1090087521778997
 51
48.1119385393146004
  0
ARC
  5
CD14
  8
0
  6
CONTINUOUS
 62
     7
 10
1002.2609074842349628
 20
138.3163249391541001
 30
0.0
 40
0.0070897397807307
 50
47.3639959506608434
 51
73.2159791275960146
  0
ARC
  5
CD15
  8
0
  6
CONTINUOUS
 62
     7
 10
1002.2624618186999896
 20
138.3213666978926994
 30
0.0
 40
0.0018142089837742
 50
74.2341462881511234
 51
143.0699030763780115
  0
ARC
  5
CD16
  8
0
  6
CONTINUOUS
 62
     7
 10
1002.2653495982219738
 20
138.3198009422158918
 30
0.0
 40
0.0050864098829451
 50
148.5242591563622057
 51
179.129108137158596
  0
ARC
  5
CD17
  8
0
  6
CONTINUOUS
 62
     7
 10
1002.2966367681699467
 20
138.3948846139084026
 30
0.0
 40
0.012741147003106
 50
63.802749054861323
 51
85.3521306779781952
  0
ARC
  5
CD18
  8
0
  6
CONTINUOUS
 62
     7
 10
1002.2973055468560233
 20
138.4006569463485903
 30
0.0
 40
0.0069364549500351
 50
86.9947733700684296
 51
122.5792252960836066
  0
ARC
  5
CD19
  8
0
  6
CONTINUOUS
 62
     7
 10
1002.3499096544010172
 20
138.3934190015039007
 30
0.0
 40
0.0603817039547428
 50
177.5119599778946053
 51
188.3616894404673872
  0
ARC
  5
CD1A
  8
0
  6
CONTINUOUS
 62
     7
 10
1002.3130315119050238
 20
138.3948540394522979
 30
0.0
 40
0.0234766256822793
 50
161.3359319519337021
 51
178.4393176144442918
  0
ARC
  5
CD1B
  8
0
  6
CONTINUOUS
 62
     7
 10
1002.300079604446978
 20
138.3991214675534138
 30
0.0
 40
0.0098407134249703
 50
131.4102252456791007
 51
160.7429401394205115
  0
ARC
  5
CD1C
  8
0
  6
CONTINUOUS
 62
     7
 10
1002.2857449522309707
 20
138.3735026036056865
 30
0.0
 40
0.0367366343066416
 50
47.0754080940507578
 51
63.2823825072402073
  0
ARC
  5
CD1D
  8
0
  6
CONTINUOUS
 62
     7
 10
1002.2429394573059653
 20
138.3266358943891134
 30
0.0
 40
0.1002085039790936
 50
37.5665255756355307
 51
47.4033333619501107
  0
ARC
  5
CD1E
  8
0
  6
CONTINUOUS
 62
     7
 10
1002.1383020386250564
 20
138.247298436780909
 30
0.0
 40
0.231521351368687
 50
26.5545074667438499
 51
37.3415571981505465
  0
ARC
  5
CD1F
  8
0
  6
CONTINUOUS
 62
     7
 10
1002.0782296154619644
 20
138.2142673999055091
 30
0.0
 40
0.3000352650296847
 50
19.7657318294528608
 51
27.0684465722505614
  0
ARC
  5
CD20
  8
0
  6
CONTINUOUS
 62
     7
 10
1002.1703804523959889
 20
138.2452471806365963
 30
0.0
 40
0.2028470140933573
 50
9.5553470437654955
 51
20.3330778825641083
  0
ARC
  5
CD21
  8
0
  6
CONTINUOUS
 62
     7
 10
1002.3117899166170446
 20
138.2679643495704056
 30
0.0
 40
0.0596380858818719
 50
350.934492273976673
 51
10.5853231752388606
  0
ARC
  5
CD22
  8
0
  6
CONTINUOUS
 62
     7
 10
1002.3589366892970247
 20
138.2607573669478995
 30
0.0
 40
0.0119487380247894
 50
318.998882940179783
 51
349.4398874641278212
  0
ARC
  5
CD23
  8
0
  6
CONTINUOUS
 62
     7
 10
1002.3637866007650246
 20
138.256896090970514
 30
0.0
 40
0.0057614711493859
 50
265.9198043273095209
 51
316.3346778116373912
  0
ARC
  5
CD24
  8
0
  6
CONTINUOUS
 62
     7
 10
1002.3644154241160322
 20
138.2628498147066978
 30
0.0
 40
0.0117466119619926
 50
241.0581508012760139
 51
264.9266362656626939
  0
ARC
  5
CD25
  8
0
  6
CONTINUOUS
 62
     7
 10
1002.3814129922400298
 20
138.2911776901958092
 30
0.0
 40
0.0447773394157596
 50
221.0744936959989957
 51
239.5656308859014132
  0
ARC
  5
CD26
  8
0
  6
CONTINUOUS
 62
     7
 10
1002.3799617822700156
 20
138.0490224965797097
 30
0.0
 40
0.0172997884903326
 50
123.0216554259798016
 51
186.0548836034325859
  0
ARC
  5
CD27
  8
0
  6
CONTINUOUS
 62
     7
 10
1002.4985943794330296
 20
138.0626038640467073
 30
0.0
 40
0.1367067484764698
 50
186.4706942132447978
 51
204.327673105655407
  0
ARC
  5
CD28
  8
0
  6
CONTINUOUS
 62
     7
 10
1002.9016854553619851
 20
138.2220559461383118
 30
0.0
 40
0.5700703128692929
 50
202.2405210234965978
 51
208.4796779040217132
  0
ARC
  5
CD29
  8
0
  6
CONTINUOUS
 62
     7
 10
1002.8481937175270104
 20
138.1846853279010077
 30
0.0
 40
0.5052850678076459
 50
207.64724374851221
 51
216.6614103669591884
  0
ARC
  5
CD2A
  8
0
  6
CONTINUOUS
 62
     7
 10
1002.5215185722970546
 20
137.9405880445710864
 30
0.0
 40
0.0974895712973753
 50
216.2167231675310859
 51
231.3984681469194129
  0
ARC
  5
CD2B
  8
0
  6
CONTINUOUS
 62
     7
 10
1002.4735954511189675
 20
137.8800370424426944
 30
0.0
 40
0.0202720912453487
 50
230.4778930246500011
 51
274.7787436040107991
  0
ARC
  5
CD2C
  8
0
  6
CONTINUOUS
 62
     7
 10
1002.4733016452679522
 20
137.874778717097513
 30
0.0
 40
0.015074248607075
 50
277.5577252008264963
 51
293.3045817159829767
  0
ARC
  5
CD2D
  8
0
  6
CONTINUOUS
 62
     7
 10
1002.3944128880540347
 20
137.9855118522085036
 30
0.0
 40
0.0068300373952907
 50
48.8481236519003374
 51
69.1462342929953024
  0
ARC
  5
CD2E
  8
0
  6
CONTINUOUS
 62
     7
 10
1002.2403282315530078
 20
137.8640104335171941
 30
0.0
 40
0.2038648714416046
 50
19.3211983752608205
 51
35.1294850061107766
  0
ARC
  5
CD2F
  8
0
  6
CONTINUOUS
 62
     7
 10
1002.3636336300060066
 20
137.9516221335435944
 30
0.0
 40
0.0526096888372185
 50
34.3666802629331229
 51
47.8957754918011602
  0
ARC
  5
CD30
  8
0
  6
CONTINUOUS
 62
     7
 10
1002.4150298023710093
 20
137.925126848027503
 30
0.0
 40
0.0187819798311806
 50
355.5060775121738743
 51
19.7120736556198786
  0
ARC
  5
CD31
  8
0
  6
CONTINUOUS
 62
     7
 10
1002.4324766217889646
 20
137.9237197450233054
 30
0.0
 40
0.0012790468023209
 50
256.6967458125939743
 51
357.1081950374498888
  0
ARC
  5
CD32
  8
0
  6
CONTINUOUS
 62
     7
 10
1002.4353810168249765
 20
137.931285573463299
 30
0.0
 40
0.0093732380452294
 50
222.1221501750243021
 51
250.0463484989057861
  0
ARC
  5
CD33
  8
0
  6
CONTINUOUS
 62
     7
 10
1002.530967826387041
 20
138.014719949232898
 30
0.0
 40
0.1362503128316683
 50
207.8914895321157985
 51
221.1857426801323925
  0
ARC
  5
CD34
  8
0
  6
CONTINUOUS
 62
     7
 10
1002.5858148348829673
 20
138.0503610249330961
 30
0.0
 40
0.2014836235430394
 50
200.4279958382412872
 51
209.5534307306234041
  0
ARC
  5
CD35
  8
0
  6
CONTINUOUS
 62
     7
 10
1002.4397265100469667
 20
137.995583037895301
 30
0.0
 40
0.0454647065721084
 50
189.8377968643478084
 51
199.9946257517595996
  0
ARC
  5
CD36
  8
0
  6
CONTINUOUS
 62
     7
 10
1002.4016858773289869
 20
137.9893022155139022
 30
0.0
 40
0.0069173088655671
 50
164.6837037842354903
 51
192.4158149042931996
  0
ARC
  5
CD37
  8
0
  6
CONTINUOUS
 62
     7
 10
1002.3962400715789727
 20
137.9907684895457862
 30
0.0
 40
0.0012778440806867
 50
61.781959956655939
 51
163.5940812522567001
  0
ARC
  5
CD38
  8
0
  6
CONTINUOUS
 62
     7
 10
1002.6802553027530394
 20
137.5559451454114139
 30
0.0
 40
0.038013804178628
 50
184.8895693532620896
 51
201.9114842236390075
  0
ARC
  5
CD39
  8
0
  6
CONTINUOUS
 62
     7
 10
1002.6467328288920271
 20
137.5529579997742076
 30
0.0
 40
0.0043603366350693
 50
148.8861443789297141
 51
183.3260990343468961
  0
ARC
  5
CD3A
  8
0
  6
CONTINUOUS
 62
     7
 10
1002.6443710253599875
 20
137.5541695533088102
 30
0.0
 40
0.0017220088262656
 50
120.3109331970855038
 51
142.7798006032307967
  0
ARC
  5
CD3B
  8
0
  6
CONTINUOUS
 62
     7
 10
1002.3270091682519478
 20
137.3876614327290895
 30
0.0
 40
0.3177614128181061
 50
26.8813902027684399
 51
28.9362955553860886
  0
ARC
  5
CD3C
  8
0
  6
CONTINUOUS
 62
     7
 10
1002.5967189240060407
 20
137.5236576897505927
 30
0.0
 40
0.0157185798777027
 50
20.4891074723580111
 51
29.2397805656068108
  0
ARC
  5
CD3D
  8
0
  6
CONTINUOUS
 62
     7
 10
1002.6110911295349979
 20
137.5290365039809899
 30
0.0
 40
0.0003729180732861
 50
358.3172526971554817
 51
19.2828326135496013
  0
ARC
  5
CD3E
  8
0
  6
CONTINUOUS
 62
     7
 10
1002.6114382091390098
 20
137.5290232382504882
 30
0.0
 40
0.0000257817830025
 50
250.8037325456272129
 51
5.1514110806156053
  0
ARC
  5
CD3F
  8
0
  6
CONTINUOUS
 62
     7
 10
1002.6115210164659857
 20
137.5292190119446047
 30
0.0
 40
0.0002382992571399
 50
223.100931525602391
 51
247.4762291472958964
  0
ARC
  5
CD40
  8
0
  6
CONTINUOUS
 62
     7
 10
1002.6147662595100201
 20
137.5323110054567053
 30
0.0
 40
0.0047207031586046
 50
214.3510002364988907
 51
223.5887855023860027
  0
ARC
  5
CD41
  8
0
  6
CONTINUOUS
 62
     7
 10
1002.6593976439060043
 20
137.5640281077546945
 30
0.0
 40
0.0594733778245933
 50
212.0269038359562046
 51
215.3161307587033946
  0
ARC
  5
CD42
  8
0
  6
CONTINUOUS
 62
     7
 10
1003.0518859277440242
 20
137.812257874622702
 30
0.0
 40
0.5238702626234109
 50
210.9255198197425898
 51
212.2790705708052883
  0
ARC
  5
CD43
  8
0
  6
CONTINUOUS
 62
     7
 10
1002.454621922340948
 20
138.0877729659829924
 30
0.0
 40
0.0745316746450817
 50
185.2141293648961096
 51
193.4080667027203901
  0
ARC
  5
CD44
  8
0
  6
CONTINUOUS
 62
     7
 10
1002.395039828251015
 20
138.0828293860120937
 30
0.0
 40
0.0147550579897682
 50
160.3325164530515963
 51
187.1233815185834999
  0
ARC
  5
CD45
  8
0
  6
CONTINUOUS
 62
     7
 10
1002.3847354908559737
 20
138.0864933506636021
 30
0.0
 40
0.0038187524653126
 50
77.2804113860639035
 51
160.0650695821946101
  0
ARC
  5
CD46
  8
0
  6
CONTINUOUS
 62
     7
 10
1002.3814779713139842
 20
138.0731757278250029
 30
0.0
 40
0.0175285080697979
 50
46.6868979995000828
 51
76.4785469988055553
  0
ARC
  5
CD47
  8
0
  6
CONTINUOUS
 62
     7
 10
1002.3475907666420426
 20
138.0273511587377016
 30
0.0
 40
0.0744265849133017
 50
42.4761953056948371
 51
51.9121088513385232
  0
ARC
  5
CD48
  8
0
  6
CONTINUOUS
 62
     7
 10
1002.1731011011879673
 20
137.8706332542095083
 30
0.0
 40
0.3089600251565238
 50
34.3352325964624399
 51
42.0605094908296735
  0
ARC
  5
CD49
  8
0
  6
CONTINUOUS
 62
     7
 10
1001.8496104672509546
 20
137.6486487048582887
 30
0.0
 40
0.701290263944722
 50
25.6465846065777292
 51
34.4042209983757132
  0
ARC
  5
CD4A
  8
0
  6
CONTINUOUS
 62
     7
 10
1002.1077617146700049
 20
137.7655976601907071
 30
0.0
 40
0.4180016895122357
 50
16.0506872239865714
 51
26.5109129230427598
  0
ARC
  5
CD4B
  8
0
  6
CONTINUOUS
 62
     7
 10
1002.444792089477005
 20
137.862521312611392
 30
0.0
 40
0.0673114297427547
 50
359.2644078590975028
 51
16.0842315709877113
  0
ARC
  5
CD4C
  8
0
  6
CONTINUOUS
 62
     7
 10
1002.5026124189729444
 20
137.8619509539909984
 30
0.0
 40
0.0094901017188561
 50
327.2252056415642869
 51
358.2259466473768725
  0
ARC
  5
CD4D
  8
0
  6
CONTINUOUS
 62
     7
 10
1002.5073683419959707
 20
137.8592171769741128
 30
0.0
 40
0.0040208834694795
 50
250.392095477256504
 51
323.2893422882523851
  0
ARC
  5
CD4E
  8
0
  6
CONTINUOUS
 62
     7
 10
1002.5137775391019659
 20
137.8776358785588911
 30
0.0
 40
0.0235227515475141
 50
225.9022528887716987
 51
250.7414852056045902
  0
ARC
  5
CD4F
  8
0
  6
CONTINUOUS
 62
     7
 10
1002.5510721757709689
 20
137.9215284435198896
 30
0.0
 40
0.0810843855571935
 50
222.992108476992513
 51
228.5607153380437921
  0
ARC
  5
CD50
  8
0
  6
CONTINUOUS
 62
     7
 10
1002.4311953470429444
 20
137.8039521576021968
 30
0.0
 40
0.0131259065728333
 50
124.1391910910679997
 51
194.5299306746439072
  0
ARC
  5
CD51
  8
0
  6
CONTINUOUS
 62
     7
 10
1002.4811495076160099
 20
137.7145293023710906
 30
0.0
 40
0.0127949623093755
 50
236.6164960113617894
 51
292.1832495702494157
  0
ARC
  5
CD52
  8
0
  6
CONTINUOUS
 62
     7
 10
1002.4978750328590422
 20
137.735229829904398
 30
0.0
 40
0.0393674402429613
 50
213.2811443856438984
 51
232.8651836089838127
  0
ARC
  5
CD53
  8
0
  6
CONTINUOUS
 62
     7
 10
1002.4663806488069895
 20
137.811465377980511
 30
0.0
 40
0.049095444628722
 50
192.7154036661310101
 51
202.2564382139566987
  0
ARC
  5
CD54
  8
0
  6
CONTINUOUS
 62
     7
 10
1002.8691483917200458
 20
137.9900092970711967
 30
0.0
 40
0.4896446808288793
 50
203.7418404716727878
 51
214.3644359948704903
  0
ARC
  5
CD55
  8
0
  6
CONTINUOUS
 62
     7
 10
1002.6545614978200547
 20
137.8703976138071994
 30
0.0
 40
0.2418662149386221
 50
204.1590262493666899
 51
213.4593328233864895
  0
ARC
  5
CD56
  8
0
  6
CONTINUOUS
 62
     7
 10
1002.4496463506419559
 20
137.7788950870657914
 30
0.0
 40
0.0174537525432734
 50
192.633484146720491
 51
205.3988661113573073
  0
ARC
  5
CD57
  8
0
  6
CONTINUOUS
 62
     7
 10
1002.4878897074360111
 20
137.7599839034357103
 30
0.0
 40
0.0419402563771227
 50
213.1560378807793938
 51
221.7612341384453032
  0
ARC
  5
CD58
  8
0
  6
CONTINUOUS
 62
     7
 10
1002.4590261054750044
 20
137.7342665011705094
 30
0.0
 40
0.0032818657823386
 50
222.4712049980693109
 51
239.725563879325307
  0
ARC
  5
CD59
  8
0
  6
CONTINUOUS
 62
     7
 10
1002.4575897822270463
 20
137.7317326021772885
 30
0.0
 40
0.0003712761005952
 50
234.0050241708053989
 51
287.363637203491578
  0
ARC
  5
CD5A
  8
0
  6
CONTINUOUS
 62
     7
 10
1002.4575694253579741
 20
137.731622932269886
 30
0.0
 40
0.0002776227426579
 50
298.1924736966221872
 51
348.8050175167288103
  0
ARC
  5
CD5B
  8
0
  6
CONTINUOUS
 62
     7
 10
1002.4561527322609891
 20
137.7318754427815009
 30
0.0
 40
0.001716601535101
 50
349.7176950526858263
 51
12.35154668034086
  0
ARC
  5
CD5C
  8
0
  6
CONTINUOUS
 62
     7
 10
1002.4455962174920387
 20
137.7298574707012051
 30
0.0
 40
0.0124637351229498
 50
11.0326633487525694
 51
20.6190976383099098
  0
ARC
  5
CD5D
  8
0
  6
CONTINUOUS
 62
     7
 10
1002.392068533039037
 20
137.7101051318105078
 30
0.0
 40
0.069519359580795
 50
20.31998544988787
 51
25.6939031644041691
  0
ARC
  5
CD5E
  8
0
  6
CONTINUOUS
 62
     7
 10
1002.2387350097540093
 20
137.6372311657476075
 30
0.0
 40
0.2392885942517511
 50
25.4996304074464497
 51
29.9367854965276905
  0
ARC
  5
CD5F
  8
0
  6
CONTINUOUS
 62
     7
 10
1002.2722172696320513
 20
137.6587410110493863
 30
0.0
 40
0.1995486309045704
 50
29.3824040133173412
 51
34.5815299335727602
  0
ARC
  5
CD60
  8
0
  6
CONTINUOUS
 62
     7
 10
1002.4151113719010482
 20
137.7575712025530947
 30
0.0
 40
0.0258086315713534
 50
33.992745607315733
 51
44.2352586044241392
  0
ARC
  5
CD61
  8
0
  6
CONTINUOUS
 62
     7
 10
1002.4348007812779997
 20
137.7756001340486876
 30
0.0
 40
0.0022471810599513
 50
174.7143924990350001
 51
193.4429745195307078
  0
ARC
  5
CD62
  8
0
  6
CONTINUOUS
 62
     7
 10
1002.4318774978370357
 20
137.7738674479421093
 30
0.0
 40
0.0024277364418505
 50
44.7118734627105923
 51
62.7276373705934489
  0
ARC
  5
CD63
  8
0
  6
CONTINUOUS
 62
     7
 10
1002.4328258764320481
 20
137.7758197295312073
 30
0.0
 40
0.0002630221196771
 50
51.4092643750634011
 51
182.7423268292849059
  0
ARC
  5
CD64
  8
0
  6
CONTINUOUS
 62
     7
 10
1002.6030163571430194
 20
137.7710641586261886
 30
0.0
 40
0.0881414110284528
 50
214.413070102500086
 51
223.2259073308545112
  0
ARC
  5
CD65
  8
0
  6
CONTINUOUS
 62
     7
 10
1002.5506715210279935
 20
137.7222008490506937
 30
0.0
 40
0.0165363500271595
 50
224.0750481169463058
 51
233.3709031539667933
  0
ARC
  5
CD66
  8
0
  6
CONTINUOUS
 62
     7
 10
1002.542625852800029
 20
137.7110450686062961
 30
0.0
 40
0.0027904807908517
 50
229.2786681881202924
 51
264.9520559540550266
  0
ARC
  5
CD67
  8
0
  6
CONTINUOUS
 62
     7
 10
1002.542340778224002
 20
137.7090344829184119
 30
0.0
 40
0.0007700878613687
 50
272.943292494789489
 51
345.0134083703574106
  0
ARC
  5
CD68
  8
0
  6
CONTINUOUS
 62
     7
 10
1002.5351000758099644
 20
137.7102581300094073
 30
0.0
 40
0.008110370343035
 50
349.8964313526950036
 51
16.6487730809574188
  0
ARC
  5
CD69
  8
0
  6
CONTINUOUS
 62
     7
 10
1002.4604417172799913
 20
137.6910639603692914
 30
0.0
 40
0.0851910380793405
 50
14.6304244038420403
 51
23.3083365936377902
  0
ARC
  5
CD6A
  8
0
  6
CONTINUOUS
 62
     7
 10
1001.9428404635250445
 20
137.4662584924122086
 30
0.0
 40
0.6495031832023038
 50
23.4543157005605494
 51
32.3502308083337269
  0
ARC
  5
CD6B
  8
0
  6
CONTINUOUS
 62
     7
 10
1002.1769261305560121
 20
137.6282691784491021
 30
0.0
 40
0.3652429290014383
 50
30.5289957340580216
 51
37.4807989095338883
  0
ARC
  5
CD6C
  8
0
  6
CONTINUOUS
 62
     7
 10
1002.429992588204982
 20
137.8215813930368085
 30
0.0
 40
0.0467942383557888
 50
38.1976993528980628
 51
47.1500350051422927
  0
ARC
  5
CD6D
  8
0
  6
CONTINUOUS
 62
     7
 10
1002.456783884328047
 20
137.8501469319355124
 30
0.0
 40
0.0076345567167843
 50
48.7623915473418066
 51
60.5491116020319069
  0
ARC
  5
CD6E
  8
0
  6
CONTINUOUS
 62
     7
 10
1002.4594411226789816
 20
137.8548630562881101
 30
0.0
 40
0.0022213635360406
 50
60.4214812510910022
 51
81.1614293872343353
  0
ARC
  5
CD6F
  8
0
  6
CONTINUOUS
 62
     7
 10
1002.4596614544809654
 20
137.8563794561578106
 30
0.0
 40
0.0006892858415413
 50
79.8911208286672547
 51
152.9706439242551994
  0
ARC
  5
CD70
  8
0
  6
CONTINUOUS
 62
     7
 10
1002.4613464595070127
 20
137.8556887124289005
 30
0.0
 40
0.0025086659628935
 50
156.408832896807894
 51
187.0043036264243881
  0
ARC
  5
CD71
  8
0
  6
CONTINUOUS
 62
     7
 10
1002.4899267583190294
 20
137.8594020994700884
 30
0.0
 40
0.0313291362119336
 50
187.3709542253062921
 51
202.6052956911426008
  0
ARC
  5
CD72
  8
0
  6
CONTINUOUS
 62
     7
 10
1003.1343247121379818
 20
138.1078483456273034
 30
0.0
 40
0.721951804419701
 50
201.1500453286201093
 51
201.7375786933941129
  0
ARC
  5
CD73
  8
0
  6
CONTINUOUS
 62
     7
 10
1002.6854325312200444
 20
137.7991747570083021
 30
0.0
 40
0.1930706591403093
 50
211.4945510376387006
 51
215.4558339059950924
  0
ARC
  5
CD74
  8
0
  6
CONTINUOUS
 62
     7
 10
1002.5414268865499707
 20
137.6965657734415061
 30
0.0
 40
0.0162481420577518
 50
215.2888108341516897
 51
224.9659671276650954
  0
ARC
  5
CD75
  8
0
  6
CONTINUOUS
 62
     7
 10
1002.5311564998800122
 20
137.6863195323145135
 30
0.0
 40
0.0017407083733502
 50
225.2443077595378043
 51
242.1583902425136046
  0
ARC
  5
CD76
  8
0
  6
CONTINUOUS
 62
     7
 10
1002.530464009532011
 20
137.6849308679178989
 30
0.0
 40
0.0001928119523717
 50
231.3317661262861975
 51
339.322025044733607
  0
ARC
  5
CD77
  8
0
  6
CONTINUOUS
 62
     7
 10
1002.5282320503280289
 20
137.6851525365923123
 30
0.0
 40
0.0024296893812534
 50
353.1508700796622975
 51
21.2537651037390098
  0
ARC
  5
CD78
  8
0
  6
CONTINUOUS
 62
     7
 10
1002.4952893520249972
 20
137.6751757519276964
 30
0.0
 40
0.0368432939990681
 50
17.1392622175215692
 51
23.9621017047918095
  0
ARC
  5
CD79
  8
0
  6
CONTINUOUS
 62
     7
 10
1002.0804354222000256
 20
137.4873814981762905
 30
0.0
 40
0.4922219656147555
 50
24.3256864523476501
 51
27.6118323344557517
  0
ARC
  5
CD7A
  8
0
  6
CONTINUOUS
 62
     7
 10
1002.4705833749319481
 20
137.6887035536784083
 30
0.0
 40
0.0122165694367453
 50
225.4308610516465876
 51
294.1234249504478839
  0
ARC
  5
CD7B
  8
0
  6
CONTINUOUS
 62
     7
 10
1002.4893690666050361
 20
137.7054955699150014
 30
0.0
 40
0.0373966909634398
 50
212.0695876801287056
 51
222.9804556261462096
  0
ARC
  5
CD7C
  8
0
  6
CONTINUOUS
 62
     7
 10
1003.2464777808800136
 20
138.1744425900317879
 30
0.0
 40
0.9279718201514684
 50
205.6937493003686939
 51
211.7856619731063006
  0
ARC
  5
CD7D
  8
0
  6
CONTINUOUS
 62
     7
 10
998.1355422353002496
 20
145.0155988553713087
 30
0.0
 40
8.3983608961899971
 50
300.630902558236528
 51
300.6815705295956036
  0
ARC
  5
CD7E
  8
0
  6
CONTINUOUS
 62
     7
 10
1002.420604593018993
 20
137.7788422379543078
 30
0.0
 40
0.0118950954555213
 50
120.5747393654483943
 51
175.5872352799293026
  0
ARC
  5
CD7F
  8
0
  6
CONTINUOUS
 62
     7
 10
1002.4241180618910221
 20
137.7788296234176926
 30
0.0
 40
0.0154012767117654
 50
176.5461727165510979
 51
205.8665610001563095
  0
ARC
  5
CD80
  8
0
  6
CONTINUOUS
 62
     7
 10
1002.3745483465689858
 20
137.8474067311458953
 30
0.0
 40
0.015340022320474
 50
118.8601183602800972
 51
142.3783402959257955
  0
ARC
  5
CD81
  8
0
  6
CONTINUOUS
 62
     7
 10
1002.3674529682709817
 20
137.8527100454332981
 30
0.0
 40
0.0064840042188458
 50
141.2224667486416934
 51
174.5775655050939861
  0
ARC
  5
CD82
  8
0
  6
CONTINUOUS
 62
     7
 10
1002.3642601442569458
 20
137.8531536076642965
 30
0.0
 40
0.0032665477136868
 50
177.0315074111331057
 51
205.6962220874287084
  0
ARC
  5
CD83
  8
0
  6
CONTINUOUS
 62
     7
 10
1002.422103651623047
 20
137.7561479434795899
 30
0.0
 40
0.0098425829999835
 50
241.9639001961006954
 51
275.5064550733757187
  0
ARC
  5
CD84
  8
0
  6
CONTINUOUS
 62
     7
 10
1002.422103651623047
 20
137.7561479434797036
 30
0.0
 40
0.0098425830000751
 50
208.4213453189975951
 51
241.9639001959378959
  0
LINE
  5
CD85
  8
0
  6
CONTINUOUS
 62
     7
 10
1002.4230481251739775
 20
137.7463507801236915
 30
0.0
 11
1002.4231446298059609
 21
137.7463605636191062
 31
0.0
  0
LINE
  5
CD86
  8
0
  6
CONTINUOUS
 62
     7
 10
1002.4134473821610527
 20
137.7514633475406072
 30
0.0
 11
1002.3613166397750547
 21
137.8517372336557969
 31
0.0
  0
ARC
  5
CD87
  8
0
  6
CONTINUOUS
 62
     7
 10
1002.3460509345819673
 20
137.9003058719902981
 30
0.0
 40
0.0100737524097032
 50
149.3408439806352987
 51
213.2621050429108891
  0
LINE
  5
CD88
  8
0
  6
CONTINUOUS
 62
     7
 10
1002.3376275620310025
 20
137.8947807219948913
 30
0.0
 11
1002.4134641742849681
 21
137.7514324507760932
 31
0.0
  0
ARC
  5
CD89
  8
0
  6
CONTINUOUS
 62
     7
 10
1002.3406856933670497
 20
137.9147104013644025
 30
0.0
 40
0.009837744388947
 50
250.3982392813805973
 51
294.117146208691679
  0
ARC
  5
CD8A
  8
0
  6
CONTINUOUS
 62
     7
 10
1002.340963331392004
 20
137.9152696378739051
 30
0.0
 40
0.0104579750485194
 50
211.5225613519966998
 51
249.9931697033435967
  0
ARC
  5
CD8B
  8
0
  6
CONTINUOUS
 62
     7
 10
1004.3387916653149432
 20
139.037463823002696
 30
0.0
 40
2.3018773378608488
 50
207.4117502055657098
 51
209.3332171965845987
  0
ARC
  5
CD8C
  8
0
  6
CONTINUOUS
 62
     7
 10
1002.300281166511013
 20
137.9916302472130099
 30
0.0
 40
0.0099937379801208
 50
128.8516666482568098
 51
177.0980588520006904
  0
ARC
  5
CD8D
  8
0
  6
CONTINUOUS
 62
     7
 10
1002.3024462833980124
 20
137.991782212796295
 30
0.0
 40
0.0121511965134103
 50
178.3306397034334054
 51
196.1987716011333021
  0
ARC
  5
CD8E
  8
0
  6
CONTINUOUS
 62
     7
 10
1002.366565959260015
 20
138.0146644635503037
 30
0.0
 40
0.0802129263103941
 50
199.1188769874289903
 51
207.4235051458614123
  0
ARC
  5
CD8F
  8
0
  6
CONTINUOUS
 62
     7
 10
997.2509718858808583
 20
135.0982616703059875
 30
0.0
 40
5.8676864910985591
 50
27.7279181420790692
 51
28.8187288785699707
  0
ARC
  5
CD90
  8
0
  6
CONTINUOUS
 62
     7
 10
1001.4025573424080449
 20
137.4480460253961098
 30
0.0
 40
1.101552501279943
 50
25.1619972166561183
 51
27.5608093193041803
  0
ARC
  5
CD91
  8
0
  6
CONTINUOUS
 62
     7
 10
1002.3776811499930091
 20
137.9056656006333128
 30
0.0
 40
0.0243920429858653
 50
17.9994756511457084
 51
26.1168870284448005
  0
ARC
  5
CD92
  8
0
  6
CONTINUOUS
 62
     7
 10
1002.4003835090769599
 20
137.913053691462494
 30
0.0
 40
0.0005178941215561
 50
354.8562342824013172
 51
16.7497142055072388
  0
ARC
  5
CD93
  8
0
  6
CONTINUOUS
 62
     7
 10
1002.4008400722029819
 20
137.9130139685730114
 30
0.0
 40
0.0000596240217035
 50
314.4906531613917764
 51
353.5393249413126
  0
ARC
  5
CD94
  8
0
  6
CONTINUOUS
 62
     7
 10
1002.4008592234609978
 20
137.9130074378018094
 30
0.0
 40
0.00004252592822
 50
249.2092242883373103
 51
302.1550378801042029
  0
ARC
  5
CD95
  8
0
  6
CONTINUOUS
 62
     7
 10
1002.400915036920992
 20
137.9131502885230134
 30
0.0
 40
0.0001958915031954
 50
230.8376897999233961
 51
248.7783105114945954
  0
ARC
  5
CD96
  8
0
  6
CONTINUOUS
 62
     7
 10
1002.4015061025879731
 20
137.9138591459395116
 30
0.0
 40
0.0011188311899945
 50
218.1865858664652933
 51
230.293249338613407
  0
ARC
  5
CD97
  8
0
  6
CONTINUOUS
 62
     7
 10
1002.4212825022419793
 20
137.928400594626396
 30
0.0
 40
0.0256653592570283
 50
210.0527583183304898
 51
216.407845410380304
  0
ARC
  5
CD98
  8
0
  6
CONTINUOUS
 62
     7
 10
1002.5473357982419884
 20
138.0045853060422871
 30
0.0
 40
0.1729486479210305
 50
208.8988172114800079
 51
210.9855901935409008
  0
ARC
  5
CD99
  8
0
  6
CONTINUOUS
 62
     7
 10
1029.7876409783029885
 20
153.3587001825673894
 30
0.0
 40
31.4424648776002194
 50
209.392577160401089
 51
209.4051679926799068
  0
ARC
  5
CD9A
  8
0
  6
CONTINUOUS
 62
     7
 10
1002.3351451828990548
 20
137.9516201663250001
 30
0.0
 40
0.0124117503486919
 50
218.2046823134596139
 51
293.4047195015608054
  0
ARC
  5
CD9B
  8
0
  6
CONTINUOUS
 62
     7
 10
1002.3686605067999835
 20
137.9795016540165875
 30
0.0
 40
0.0560046979166746
 50
210.8371921792989099
 51
219.4131409945881046
  0
ARC
  5
CD9C
  8
0
  6
CONTINUOUS
 62
     7
 10
1002.9557345708719822
 20
138.3284858857140023
 30
0.0
 40
0.738973090417699
 50
203.2086806424468932
 51
210.7374087085190979
  0
ARC
  5
CD9D
  8
0
  6
CONTINUOUS
 62
     7
 10
1002.2882625194370121
 20
138.0422583977131978
 30
0.0
 40
0.0127189521374639
 50
121.3478574587448975
 51
203.0890656025819112
  0
ARC
  5
CD9E
  8
0
  6
CONTINUOUS
 62
     7
 10
1002.2628631304239661
 20
138.0672086040536897
 30
0.0
 40
0.0104367292828373
 50
213.8829243624161052
 51
292.137767431197517
  0
ARC
  5
CD9F
  8
0
  6
CONTINUOUS
 62
     7
 10
1002.2252535242949989
 20
138.1408083256459065
 30
0.0
 40
0.0099717244737679
 50
120.1474985306369945
 51
200.0206150913672047
  0
ARC
  5
CDA0
  8
0
  6
CONTINUOUS
 62
     7
 10
1002.8506284424430532
 20
138.4097147409314061
 30
0.0
 40
0.6906941139535285
 50
203.220484608676486
 51
210.2856209134504013
  0
ARC
  5
CDA1
  8
0
  6
CONTINUOUS
 62
     7
 10
1000.1538739264709648
 20
137.0472320874198999
 30
0.0
 40
2.3960700964734212
 50
25.3881243655449893
 51
27.13558388691769
  0
ARC
  5
CDA2
  8
0
  6
CONTINUOUS
 62
     7
 10
1002.2149006047650346
 20
138.2346952771592896
 30
0.0
 40
0.0137328766421731
 50
123.0714154762919037
 51
199.3084654374426918
  0
ARC
  5
CDA3
  8
0
  6
CONTINUOUS
 62
     7
 10
1002.2595096564569985
 20
138.143432004892901
 30
0.0
 40
0.0130063778118845
 50
222.7572056060305954
 51
291.3749330216090243
  0
ARC
  5
CDA4
  8
0
  6
CONTINUOUS
 62
     7
 10
1002.2936152677930295
 20
138.1759873494424937
 30
0.0
 40
0.0601542493455873
 50
210.4823388134051925
 51
223.4708981746200038
  0
ARC
  5
CDA5
  8
0
  6
CONTINUOUS
 62
     7
 10
1002.586422004806991
 20
138.3589070716024025
 30
0.0
 40
0.405400381376177
 50
204.7356520167689098
 51
211.5584113231896879
  0
ARC
  5
CDA6
  8
0
  6
CONTINUOUS
 62
     7
 10
1002.4448754325590016
 20
138.3032065676055993
 30
0.0
 40
0.2536812018232335
 50
196.7363540851762878
 51
206.6869376916367003
  0
ARC
  5
CDA7
  8
0
  6
CONTINUOUS
 62
     7
 10
1002.3744490904759914
 20
138.189857950571195
 30
0.0
 40
0.0780274693518842
 50
211.7491244777802137
 51
222.1751940087063133
  0
ARC
  5
CDA8
  8
0
  6
CONTINUOUS
 62
     7
 10
1002.2608409225290416
 20
138.130253705827414
 30
0.0
 40
0.0601397195295665
 50
7.9224218545409784
 51
21.4766351973050504
  0
ARC
  5
CDA9
  8
0
  6
CONTINUOUS
 62
     7
 10
1002.32369951833698
 20
138.1443211017819976
 30
0.0
 40
0.0098491667300447
 50
224.072603276280887
 51
236.7424814791166909
  0
ARC
  5
CDAA
  8
0
  6
CONTINUOUS
 62
     7
 10
1002.3142907026899593
 20
138.1379128192907899
 30
0.0
 40
0.0061483117840389
 50
347.0507018412999969
 51
5.8819488228782077
  0
ARC
  5
CDAB
  8
0
  6
CONTINUOUS
 62
     7
 10
1002.3193343828960451
 20
138.1366448642610862
 30
0.0
 40
0.0009546093981837
 50
244.8335269728985111
 51
353.3944241031016986
  0
ARC
  5
CDAC
  8
0
  6
CONTINUOUS
 62
     7
 10
1002.3199964334180549
 20
138.1387982821528055
 30
0.0
 40
0.0032008428114683
 50
237.9569505906266897
 51
250.5088365353909126
  0
ARC
  5
CDAD
  8
0
  6
CONTINUOUS
 62
     7
 10
1002.3122632372429734
 20
138.2966319101473118
 30
0.0
 40
0.0693639341823036
 50
190.5667261130008967
 51
201.540164454491503
  0
ARC
  5
CDAE
  8
0
  6
CONTINUOUS
 62
     7
 10
1002.2540963808170318
 20
138.2862569883533865
 30
0.0
 40
0.0102915444479258
 50
172.0356290616632862
 51
193.1713377189115874
  0
ARC
  5
CDAF
  8
0
  6
CONTINUOUS
 62
     7
 10
1002.2450645855790299
 20
138.2875899458898914
 30
0.0
 40
0.0011642026846822
 50
110.609906376783897
 51
175.4176221949174987
  0
ARC
  5
CDB0
  8
0
  6
CONTINUOUS
 62
     7
 10
1002.2448152387850087
 20
138.2866147760146873
 30
0.0
 40
0.002071087071258
 50
54.8619911222071579
 51
94.4434194000608045
  0
ARC
  5
CDB1
  8
0
  6
CONTINUOUS
 62
     7
 10
1002.2369907011350278
 20
138.2753565192548137
 30
0.0
 40
0.0157813340957941
 50
39.3987305537297416
 51
55.1561021583927413
  0
ARC
  5
CDB2
  8
0
  6
CONTINUOUS
 62
     7
 10
1002.197235658496993
 20
138.2404579913601879
 30
0.0
 40
0.0686744248360554
 50
36.0790765276827017
 51
40.8461600412476997
  0
ARC
  5
CDB3
  8
0
  6
CONTINUOUS
 62
     7
 10
1001.7091722820870245
 20
137.92989566194791
 30
0.0
 40
0.6470461950023835
 50
20.1012076310158605
 51
32.8521135960311881
  0
ARC
  5
CDB4
  8
0
  6
CONTINUOUS
 62
     7
 10
1002.296561642064944
 20
138.1810158046806123
 30
0.0
 40
0.0653059214130924
 50
211.6646583268347968
 51
212.9737594555350881
  0
ARC
  5
CDB5
  8
0
  6
CONTINUOUS
 62
     7
 10
1002.1975900753969881
 20
138.1904479998671036
 30
0.0
 40
0.0094646493256263
 50
204.2823299076256944
 51
295.582610916068802
  0
ARC
  5
CDB6
  8
0
  6
CONTINUOUS
 62
     7
 10
1005.0178085247509898
 20
139.6103031524660025
 30
0.0
 40
3.166926713909024
 50
204.9230839612827992
 51
206.7159387025770059
  0
ARC
  5
CDB7
  8
0
  6
CONTINUOUS
 62
     7
 10
1002.1549672817179726
 20
138.2801650950582939
 30
0.0
 40
0.0101686602248757
 50
134.7264129487543869
 51
205.6936781357433972
  0
ARC
  5
CDB8
  8
0
  6
CONTINUOUS
 62
     7
 10
1002.1878792917659666
 20
138.2373258212946041
 30
0.0
 40
0.0121986181129404
 50
243.6269443742280885
 51
293.0110002712248161
  0
ARC
  5
CDB9
  8
0
  6
CONTINUOUS
 62
     7
 10
1002.1892342534420095
 20
138.2393021159398074
 30
0.0
 40
0.0145749887188781
 50
213.4740525877498101
 51
242.305816641772509
  0
ARC
  5
CDBA
  8
0
  6
CONTINUOUS
 62
     7
 10
1002.5688644992650325
 20
138.4672167414373973
 30
0.0
 40
0.4573529835127813
 50
205.5028380844794071
 51
211.0583904734955922
  0
ARC
  5
CDBB
  8
0
  6
CONTINUOUS
 62
     7
 10
1002.8123884496160372
 20
138.5981830904019887
 30
0.0
 40
0.7336588057611731
 50
202.0970121514286006
 51
206.5458558137129046
  0
ARC
  5
CDBC
  8
0
  6
CONTINUOUS
 62
     7
 10
1002.1535935022550348
 20
138.330782839351798
 30
0.0
 40
0.0226640476373696
 50
182.0746893859549971
 51
202.2577413411200098
  0
ARC
  5
CDBD
  8
0
  6
CONTINUOUS
 62
     7
 10
1002.1430245277040285
 20
138.3299181325776885
 30
0.0
 40
0.0120802971291054
 50
119.6311221822933959
 51
179.7903073460030896
  0
ARC
  5
CDBE
  8
0
  6
CONTINUOUS
 62
     7
 10
1002.4255759093430243
 20
138.2816178663352957
 30
0.0
 40
0.2245780327856905
 50
200.6781416115078116
 51
210.704210949488612
  0
ARC
  5
CDBF
  8
0
  6
CONTINUOUS
 62
     7
 10
1002.2370888721179654
 20
138.2098356316421928
 30
0.0
 40
0.0228938169092177
 50
190.9685760551473948
 51
199.176908863772212
  0
ARC
  5
CDC0
  8
0
  6
CONTINUOUS
 62
     7
 10
1002.27103619805996
 20
138.1895606209398863
 30
0.0
 40
0.0446981801001852
 50
210.3923892499853991
 51
217.7720226387631897
  0
ARC
  5
CDC1
  8
0
  6
CONTINUOUS
 62
     7
 10
1002.2421498146679824
 20
138.1672039699828076
 30
0.0
 40
0.0081709240800909
 50
217.9235706079111878
 51
227.5479331492543054
  0
ARC
  5
CDC2
  8
0
  6
CONTINUOUS
 62
     7
 10
1002.2372560129280146
 20
138.161088299517786
 30
0.0
 40
0.0002534385725171
 50
261.4886341694165139
 51
343.0069354074116177
  0
ARC
  5
CDC3
  8
0
  6
CONTINUOUS
 62
     7
 10
1002.2351939725720058
 20
138.1615828494234961
 30
0.0
 40
0.0023735312306211
 50
346.139037124847107
 51
12.4271279533435806
  0
ARC
  5
CDC4
  8
0
  6
CONTINUOUS
 62
     7
 10
1002.2251807839589901
 20
138.1601294055780045
 30
0.0
 40
0.0124865697205494
 50
9.0506079255264105
 51
15.3698935287262
  0
ARC
  5
CDC5
  8
0
  6
CONTINUOUS
 62
     7
 10
1002.2063511374469726
 20
138.1552003885543911
 30
0.0
 40
0.0319500905894635
 50
14.9429782722244493
 51
18.1880796924414696
  0
ARC
  5
CDC6
  8
0
  6
CONTINUOUS
 62
     7
 10
1002.1517358060209517
 20
138.1367622033650946
 30
0.0
 40
0.0895931518406549
 50
18.4883153816979693
 51
22.4850486215683887
  0
ARC
  5
CDC7
  8
0
  6
CONTINUOUS
 62
     7
 10
1002.0175641598129914
 20
138.0809710660510063
 30
0.0
 40
0.2349019961556468
 50
22.5428420432649901
 51
26.9163764063138586
  0
ARC
  5
CDC8
  8
0
  6
CONTINUOUS
 62
     7
 10
1002.07736289012405
 20
138.1133409177541012
 30
0.0
 40
0.1669375046645829
 50
26.3010094904708289
 51
32.6425977166397416
  0
ARC
  5
CDC9
  8
0
  6
CONTINUOUS
 62
     7
 10
1002.2000147330890059
 20
138.191798565000596
 30
0.0
 40
0.0213387071222938
 50
32.8913569744000824
 51
42.3577245983254826
  0
ARC
  5
CDCA
  8
0
  6
CONTINUOUS
 62
     7
 10
1002.2378243535620186
 20
138.1624532477846117
 30
0.0
 40
0.0017461355280892
 50
227.0523880158083898
 51
243.8388141540972072
  0
ARC
  5
CDCB
  8
0
  6
CONTINUOUS
 62
     7
 10
1002.2372755579770001
 20
138.1613336714706008
 30
0.0
 40
0.0004992899433789
 50
243.7191316511440107
 51
263.4383034110994117
  0
ARC
  5
CDCC
  8
0
  6
CONTINUOUS
 62
     7
 10
1002.2142272297179488
 20
138.204919387303903
 30
0.0
 40
0.0019996918323427
 50
38.9204589385986495
 51
68.6630353212673441
  0
ARC
  5
CDCD
  8
0
  6
CONTINUOUS
 62
     7
 10
1002.2175670622730195
 20
138.2060788724695897
 30
0.0
 40
0.0030139515611132
 50
171.5180325373370067
 51
191.4684894857371091
  0
ARC
  5
CDCE
  8
0
  6
CONTINUOUS
 62
     7
 10
1002.2148734248429491
 20
138.2065058766960988
 30
0.0
 40
0.0002878838467081
 50
73.5759984526395243
 51
176.505353142976503
  0
ARC
  5
CDCF
  8
0
  6
CONTINUOUS
 62
     7
 10
1002.1117818852000028
 20
138.3635321412760106
 30
0.0
 40
0.0091362657910582
 50
120.6730493767386037
 51
210.9944872171845986
  0
ARC
  5
CDD0
  8
0
  6
CONTINUOUS
 62
     7
 10
1007.9504520107329881
 20
141.1252106555585044
 30
0.0
 40
6.4679564617852989
 50
205.3220600834538061
 51
206.4305005516476967
  0
ARC
  5
CDD1
  8
0
  6
CONTINUOUS
 62
     7
 10
1002.1668582576729705
 20
138.2509554129680112
 30
0.0
 40
0.0095422364154061
 50
209.5728165368333009
 51
232.7366004526946881
  0
ARC
  5
CDD2
  8
0
  6
CONTINUOUS
 62
     7
 10
1000.9489964166459686
 20
137.6965775587420069
 30
0.0
 40
1.4052452618592171
 50
23.7810794592041894
 51
28.4978341227554601
  0
ARC
  5
CDD3
  8
0
  6
CONTINUOUS
 62
     7
 10
1002.0964149929859559
 20
138.3212819659842125
 30
0.0
 40
0.0988032093994321
 50
27.5992545434413614
 51
36.0794000588966526
  0
ARC
  5
CDD4
  8
0
  6
CONTINUOUS
 62
     7
 10
1002.3098908520829582
 20
138.4197652991616962
 30
0.0
 40
0.1411584562721087
 50
198.9802022315257943
 51
202.9312350789944901
  0
ARC
  5
CDD5
  8
0
  6
CONTINUOUS
 62
     7
 10
1002.17143785136102
 20
138.3757690978208075
 30
0.0
 40
0.006083544778936
 50
37.4433420971707633
 51
50.9334972321373911
  0
ARC
  5
CDD6
  8
0
  6
CONTINUOUS
 62
     7
 10
1002.2098189087109859
 20
138.3871746389548036
 30
0.0
 40
0.0359690604222942
 50
193.0601686647162012
 51
201.7351046575612941
  0
ARC
  5
CDD7
  8
0
  6
CONTINUOUS
 62
     7
 10
1002.1785371356199903
 20
138.3800337177866027
 30
0.0
 40
0.0038844142036536
 50
175.4506502965205073
 51
194.7222034030276063
  0
ARC
  5
CDD8
  8
0
  6
CONTINUOUS
 62
     7
 10
1002.1749919217779734
 20
138.380338759621111
 30
0.0
 40
0.0003269764011779
 50
114.7540978331854973
 51
179.4636040263330017
  0
ARC
  5
CDD9
  8
0
  6
CONTINUOUS
 62
     7
 10
1002.1748944034660553
 20
138.3800722242108066
 30
0.0
 40
0.0005648424702488
 50
48.0711796450058699
 51
93.9993244085131465
  0
ARC
  5
CDDA
  8
0
  6
CONTINUOUS
 62
     7
 10
1025.9537747052229406
 20
149.9700716023147038
 30
0.0
 40
26.4634152960467617
 50
205.7748489386740971
 51
206.020634652067713
  0
ARC
  5
CDDB
  8
0
  6
CONTINUOUS
 62
     7
 10
1002.1343042599279443
 20
138.6563618056744929
 30
0.0
 40
0.0349309653884127
 50
166.7453908368539999
 51
191.0010410447769118
  0
ARC
  5
CDDC
  8
0
  6
CONTINUOUS
 62
     7
 10
1002.103841745656041
 20
138.6635912302861868
 30
0.0
 40
0.003622774027205
 50
71.303470397304082
 51
167.5746736185809027
  0
ARC
  5
CDDD
  8
0
  6
CONTINUOUS
 62
     7
 10
1002.0993768966940252
 20
138.6513688221783127
 30
0.0
 40
0.0166343470379844
 50
43.0279377238032978
 51
70.2312408234172239
  0
ARC
  5
CDDE
  8
0
  6
CONTINUOUS
 62
     7
 10
1002.040211916169028
 20
138.5912729704866138
 30
0.0
 40
0.1009546743793296
 50
31.6667664390439683
 51
45.04869216417827
  0
ARC
  5
CDDF
  8
0
  6
CONTINUOUS
 62
     7
 10
1001.5849906455759992
 20
138.3094625507523858
 30
0.0
 40
0.6363455570050611
 50
18.4887222150405997
 51
31.7452895067149115
  0
ARC
  5
CDE0
  8
0
  6
CONTINUOUS
 62
     7
 10
1001.8863834769520054
 20
138.3931698478459111
 30
0.0
 40
0.3243680032790463
 50
8.6211697655700075
 51
21.3497278786629394
  0
ARC
  5
CDE1
  8
0
  6
CONTINUOUS
 62
     7
 10
1002.1487094635159565
 20
138.4358337908934971
 30
0.0
 40
0.0586803594453497
 50
356.617012337129097
 51
5.8284770923418057
  0
ARC
  5
CDE2
  8
0
  6
CONTINUOUS
 62
     7
 10
1002.1975123676639896
 20
138.4330701536295862
 30
0.0
 40
0.009800164867956
 50
329.3224406930576151
 51
355.9093642540329938
  0
ARC
  5
CDE3
  8
0
  6
CONTINUOUS
 62
     7
 10
1002.2036248204160529
 20
138.429619016002988
 30
0.0
 40
0.0027864099479491
 50
255.8884389236226866
 51
326.2272463526924184
  0
ARC
  5
CDE4
  8
0
  6
CONTINUOUS
 62
     7
 10
1002.2052182595809882
 20
138.4357905047959036
 30
0.0
 40
0.009160248582632
 50
227.3125127541892141
 51
255.6340001107888042
  0
ARC
  5
CDE5
  8
0
  6
CONTINUOUS
 62
     7
 10
1002.2300088844989432
 20
138.4651563900085876
 30
0.0
 40
0.0475839653261056
 50
218.0378073160958934
 51
229.3447131476384016
  0
ARC
  5
CDE6
  8
0
  6
CONTINUOUS
 62
     7
 10
1002.1694341502519592
 20
138.4426490339650115
 30
0.0
 40
0.0152976053919912
 50
237.5581618789161098
 51
291.9510533133275771
  0
ARC
  5
CDE7
  8
0
  6
CONTINUOUS
 62
     7
 10
1002.0920588569759957
 20
138.5493596430553112
 30
0.0
 40
0.0200672542674838
 50
37.0079875556518019
 51
47.8914895565459631
  0
ARC
  5
CDE8
  8
0
  6
CONTINUOUS
 62
     7
 10
1001.9071053399669609
 20
138.4395342407840985
 30
0.0
 40
0.2355542637376235
 50
16.2161556409377283
 51
28.9368100968195883
  0
ARC
  5
CDE9
  8
0
  6
CONTINUOUS
 62
     7
 10
1002.046677447424031
 20
138.5157843399072135
 30
0.0
 40
0.0765181756648684
 50
29.5363449359968016
 51
36.6301064496747628
  0
ARC
  5
CDEA
  8
0
  6
CONTINUOUS
 62
     7
 10
1002.1337649043649662
 20
138.4933528506905986
 30
0.0
 40
0.0009898521398262
 50
244.0980969910482088
 51
338.9813040318661024
  0
ARC
  5
CDEB
  8
0
  6
CONTINUOUS
 62
     7
 10
1002.157831620059028
 20
138.5181410886650042
 30
0.0
 40
0.0359081915559773
 50
212.1387002568683897
 51
220.9651082503528983
  0
ARC
  5
CDEC
  8
0
  6
CONTINUOUS
 62
     7
 10
1002.2744633230310001
 20
138.5915352585782045
 30
0.0
 40
0.1737111528101098
 50
202.0301583045128098
 51
212.1726105914437994
  0
ARC
  5
CDED
  8
0
  6
CONTINUOUS
 62
     7
 10
1002.259237798566005
 20
138.5923087423078925
 30
0.0
 40
0.1600165880251602
 50
191.6906925396071983
 51
204.3324044943719002
  0
ARC
  5
CDEE
  8
0
  6
CONTINUOUS
 62
     7
 10
1002.1120180061019482
 20
138.561758483636595
 30
0.0
 40
0.0096607961845712
 50
162.9421420757059025
 51
191.1828275990810084
  0
ARC
  5
CDEF
  8
0
  6
CONTINUOUS
 62
     7
 10
1002.103723990376011
 20
138.5641155270280933
 30
0.0
 40
0.0010556222138866
 50
68.7591427067713141
 51
153.1469879664448968
  0
ARC
  5
CDF0
  8
0
  6
CONTINUOUS
 62
     7
 10
1002.1027873648489503
 20
138.5613306045256081
 30
0.0
 40
0.0039929974132889
 50
46.9193618827153571
 51
70.7102915433327439
  0
ARC
  5
CDF1
  8
0
  6
CONTINUOUS
 62
     7
 10
1002.1369517261549618
 20
138.4995604439426131
 30
0.0
 40
0.0079674635946894
 50
218.5080690121997975
 51
242.9833100077003962
  0
ARC
  5
CDF2
  8
0
  6
CONTINUOUS
 62
     7
 10
1002.0876097249399663
 20
138.4920652792683882
 30
0.0
 40
0.0475613447936019
 50
4.0470788271888951
 51
16.1762830111909501
  0
ARC
  5
CDF3
  8
0
  6
CONTINUOUS
 62
     7
 10
1002.129570323839971
 20
138.4950048450118913
 30
0.0
 40
0.0054979932809462
 50
338.5895116830590155
 51
4.3511819210926328
  0
ARC
  5
CDF4
  8
0
  6
CONTINUOUS
 62
     7
 10
1002.1823439724149694
 20
138.4628156332817923
 30
0.0
 40
0.0392423946988151
 50
216.4509688606866007
 51
237.4459799410570042
  0
ARC
  5
CDF5
  8
0
  6
CONTINUOUS
 62
     7
 10
1002.3288902533649889
 20
138.5738362816819063
 30
0.0
 40
0.2230915712989649
 50
208.0127073254932952
 51
217.0244622132732104
  0
ARC
  5
CDF6
  8
0
  6
CONTINUOUS
 62
     7
 10
1002.7327941210080553
 20
138.7938468772074998
 30
0.0
 40
0.683022305855145
 50
201.4545342841522881
 51
208.3930849334637116
  0
ARC
  5
CDF7
  8
0
  6
CONTINUOUS
 62
     7
 10
1002.4103617242329847
 20
138.6774628012082076
 30
0.0
 40
0.3404986537041708
 50
191.2108236069844907
 51
203.0725283487134902
  0
ARC
  5
CDF8
  8
0
  6
CONTINUOUS
 62
     7
 10
1002.1138448027890036
 20
138.6204771958092863
 30
0.0
 40
0.0386003260230714
 50
163.2321810871715968
 51
193.8100223544315099
  0
ARC
  5
CDF9
  8
0
  6
CONTINUOUS
 62
     7
 10
1002.091032579711964
 20
138.6269045761424934
 30
0.0
 40
0.0149098974290683
 50
121.224752552045004
 51
161.5907272919525042
  0
ARC
  5
CDFA
  8
0
  6
CONTINUOUS
 62
     7
 10
1002.0752710835399739
 20
138.4550769776058132
 30
0.0
 40
0.0117277499462907
 50
208.5687426586148945
 51
294.2678611527426824
  0
ARC
  5
CDFB
  8
0
  6
CONTINUOUS
 62
     7
 10
1003.0181765583599827
 20
138.9441691517158972
 30
0.0
 40
1.0739315453356471
 50
201.8728295740100123
 51
207.4286961953858963
  0
ARC
  5
CDFC
  8
0
  6
CONTINUOUS
 62
     7
 10
1002.0344098069880374
 20
138.5491943372996957
 30
0.0
 40
0.0138362711921741
 50
171.0717284212149139
 51
201.7002147976888011
  0
ARC
  5
CDFD
  8
0
  6
CONTINUOUS
 62
     7
 10
1002.0326295421690475
 20
138.5492876810372138
 30
0.0
 40
0.0120644948057243
 50
128.8965321054189985
 51
170.197473134003701
  0
ARC
  5
CDFE
  8
0
  6
CONTINUOUS
 62
     7
 10
1002.0440249888040398
 20
138.5317482719638065
 30
0.0
 40
0.032940343759093
 50
117.2679900110562983
 51
125.1639424512913052
  0
ARC
  5
CDFF
  8
0
  6
CONTINUOUS
 62
     7
 10
1001.9913665817390438
 20
138.6311288671608111
 30
0.0
 40
0.0119333025875059
 50
119.2289136479676017
 51
209.9078385888792013
  0
ARC
  5
CE00
  8
0
  6
CONTINUOUS
 62
     7
 10
1002.0335366075529464
 20
138.5366562516933868
 30
0.0
 40
0.0118310886737868
 50
204.4984890025264122
 51
248.1921405286373101
  0
ARC
  5
CE01
  8
0
  6
CONTINUOUS
 62
     7
 10
1027.4473146621580781
 20
149.9486484771701953
 30
0.0
 40
27.8702888983309194
 50
203.9721028585925922
 51
204.1824769857117019
  0
ARC
  5
CE02
  8
0
  6
CONTINUOUS
 62
     7
 10
1002.0560923375519451
 20
138.5368362620378093
 30
0.0
 40
0.01233805421009
 50
227.0064235179171988
 51
290.7335114509667164
  0
ARC
  5
CE03
  8
0
  6
CONTINUOUS
 62
     7
 10
1002.0695091792949825
 20
138.5500201403239942
 30
0.0
 40
0.0311411860919783
 50
209.1255242144652016
 51
225.4917010757841069
  0
ARC
  5
CE04
  8
0
  6
CONTINUOUS
 62
     7
 10
1002.0154734527200162
 20
138.6315069966236138
 30
0.0
 40
0.0130423844114235
 50
121.7658157988730068
 51
190.9567147859343947
  0
ARC
  5
CE05
  8
0
  6
CONTINUOUS
 62
     7
 10
1002.1890064916019583
 20
138.6727030020882125
 30
0.0
 40
0.1913876406794856
 50
193.1912066257606
 51
194.6470815658410061
  0
ARC
  5
CE06
  8
0
  6
CONTINUOUS
 62
     7
 10
1002.1890064915900211
 20
138.6727030020851998
 30
0.0
 40
0.1913876406670476
 50
194.6470815658867934
 51
204.1319068605903055
  0
ARC
  5
CE07
  8
0
  6
CONTINUOUS
 62
     7
 10
1002.5191773882230564
 20
138.7949638533399934
 30
0.0
 40
0.5431934766616632
 50
201.6618046535305098
 51
208.6094432123431943
  0
ARC
  5
CE08
  8
0
  6
CONTINUOUS
 62
     7
 10
1002.0146534424790161
 20
138.6023383336786878
 30
0.0
 40
0.0002877811334717
 50
128.8440327853992073
 51
174.7129765087333055
  0
ARC
  5
CE09
  8
0
  6
CONTINUOUS
 62
     7
 10
1002.0145549792169959
 20
138.6023952386931057
 30
0.0
 40
0.0001862716410822
 50
62.8827212073093165
 51
116.1293159320031947
  0
ARC
  5
CE0A
  8
0
  6
CONTINUOUS
 62
     7
 10
1002.0142770809129615
 20
138.60177769569421
 30
0.0
 40
0.0008632763101404
 50
45.678047117321853
 51
65.1487842897151239
  0
ARC
  5
CE0B
  8
0
  6
CONTINUOUS
 62
     7
 10
1002.0118335884490079
 20
138.5992022273158
 30
0.0
 40
0.0044133717550749
 50
35.0277462061180316
 51
46.3442728231541281
  0
ARC
  5
CE0C
  8
0
  6
CONTINUOUS
 62
     7
 10
1001.977875573535016
 20
138.5761100595221933
 30
0.0
 40
0.0454787121945294
 50
26.0911577550553204
 51
34.2952500203727766
  0
ARC
  5
CE0D
  8
0
  6
CONTINUOUS
 62
     7
 10
1001.8353959625050038
 20
138.5015053028081979
 30
0.0
 40
0.2062958669111904
 50
24.630643768618679
 51
27.2965035918622299
  0
ARC
  5
CE0E
  8
0
  6
CONTINUOUS
 62
     7
 10
1001.7668947647910045
 20
138.4681840203242871
 30
0.0
 40
0.2824569432263027
 50
22.7824392992699494
 51
24.9836925004156605
  0
ARC
  5
CE0F
  8
0
  6
CONTINUOUS
 62
     7
 10
1001.7792176965749604
 20
138.4714194831381064
 30
0.0
 40
0.2698484743885812
 50
20.0675699588486403
 51
23.1622520931132883
  0
ARC
  5
CE10
  8
0
  6
CONTINUOUS
 62
     7
 10
1001.9756747187179826
 20
138.5423948088806867
 30
0.0
 40
0.0609695358447223
 50
13.9678212133253599
 51
20.7663902059428302
  0
ARC
  5
CE11
  8
0
  6
CONTINUOUS
 62
     7
 10
1002.0288762727029734
 20
138.5557213497106943
 30
0.0
 40
0.0061250298097866
 50
2.6408555596913739
 51
13.1177838790589991
  0
ARC
  5
CE12
  8
0
  6
CONTINUOUS
 62
     7
 10
1002.0340394121419649
 20
138.5559668264627078
 30
0.0
 40
0.0009560914108732
 50
343.2411303899231143
 51
2.2020162023299812
  0
ARC
  5
CE13
  8
0
  6
CONTINUOUS
 62
     7
 10
1002.0347706861019788
 20
138.5557450596147078
 30
0.0
 40
0.0001919375673337
 50
296.2355273635477033
 51
343.6855783855249911
  0
ARC
  5
CE14
  8
0
  6
CONTINUOUS
 62
     7
 10
1002.0348006099350187
 20
138.555754251205002
 30
0.0
 40
0.0001894910588869
 50
245.9680543554341057
 51
286.8493924654139278
  0
ARC
  5
CE15
  8
0
  6
CONTINUOUS
 62
     7
 10
1002.0354027298110395
 20
138.5568327198566863
 30
0.0
 40
0.0014239986768917
 50
218.8297602336407124
 51
241.5084286923379011
  0
ARC
  5
CE16
  8
0
  6
CONTINUOUS
 62
     7
 10
1002.0428562313769589
 20
138.5631389860882905
 30
0.0
 40
0.0111870101149575
 50
211.2010723431781969
 51
220.0552074277242127
  0
ARC
  5
CE17
  8
0
  6
CONTINUOUS
 62
     7
 10
1002.0923629083749802
 20
138.5936071198266006
 30
0.0
 40
0.0693178153458647
 50
206.6461615483302126
 51
211.5436604624470078
  0
ARC
  5
CE18
  8
0
  6
CONTINUOUS
 62
     7
 10
1002.2796509656129729
 20
138.6887335740811977
 30
0.0
 40
0.2793787498306008
 50
203.5691992185967081
 51
206.857100834200196
  0
ARC
  5
CE19
  8
0
  6
CONTINUOUS
 62
     7
 10
1002.3129486099329597
 20
138.7046726438356075
 30
0.0
 40
0.3162746220592328
 50
201.2765696134823941
 51
203.8038221531527938
  0
ARC
  5
CE1A
  8
0
  6
CONTINUOUS
 62
     7
 10
1002.1455173839329973
 20
138.6401451302347141
 30
0.0
 40
0.1368418818197978
 50
197.9892908778141987
 51
201.5388878090124933
  0
ARC
  5
CE1B
  8
0
  6
CONTINUOUS
 62
     7
 10
1002.0286530718959739
 20
138.6031946779935993
 30
0.0
 40
0.0143102665537046
 50
183.3243444057719955
 51
201.7884270135087945
  0
ARC
  5
CE1C
  8
0
  6
CONTINUOUS
 62
     7
 10
1002.4136518472530497
 20
138.6075089627088914
 30
0.0
 40
0.3217027907236245
 50
206.5091871449866119
 51
208.6211006011641018
  0
ARC
  5
CE1D
  8
0
  6
CONTINUOUS
 62
     7
 10
1002.1716426876009791
 20
138.475806241768197
 30
0.0
 40
0.0461790312265504
 50
209.0138403527382138
 51
213.4140132444354094
  0
ARC
  5
CE1E
  8
0
  6
CONTINUOUS
 62
     7
 10
1002.1352916748919597
 20
138.4518858815901012
 30
0.0
 40
0.0026642738068725
 50
214.5175922701027105
 51
226.0807225431123015
  0
ARC
  5
CE1F
  8
0
  6
CONTINUOUS
 62
     7
 10
1002.1336758557459916
 20
138.4501993405692986
 30
0.0
 40
0.0003286786936717
 50
225.0423739622283108
 51
253.4533860571777097
  0
ARC
  5
CE20
  8
0
  6
CONTINUOUS
 62
     7
 10
1002.133593754026947
 20
138.4499474862909096
 30
0.0
 40
0.0000642516294667
 50
259.6854083112507965
 51
335.7323586618419995
  0
ARC
  5
CE21
  8
0
  6
CONTINUOUS
 62
     7
 10
1002.133362495927031
 20
138.4500462958116032
 30
0.0
 40
0.0003157244924901
 50
336.633975934723594
 51
6.3993935823583081
  0
ARC
  5
CE22
  8
0
  6
CONTINUOUS
 62
     7
 10
1002.1312080651209726
 20
138.4499408541338141
 30
0.0
 40
0.0024721913365406
 50
3.2610217198623528
 51
12.83123853575864
  0
ARC
  5
CE23
  8
0
  6
CONTINUOUS
 62
     7
 10
1002.111177741412007
 20
138.4449660327406093
 30
0.0
 40
0.0231106361757449
 50
13.8285583632226903
 51
20.1055517665875811
  0
ARC
  5
CE24
  8
0
  6
CONTINUOUS
 62
     7
 10
1001.9826933414479981
 20
138.399341087123986
 30
0.0
 40
0.1594544053468768
 50
19.6305214905907413
 51
22.5809837188149416
  0
ARC
  5
CE25
  8
0
  6
CONTINUOUS
 62
     7
 10
1001.5365752517260489
 20
138.2217375473418883
 30
0.0
 40
0.6396116943649145
 50
21.9255785719963114
 51
23.2016154763155313
  0
ARC
  5
CE26
  8
0
  6
CONTINUOUS
 62
     7
 10
999.8907894597077757
 20
137.5170605051322923
 30
0.0
 40
2.4299134783422538
 50
23.1850886234703708
 51
24.2905409390831188
  0
ARC
  5
CE27
  8
0
  6
CONTINUOUS
 62
     7
 10
998.5231156620609454
 20
136.9015224145205138
 30
0.0
 40
3.929719212647643
 50
24.2677031123391806
 51
24.6202199113009002
  0
ARC
  5
CE28
  8
0
  6
CONTINUOUS
 62
     7
 10
1001.6275729929569707
 20
138.4338155005916065
 30
0.0
 40
0.4910059032377169
 50
23.7707214968411904
 51
28.9638279384721891
  0
ARC
  5
CE29
  8
0
  6
CONTINUOUS
 62
     7
 10
1001.9963137404710096
 20
138.6416389526320927
 30
0.0
 40
0.0678237612327207
 50
26.2048976499432911
 51
38.4782030284045575
  0
ARC
  5
CE2A
  8
0
  6
CONTINUOUS
 62
     7
 10
1002.0441363525219458
 20
138.6794683039279903
 30
0.0
 40
0.0068494736707971
 50
39.6619706048024909
 51
54.6270375125267194
  0
ARC
  5
CE2B
  8
0
  6
CONTINUOUS
 62
     7
 10
1002.0471469968620113
 20
138.6836509782947076
 30
0.0
 40
0.0016963969485934
 50
55.7601688066728371
 51
73.3801102074907448
  0
ARC
  5
CE2C
  8
0
  6
CONTINUOUS
 62
     7
 10
1002.0474504772779483
 20
138.68473006690391
 30
0.0
 40
0.0005758636801046
 50
71.6048260419433689
 51
120.078446286958993
  0
ARC
  5
CE2D
  8
0
  6
CONTINUOUS
 62
     7
 10
1002.0476103647630453
 20
138.6845954782941988
 30
0.0
 40
0.0007757087315329
 50
125.3225815432452066
 51
164.189906611308686
  0
ARC
  5
CE2E
  8
0
  6
CONTINUOUS
 62
     7
 10
1002.0495039676729903
 20
138.6839554642994017
 30
0.0
 40
0.0027738475146939
 50
162.1261489511076093
 51
177.6819069274665139
  0
ARC
  5
CE2F
  8
0
  6
CONTINUOUS
 62
     7
 10
1002.0596026661349924
 20
138.6837388274720979
 30
0.0
 40
0.0128744761466411
 50
178.5364291784138118
 51
190.39246194185219
  0
ARC
  5
CE30
  8
0
  6
CONTINUOUS
 62
     7
 10
1002.0889321368240417
 20
138.688339225241009
 30
0.0
 40
0.0425595580775179
 50
189.3614398853968908
 51
192.8852725125852032
  0
ARC
  5
CE31
  8
0
  6
CONTINUOUS
 62
     7
 10
1002.2808220061219799
 20
138.7395714962327986
 30
0.0
 40
0.2411481803997474
 50
194.5845219774579107
 51
197.3418384771534022
  0
ARC
  5
CE32
  8
0
  6
CONTINUOUS
 62
     7
 10
1005.6526137391599605
 20
140.2694199760034905
 30
0.0
 40
3.960450068942432
 50
202.8077508449738104
 51
204.0058441565489034
  0
ARC
  5
CE33
  8
0
  6
CONTINUOUS
 62
     7
 10
1002.7886624594169689
 20
139.0887306036439099
 30
0.0
 40
0.8630219551582655
 50
201.2394110932850992
 51
204.2559167458018123
  0
ARC
  5
CE34
  8
0
  6
CONTINUOUS
 62
     7
 10
1002.5962719368360467
 20
139.0533015626022006
 30
0.0
 40
0.6699358799761712
 50
204.3808713000439923
 51
205.2902346188683111
  0
ARC
  5
CE35
  8
0
  6
CONTINUOUS
 62
     7
 10
1002.0337511574599603
 20
138.7870244162658082
 30
0.0
 40
0.0475771743460223
 50
204.7544265168641004
 51
210.2008343052995087
  0
ARC
  5
CE36
  8
0
  6
CONTINUOUS
 62
     7
 10
1001.9965637045829681
 20
138.7653432164588025
 30
0.0
 40
0.0045310314314207
 50
209.797989253228593
 51
220.0966614272140873
  0
ARC
  5
CE37
  8
0
  6
CONTINUOUS
 62
     7
 10
1001.9933865479670203
 20
138.7626597433491895
 30
0.0
 40
0.0003723233931508
 50
219.1107062637516947
 51
245.4439498263841131
  0
ARC
  5
CE38
  8
0
  6
CONTINUOUS
 62
     7
 10
1001.993258519974006
 20
138.762376004826308
 30
0.0
 40
0.0000610589307859
 50
244.0658709082422035
 51
325.783863745243309
  0
ARC
  5
CE39
  8
0
  6
CONTINUOUS
 62
     7
 10
1001.9931238453150399
 20
138.7624542414546909
 30
0.0
 40
0.0002166991907948
 50
328.7023307225925919
 51
359.7724246343053096
  0
ARC
  5
CE3A
  8
0
  6
CONTINUOUS
 62
     7
 10
1001.9921060029979571
 20
138.7625336059419112
 30
0.0
 40
0.0012371437256238
 50
356.2819250669800226
 51
6.8049152969963664
  0
ARC
  5
CE3B
  8
0
  6
CONTINUOUS
 62
     7
 10
1001.9889834009560445
 20
138.7622112400661933
 30
0.0
 40
0.0043762294757726
 50
6.1515913402709019
 51
10.8986750431362207
  0
ARC
  5
CE3C
  8
0
  6
CONTINUOUS
 62
     7
 10
1001.9837166004340361
 20
138.7612295278177044
 30
0.0
 40
0.009733700140982
 50
10.7114705969198507
 51
12.9070837440495207
  0
ARC
  5
CE3D
  8
0
  6
CONTINUOUS
 62
     7
 10
1001.8937223784839716
 20
138.736412775559387
 30
0.0
 40
0.1030785057405386
 50
15.1797870776132804
 51
19.8887118901751911
  0
ARC
  5
CE3E
  8
0
  6
CONTINUOUS
 62
     7
 10
1001.3823560677930118
 20
138.5588575208520865
 30
0.0
 40
0.6443857532285451
 50
19.2663901493224117
 51
20.5953453620645206
  0
ARC
  5
CE3F
  8
0
  6
CONTINUOUS
 62
     7
 10
998.7068189211158824
 20
137.551169387661389
 30
0.0
 40
3.5034063938457418
 50
20.6300639934182506
 51
22.0515231317578291
  0
ARC
  5
CE40
  8
0
  6
CONTINUOUS
 62
     7
 10
1001.8966082692760438
 20
138.867720517407804
 30
0.0
 40
0.0121376424785635
 50
120.8231364615551939
 51
192.923619860419592
  0
ARC
  5
CE41
  8
0
  6
CONTINUOUS
 62
     7
 10
1001.9352515078569468
 20
138.7707785356462864
 30
0.0
 40
0.0120011520134211
 50
212.1667304085721071
 51
289.9877424153826269
  0
ARC
  5
CE42
  8
0
  6
CONTINUOUS
 62
     7
 10
1001.9487510443940437
 20
138.7797958010883121
 30
0.0
 40
0.0282327240505552
 50
204.1139160848869949
 51
213.0722681299390899
  0
ARC
  5
CE43
  8
0
  6
CONTINUOUS
 62
     7
 10
1001.9224669961849941
 20
138.8731185524754892
 30
0.0
 40
0.0385521598770561
 50
192.1477217476758028
 51
198.3872312017219031
  0
ARC
  5
CE44
  8
0
  6
CONTINUOUS
 62
     7
 10
1003.0536816816170358
 20
139.2745619185346868
 30
0.0
 40
1.2388793378067151
 50
199.5028331105908137
 51
204.1217108411653101
  0
ARC
  5
CE45
  8
0
  6
CONTINUOUS
 62
     7
 10
1002.1616660171849844
 20
138.8084765295037073
 30
0.0
 40
0.0481792038408281
 50
202.1188234358806994
 51
215.3952138960931109
  0
ARC
  5
CE46
  8
0
  6
CONTINUOUS
 62
     7
 10
1002.1774016019850251
 20
138.8160984861881957
 30
0.0
 40
0.0656364463661797
 50
179.7869380743684928
 51
203.1106222800403032
  0
ARC
  5
CE47
  8
0
  6
CONTINUOUS
 62
     7
 10
1002.1280882404449812
 20
138.8161267481156074
 30
0.0
 40
0.0163240576842568
 50
152.4744549805687086
 51
179.2424881886250034
  0
ARC
  5
CE48
  8
0
  6
CONTINUOUS
 62
     7
 10
1002.1190358312529725
 20
138.8206071520274065
 30
0.0
 40
0.0062292950605907
 50
134.1683988685963129
 51
150.5400406090936087
  0
ARC
  5
CE49
  8
0
  6
CONTINUOUS
 62
     7
 10
1002.1176374840810013
 20
138.8220259983229994
 30
0.0
 40
0.0042372624455811
 50
115.627262414768694
 51
133.9734327949248893
  0
ARC
  5
CE4A
  8
0
  6
CONTINUOUS
 62
     7
 10
1002.11739399550504
 20
138.8224703933404953
 30
0.0
 40
0.0037313716373266
 50
91.3810731549794326
 51
115.2076268155558978
  0
ARC
  5
CE4B
  8
0
  6
CONTINUOUS
 62
     7
 10
1002.1173318741720095
 20
138.8210204237834944
 30
0.0
 40
0.0051803319119119
 50
64.5233408809513094
 51
90.3076087918585131
  0
ARC
  5
CE4C
  8
0
  6
CONTINUOUS
 62
     7
 10
1002.1134443538779806
 20
138.8137386305440089
 30
0.0
 40
0.013431542188203
 50
38.2919118209300535
 51
62.913738280718448
  0
ARC
  5
CE4D
  8
0
  6
CONTINUOUS
 62
     7
 10
1002.0921777472650547
 20
138.7964828165634117
 30
0.0
 40
0.0408174469340609
 50
22.659225773544879
 51
38.804586430556661
  0
ARC
  5
CE4E
  8
0
  6
CONTINUOUS
 62
     7
 10
1002.0676281889800521
 20
138.7853238350446077
 30
0.0
 40
0.0677762818785928
 50
5.1682949663866937
 51
23.3693044291398699
  0
ARC
  5
CE4F
  8
0
  6
CONTINUOUS
 62
     7
 10
1002.0930791567450342
 20
138.7877011456581045
 30
0.0
 40
0.0422147025328294
 50
355.439073415702012
 51
5.0665225510254768
  0
ARC
  5
CE50
  8
0
  6
CONTINUOUS
 62
     7
 10
1002.1194588151560083
 20
138.7850053273450897
 30
0.0
 40
0.0157152742541901
 50
329.6331478514778723
 51
357.5891576426724896
  0
ARC
  5
CE51
  8
0
  6
CONTINUOUS
 62
     7
 10
1002.1295819757680192
 20
138.7792300853811867
 30
0.0
 40
0.0040635954670002
 50
280.4261782282150079
 51
327.7336489713978267
  0
ARC
  5
CE52
  8
0
  6
CONTINUOUS
 62
     7
 10
1002.1299253210750067
 20
138.7811465778848117
 30
0.0
 40
0.0059259754917919
 50
226.4798713211710037
 51
273.7932173640252813
  0
ARC
  5
CE53
  8
0
  6
CONTINUOUS
 62
     7
 10
1002.1387479325660479
 20
138.7922866327365909
 30
0.0
 40
0.0201196738647816
 50
215.6140244764505951
 51
230.1091446401609915
  0
ARC
  5
CE54
  8
0
  6
CONTINUOUS
 62
     7
 10
1002.126128669892978
 20
138.8467180996734101
 30
0.0
 40
0.0244994133883313
 50
121.6226288437920999
 51
154.5832957201616011
  0
ARC
  5
CE55
  8
0
  6
CONTINUOUS
 62
     7
 10
1002.1585814146690154
 20
138.8346559972812884
 30
0.0
 40
0.0590660764910141
 50
157.5277146730763889
 51
185.8595243224050932
  0
ARC
  5
CE56
  8
0
  6
CONTINUOUS
 62
     7
 10
1002.238717492219962
 20
138.8380718231705089
 30
0.0
 40
0.1392143715422276
 50
183.8905801615055964
 51
197.4165977292520893
  0
ARC
  5
CE57
  8
0
  6
CONTINUOUS
 62
     7
 10
1002.2551489565089469
 20
138.8418586451259955
 30
0.0
 40
0.1560314318171854
 50
196.9373837920657024
 51
203.2853467653577866
  0
ARC
  5
CE58
  8
0
  6
CONTINUOUS
 62
     7
 10
1002.1477493611730551
 20
138.7632909849889984
 30
0.0
 40
0.0199102338330024
 50
246.599335056877095
 51
291.2723272989638872
  0
ARC
  5
CE59
  8
0
  6
CONTINUOUS
 62
     7
 10
1002.1545463433440091
 20
138.7775497752568015
 30
0.0
 40
0.035700348095616
 50
219.3144222693966867
 51
245.6765850814325063
  0
ARC
  5
CE5A
  8
0
  6
CONTINUOUS
 62
     7
 10
1002.1917994522630124
 20
138.8099365516800106
 30
0.0
 40
0.0850542692381206
 50
206.1260888002551042
 51
220.2941842094961089
  0
ARC
  5
CE5B
  8
0
  6
CONTINUOUS
 62
     7
 10
1002.2535635850069866
 20
138.8419575794301863
 30
0.0
 40
0.1546159677665615
 50
203.5512638478174097
 51
206.7010924603816875
  0
ARC
  5
CE5C
  8
0
  6
CONTINUOUS
 62
     7
 10
1002.1907718186220109
 20
138.8847164084507142
 30
0.0
 40
0.0325497630437715
 50
138.0532396118591123
 51
162.83274934800869
  0
ARC
  5
CE5D
  8
0
  6
CONTINUOUS
 62
     7
 10
1002.1749310382630256
 20
138.8996850457862138
 30
0.0
 40
0.010776060556993
 50
79.3837379895465034
 51
140.9498703077092046
  0
ARC
  5
CE5E
  8
0
  6
CONTINUOUS
 62
     7
 10
1002.1587486254790065
 20
138.8695208033377924
 30
0.0
 40
0.0446217916134029
 50
30.8789333564372512
 51
65.9741744133155521
  0
ARC
  5
CE5F
  8
0
  6
CONTINUOUS
 62
     7
 10
1002.0779656989369641
 20
138.8143338645319034
 30
0.0
 40
0.1423998572503067
 50
17.9843506865456106
 51
33.2553466259520434
  0
ARC
  5
CE60
  8
0
  6
CONTINUOUS
 62
     7
 10
1002.0216983729919775
 20
138.7949891298029002
 30
0.0
 40
0.2018934480456595
 50
7.0997488941286671
 51
18.2757000792999698
  0
ARC
  5
CE61
  8
0
  6
CONTINUOUS
 62
     7
 10
1002.0679432138290395
 20
138.7994617427465869
 30
0.0
 40
0.1554556368159016
 50
353.5494652429269991
 51
7.5705652003127479
  0
ARC
  5
CE62
  8
0
  6
CONTINUOUS
 62
     7
 10
1002.1809731777240131
 20
138.7848440872454887
 30
0.0
 40
0.0415391999937151
 50
325.390399386847605
 51
356.0699049398332932
  0
ARC
  5
CE63
  8
0
  6
CONTINUOUS
 62
     7
 10
1002.2092472754669643
 20
138.7671301455675064
 30
0.0
 40
0.0083396097502732
 50
268.1439219565064036
 51
315.1691251896348263
  0
ARC
  5
CE64
  8
0
  6
CONTINUOUS
 62
     7
 10
1002.2085979937139655
 20
138.7749210231685026
 30
0.0
 40
0.0161305689381876
 50
241.0291137518939877
 51
271.3469361210579223
  0
ARC
  5
CE65
  8
0
  6
CONTINUOUS
 62
     7
 10
1002.2130019184160119
 20
138.7844677998793941
 30
0.0
 40
0.0266269992043121
 50
236.6376694831774898
 51
242.6889847925000083
  0
ARC
  5
CE66
  8
0
  6
CONTINUOUS
 62
     7
 10
1002.0259508558469861
 20
139.0548447501527107
 30
0.0
 40
0.0613623402276769
 50
169.5706045106138049
 51
186.0090619034903909
  0
ARC
  5
CE67
  8
0
  6
CONTINUOUS
 62
     7
 10
1001.9762639045479773
 20
139.0636678827021058
 30
0.0
 40
0.0109036976825933
 50
140.2498777986295124
 51
167.9038134827619047
  0
ARC
  5
CE68
  8
0
  6
CONTINUOUS
 62
     7
 10
1001.9649924818379532
 20
139.0562041047818127
 30
0.0
 40
0.0170187722636943
 50
39.0456164154279008
 51
61.9676462259932066
  0
ARC
  5
CE69
  8
0
  6
CONTINUOUS
 62
     7
 10
1001.9706279846519692
 20
139.0680835760591094
 30
0.0
 40
0.0037528177638483
 50
80.7996864792319798
 51
137.0592876420159882
  0
ARC
  5
CE6A
  8
0
  6
CONTINUOUS
 62
     7
 10
1001.9702485168439807
 20
139.0656686303094887
 30
0.0
 40
0.006197378720822
 50
63.73713380053983
 51
80.9062952665643138
  0
ARC
  5
CE6B
  8
0
  6
CONTINUOUS
 62
     7
 10
1001.8603709101009827
 20
138.978410709778899
 30
0.0
 40
0.1473798372188866
 50
18.3873435441185897
 51
36.9118370778887126
  0
ARC
  5
CE6C
  8
0
  6
CONTINUOUS
 62
     7
 10
1001.6000896170160104
 20
138.8728050219447994
 30
0.0
 40
0.4280681537417796
 50
10.6137318506524494
 51
20.8121874876049517
  0
ARC
  5
CE6D
  8
0
  6
CONTINUOUS
 62
     7
 10
1001.8657331999329472
 20
138.918968815200401
 30
0.0
 40
0.1585064882186487
 50
359.2001981369044188
 51
11.8985448532685094
  0
ARC
  5
CE6E
  8
0
  6
CONTINUOUS
 62
     7
 10
1001.9993811630249638
 20
138.9172650194736889
 30
0.0
 40
0.0248482909274994
 50
341.2108577954151087
 51
358.8268264337472147
  0
ARC
  5
CE6F
  8
0
  6
CONTINUOUS
 62
     7
 10
1002.0187551192169622
 20
138.9101612643258079
 30
0.0
 40
0.0042465444932999
 50
277.2490146294068722
 51
347.7704759168072997
  0
ARC
  5
CE70
  8
0
  6
CONTINUOUS
 62
     7
 10
1002.020564954297015
 20
138.9141427740408972
 30
0.0
 40
0.0082925595541681
 50
219.9613838031935131
 51
261.1625657252071164
  0
ARC
  5
CE71
  8
0
  6
CONTINUOUS
 62
     7
 10
1002.0444544704359942
 20
138.9386203888074931
 30
0.0
 40
0.042462390779652
 50
209.443726662218495
 51
224.5783801523097907
  0
ARC
  5
CE72
  8
0
  6
CONTINUOUS
 62
     7
 10
1001.9445885441659811
 20
138.8765159174303108
 30
0.0
 40
0.0128834097680281
 50
227.8266685955300943
 51
292.9651077201833118
  0
ARC
  5
CE73
  8
0
  6
CONTINUOUS
 62
     7
 10
1001.9617314712990037
 20
138.8943421534393963
 30
0.0
 40
0.0376113020846753
 50
206.421013313043801
 51
226.7041564961425877
  0
ARC
  5
CE74
  8
0
  6
CONTINUOUS
 62
     7
 10
1002.3083461831920431
 20
139.078234517493911
 30
0.0
 40
0.4299741440267763
 50
200.8460687742299058
 51
207.8141355416971976
  0
ARC
  5
CE75
  8
0
  6
CONTINUOUS
 62
     7
 10
1002.8911910572910529
 20
139.3173353491175988
 30
0.0
 40
1.0598733323276801
 50
198.9896812374313129
 51
201.7131530618958948
  0
ARC
  5
CE76
  8
0
  6
CONTINUOUS
 62
     7
 10
1002.7407453698219797
 20
139.2694167992877112
 30
0.0
 40
0.9020300881133033
 50
196.7136499377014047
 51
199.2211451298337863
  0
ARC
  5
CE77
  8
0
  6
CONTINUOUS
 62
     7
 10
1002.1496165725510537
 20
139.1026535574169998
 30
0.0
 40
0.2880984902146442
 50
187.9880123893476878
 51
198.7592818877969023
  0
ARC
  5
CE78
  8
0
  6
CONTINUOUS
 62
     7
 10
1001.8993962304359684
 20
139.0674954392061977
 30
0.0
 40
0.0354202432366991
 50
172.2246635445428922
 51
187.9154030645684941
  0
ARC
  5
CE79
  8
0
  6
CONTINUOUS
 62
     7
 10
1001.8796319827509933
 20
139.0700168772993948
 30
0.0
 40
0.0154975768843399
 50
148.5436986798555097
 51
171.5753295907011022
  0
ARC
  5
CE7A
  8
0
  6
CONTINUOUS
 62
     7
 10
1001.8773853259980342
 20
139.0714713950789871
 30
0.0
 40
0.0128222371491808
 50
120.7829938996379013
 51
148.8491019506500095
  0
ARC
  5
CE7B
  8
0
  6
CONTINUOUS
 62
     7
 10
1001.8396612934419636
 20
138.9750335685166078
 30
0.0
 40
0.0565501282233725
 50
25.778879525758871
 51
29.53368591364476
  0
ARC
  5
CE7C
  8
0
  6
CONTINUOUS
 62
     7
 10
1001.5202107616939884
 20
138.8386880921455884
 30
0.0
 40
0.4040143283491988
 50
14.7630156917901108
 51
22.1916181171854383
  0
ARC
  5
CE7D
  8
0
  6
CONTINUOUS
 62
     7
 10
1001.7495009212619834
 20
138.9317980263840013
 30
0.0
 40
0.1565410123640194
 50
22.3348098814645297
 51
25.677139637052619
  0
ARC
  5
CE7E
  8
0
  6
CONTINUOUS
 62
     7
 10
1001.9120821884449697
 20
138.9310974448889056
 30
0.0
 40
0.0003746130614307
 50
231.1995521947395957
 51
345.4869159911769998
  0
ARC
  5
CE7F
  8
0
  6
CONTINUOUS
 62
     7
 10
1001.9367930676910419
 20
138.9498471100064876
 30
0.0
 40
0.031552368286473
 50
205.2949633506082989
 51
215.7250612576121114
  0
ARC
  5
CE80
  8
0
  6
CONTINUOUS
 62
     7
 10
1002.1721138758910001
 20
139.0599099196905115
 30
0.0
 40
0.2913399512702834
 50
198.9780019609524118
 51
205.0909259847844055
  0
ARC
  5
CE81
  8
0
  6
CONTINUOUS
 62
     7
 10
1002.1725618594109619
 20
139.0655115002954005
 30
0.0
 40
0.2936304379163253
 50
193.0637257247273908
 51
199.9832427614832966
  0
ARC
  5
CE82
  8
0
  6
CONTINUOUS
 62
     7
 10
1001.916065120607982
 20
139.0056829191352961
 30
0.0
 40
0.0302502093653978
 50
182.1985567545916922
 51
192.4897631872752868
  0
ARC
  5
CE83
  8
0
  6
CONTINUOUS
 62
     7
 10
1001.8901254410069441
 20
139.004502915019998
 30
0.0
 40
0.0042883065256875
 50
169.2404177752661099
 51
179.7391097359426055
  0
ARC
  5
CE84
  8
0
  6
CONTINUOUS
 62
     7
 10
1001.8767755526030214
 20
138.9964316942541132
 30
0.0
 40
0.0137141837638982
 50
28.1847083982338695
 51
41.4963486235188412
  0
ARC
  5
CE85
  8
0
  6
CONTINUOUS
 62
     7
 10
1001.9131740870800513
 20
138.9329135642194046
 30
0.0
 40
0.0024907648339698
 50
216.7351127474952079
 51
237.8172496255135968
  0
ARC
  5
CE86
  8
0
  6
CONTINUOUS
 62
     7
 10
1001.8457663455590136
 20
138.9245905994609132
 30
0.0
 40
0.0673162309131073
 50
7.265777976895885
 51
14.6710084442185895
  0
ARC
  5
CE87
  8
0
  6
CONTINUOUS
 62
     7
 10
1001.907294814688953
 20
138.932294418930212
 30
0.0
 40
0.0053093446710823
 50
345.9287450202957075
 51
8.7732883409715239
  0
ARC
  5
CE88
  8
0
  6
CONTINUOUS
 62
     7
 10
1001.885926753507988
 20
139.0044554756499053
 30
0.0
 40
0.0015445457557222
 50
43.4827160891314506
 51
66.7820130897548836
  0
ARC
  5
CE89
  8
0
  6
CONTINUOUS
 62
     7
 10
1001.8863883432070452
 20
139.0055554397316939
 30
0.0
 40
0.0003518198500917
 50
65.245023686190649
 51
130.1761798561742864
  0
ARC
  5
CE8A
  8
0
  6
CONTINUOUS
 62
     7
 10
1001.8867789521119676
 20
139.005209308253086
 30
0.0
 40
0.0008715297396285
 50
135.1225534578057079
 51
173.7961022301300886
  0
ARC
  5
CE8B
  8
0
  6
CONTINUOUS
 62
     7
 10
1001.6734111264800049
 20
138.8175953349748966
 30
0.0
 40
0.3065977634598282
 50
9.6059637220474201
 51
16.1193458048106599
  0
ARC
  5
CE8C
  8
0
  6
CONTINUOUS
 62
     7
 10
1001.9453007415089587
 20
138.862962955479901
 30
0.0
 40
0.0309564419351502
 50
355.4399264431813776
 51
10.7889039976652601
  0
ARC
  5
CE8D
  8
0
  6
CONTINUOUS
 62
     7
 10
1001.9729283944300278
 20
138.8608212682757141
 30
0.0
 40
0.0032465550019515
 50
327.1811770377245239
 51
354.3525656026642991
  0
ARC
  5
CE8E
  8
0
  6
CONTINUOUS
 62
     7
 10
1001.9749366227109704
 20
138.8595612340996013
 30
0.0
 40
0.0008764410253226
 50
260.7995934792551225
 51
325.2516519176106726
  0
ARC
  5
CE8F
  8
0
  6
CONTINUOUS
 62
     7
 10
1001.9753590297250412
 20
138.8612168058220959
 30
0.0
 40
0.0025827442941048
 50
227.9855873607426986
 51
257.4197433958245256
  0
ARC
  5
CE90
  8
0
  6
CONTINUOUS
 62
     7
 10
1001.9766109898870354
 20
138.8633298844306125
 30
0.0
 40
0.0050140992055445
 50
212.7677446615232952
 51
233.5264964207823937
  0
ARC
  5
CE91
  8
0
  6
CONTINUOUS
 62
     7
 10
1002.0933566102789882
 20
138.9548569941632934
 30
0.0
 40
0.1533398682675898
 50
216.3219137550804021
 51
217.9220240007851999
  0
ARC
  5
CE92
  8
0
  6
CONTINUOUS
 62
     7
 10
1002.0533651475650458
 20
138.917859217523386
 30
0.0
 40
0.0993927808534984
 50
207.8698422266083981
 51
212.7909614962931073
  0
ARC
  5
CE93
  8
0
  6
CONTINUOUS
 62
     7
 10
1001.2540641567079547
 20
138.7824737842580873
 30
0.0
 40
0.7169147690301803
 50
19.8972432551852982
 51
21.3215052440295487
  0
ARC
  5
CE94
  8
0
  6
CONTINUOUS
 62
     7
 10
1001.4662913676199878
 20
138.8786924933837099
 30
0.0
 40
0.4843887399394657
 50
19.8466873560028212
 51
26.7099209568991007
  0
ARC
  5
CE95
  8
0
  6
CONTINUOUS
 62
     7
 10
1001.8308036226540025
 20
139.0636507043512893
 30
0.0
 40
0.0756510851555785
 50
25.6621821683886786
 51
38.2885950969321769
  0
ARC
  5
CE96
  8
0
  6
CONTINUOUS
 62
     7
 10
1001.8850165920340487
 20
139.1064129524760062
 30
0.0
 40
0.006602933555846
 50
38.5273569302820604
 51
65.0501246720592832
  0
ARC
  5
CE97
  8
0
  6
CONTINUOUS
 62
     7
 10
1001.8871832222949934
 20
139.1110955809926111
 30
0.0
 40
0.0014434024896315
 50
64.620520152206808
 51
117.6985199591288023
  0
ARC
  5
CE98
  8
0
  6
CONTINUOUS
 62
     7
 10
1001.8881284430290179
 20
139.1102405427361077
 30
0.0
 40
0.0026761445659308
 50
127.1501362668327033
 51
172.7878724459226873
  0
ARC
  5
CE99
  8
0
  6
CONTINUOUS
 62
     7
 10
1001.9041018586530072
 20
139.1070054540820138
 30
0.0
 40
0.0189675847905587
 50
169.1480570405601895
 51
184.3969758497196096
  0
ARC
  5
CE9A
  8
0
  6
CONTINUOUS
 62
     7
 10
1001.9813926766750001
 20
139.1111414172088132
 30
0.0
 40
0.0963648565267628
 50
183.3256019648462996
 51
191.3619692079975039
  0
ARC
  5
CE9B
  8
0
  6
CONTINUOUS
 62
     7
 10
1001.9241062578839774
 20
138.9753808551496093
 30
0.0
 40
0.0099183514414598
 50
35.1810348897930893
 51
49.2405214549560526
  0
ARC
  5
CE9C
  8
0
  6
CONTINUOUS
 62
     7
 10
1001.8250216429629518
 20
138.9243931507162131
 30
0.0
 40
0.1217184004061138
 50
7.9635428280541394
 51
23.4568685855270616
  0
ARC
  5
CE9D
  8
0
  6
CONTINUOUS
 62
     7
 10
1001.8932114827009627
 20
138.9546391773153005
 30
0.0
 40
0.0471279357958112
 50
22.7238220846731593
 51
34.1506597634984601
  0
ARC
  5
CE9E
  8
0
  6
CONTINUOUS
 62
     7
 10
1001.9442225878250383
 20
138.9347406896179109
 30
0.0
 40
0.00096439509875
 50
243.4028543789405035
 51
315.2335509173117885
  0
ARC
  5
CE9F
  8
0
  6
CONTINUOUS
 62
     7
 10
1001.9539109495480034
 20
138.945529095550711
 30
0.0
 40
0.0156222600214965
 50
210.34596148495379
 51
224.7116574395656983
  0
ARC
  5
CEA0
  8
0
  6
CONTINUOUS
 62
     7
 10
1002.0234553745530093
 20
138.9840910460781913
 30
0.0
 40
0.0951388305684492
 50
197.1065128930758874
 51
209.2277601669046021
  0
ARC
  5
CEA1
  8
0
  6
CONTINUOUS
 62
     7
 10
1002.0262339922960564
 20
138.9880480750317986
 30
0.0
 40
0.0990028751325582
 50
186.1301715783806117
 51
198.8224913601196988
  0
ARC
  5
CEA2
  8
0
  6
CONTINUOUS
 62
     7
 10
1001.9301703926080336
 20
138.9816695951411987
 30
0.0
 40
0.0021373644431855
 50
131.4048212225773113
 51
162.7260473609541975
  0
ARC
  5
CEA3
  8
0
  6
CONTINUOUS
 62
     7
 10
1001.9293467632589909
 20
138.9824157914590046
 30
0.0
 40
0.0010403942342392
 50
84.6196730248935438
 51
124.5457357126193045
  0
ARC
  5
CEA4
  8
0
  6
CONTINUOUS
 62
     7
 10
1001.9290030153980524
 20
138.9811136960684053
 30
0.0
 40
0.002379191312462
 50
48.4264477465832428
 51
79.3106471437296392
  0
ARC
  5
CEA5
  8
0
  6
CONTINUOUS
 62
     7
 10
1001.9453154849829843
 20
138.9372076509424119
 30
0.0
 40
0.0036618117195292
 50
226.8019093843959126
 51
245.3943384500850868
  0
ARC
  5
CEA6
  8
0
  6
CONTINUOUS
 62
     7
 10
1001.9259743376750293
 20
138.9385203782964879
 30
0.0
 40
0.0197820232263691
 50
350.27950700646619
 51
7.9499164084361356
  0
ARC
  5
CEA7
  8
0
  6
CONTINUOUS
 62
     7
 10
1001.9430257118990539
 20
138.9357139508965133
 30
0.0
 40
0.0025041546806856
 50
318.710355267893874
 51
347.6965703477750935
  0
ARC
  5
CEA8
  8
0
  6
CONTINUOUS
 62
     7
 10
1001.9409233539489605
 20
138.9789983717593884
 30
0.0
 40
0.0132141353256806
 50
165.5119180069218032
 51
186.6165338215780878
  0
ARC
  5
CEA9
  8
0
  6
CONTINUOUS
 62
     7
 10
1001.9630840870460133
 20
138.9145213916457067
 30
0.0
 40
0.0127682140117897
 50
248.1344618187991102
 51
292.4537697066874102
  0
ARC
  5
CEAA
  8
0
  6
CONTINUOUS
 62
     7
 10
1001.9667657019309672
 20
138.9232875950604011
 30
0.0
 40
0.0222754414163101
 50
212.2722601473930979
 51
247.7435767482490121
  0
ARC
  5
CEAB
  8
0
  6
CONTINUOUS
 62
     7
 10
1002.0431492506560289
 20
138.9759413673172901
 30
0.0
 40
0.1150340725054575
 50
202.540132219094005
 51
214.1330904687519023
  0
ARC
  5
CEAC
  8
0
  6
CONTINUOUS
 62
     7
 10
1002.2026764899369482
 20
139.0455030992555123
 30
0.0
 40
0.2890569419478531
 50
193.7578642112717091
 51
203.1538905704692013
  0
ARC
  5
CEAD
  8
0
  6
CONTINUOUS
 62
     7
 10
1002.0322863680470391
 20
139.0075884745274095
 30
0.0
 40
0.1145981738597822
 50
179.1038646348428074
 51
195.6056838149505097
  0
ARC
  5
CEAE
  8
0
  6
CONTINUOUS
 62
     7
 10
1001.9409630016250503
 20
139.0086405165957899
 30
0.0
 40
0.023272567040539
 50
152.334931622256704
 51
178.1772155026766882
  0
ARC
  5
CEAF
  8
0
  6
CONTINUOUS
 62
     7
 10
1001.9341087532289976
 20
139.0116108930641019
 30
0.0
 40
0.0158323791013911
 50
124.9626264749320939
 51
150.3381668525769896
  0
ARC
  5
CEB0
  8
0
  6
CONTINUOUS
 62
     7
 10
1001.8560605328759721
 20
139.0359670124977924
 30
0.0
 40
0.0118204050180331
 50
199.1623078477020954
 51
292.964780837016292
  0
ARC
  5
CEB1
  8
0
  6
CONTINUOUS
 62
     7
 10
1005.7468869490520547
 20
140.3803613387177904
 30
0.0
 40
4.128363390954954
 50
196.1552464441753045
 51
199.061816794280503
  0
ARC
  5
CEB2
  8
0
  6
CONTINUOUS
 62
     7
 10
1001.7928041309850187
 20
139.2352555199711048
 30
0.0
 40
0.0118106251966125
 50
121.0069561258556945
 51
197.6137853994576119
  0
ARC
  5
CEB3
  8
0
  6
CONTINUOUS
 62
     7
 10
1001.7370747417249959
 20
139.4072294668455925
 30
0.0
 40
0.0132485881126658
 50
121.3731483062238965
 51
181.3772031635737108
  0
ARC
  5
CEB4
  8
0
  6
CONTINUOUS
 62
     7
 10
1001.7765406700330004
 20
139.3150820228615885
 30
0.0
 40
0.0314292779930364
 50
198.6643332964156059
 51
214.6848930486185054
  0
ARC
  5
CEB5
  8
0
  6
CONTINUOUS
 62
     7
 10
1001.7608201349170258
 20
139.3045603417176892
 30
0.0
 40
0.0125183320349351
 50
216.0308882598197044
 51
267.6899839242615826
  0
ARC
  5
CEB6
  8
0
  6
CONTINUOUS
 62
     7
 10
1001.7612003552369515
 20
139.3004416516058939
 30
0.0
 40
0.008435996966831
 50
263.9795923141592198
 51
291.107667553677004
  0
ARC
  5
CEB7
  8
0
  6
CONTINUOUS
 62
     7
 10
1001.8536897683529787
 20
139.4099217064346021
 30
0.0
 40
0.1298946824566578
 50
181.3281040564062891
 51
192.7493983892842948
  0
ARC
  5
CEB8
  8
0
  6
CONTINUOUS
 62
     7
 10
1002.3762417710529462
 20
139.5055660234822881
 30
0.0
 40
0.6610377898206637
 50
190.8392051342337936
 51
196.0420401792638074
  0
ARC
  5
CEB9
  8
0
  6
CONTINUOUS
 62
     7
 10
1001.9663087038529738
 20
139.386398582641192
 30
0.0
 40
0.2341401177495213
 50
195.7373792683553972
 51
200.3373427895440955
  0
ARC
  5
CEBA
  8
0
  6
CONTINUOUS
 62
     7
 10
1007.264916306178975
 20
140.8883642423215861
 30
0.0
 40
5.6905683427074027
 50
196.1514172779141063
 51
198.5169141906891923
  0
ARC
  5
CEBB
  8
0
  6
CONTINUOUS
 62
     7
 10
1001.8907175735699866
 20
139.3359512820005079
 30
0.0
 40
0.0864696202463571
 50
198.2281741231589933
 51
206.1590281494003136
  0
ARC
  5
CEBC
  8
0
  6
CONTINUOUS
 62
     7
 10
1001.8225572782420159
 20
139.3026070750593135
 30
0.0
 40
0.0105911426305045
 50
206.811136785246191
 51
220.3829631699699974
  0
ARC
  5
CEBD
  8
0
  6
CONTINUOUS
 62
     7
 10
1001.8153939074139771
 20
139.2965140478588069
 30
0.0
 40
0.0011869487837579
 50
220.3760983009561016
 51
250.6813924380529102
  0
ARC
  5
CEBE
  8
0
  6
CONTINUOUS
 62
     7
 10
1001.8150770414570161
 20
139.2958327751751142
 30
0.0
 40
0.00044534173218
 50
260.1999875874219015
 51
342.7092526261641865
  0
ARC
  5
CEBF
  8
0
  6
CONTINUOUS
 62
     7
 10
1001.8097770866760357
 20
139.2977471263230882
 30
0.0
 40
0.0060804324207593
 50
340.1299396429163835
 51
0.8674060345492017
  0
ARC
  5
CEC0
  8
0
  6
CONTINUOUS
 62
     7
 10
1001.6701953106739893
 20
139.2912829897315987
 30
0.0
 40
0.1458089830551054
 50
2.5771281858633999
 51
10.0945425443145904
  0
ARC
  5
CEC1
  8
0
  6
CONTINUOUS
 62
     7
 10
1000.2368603025070115
 20
139.0350325553933999
 30
0.0
 40
1.60186991196432
 50
10.1324134225174092
 51
13.2441020458678
  0
ARC
  5
CEC2
  8
0
  6
CONTINUOUS
 62
     7
 10
1001.7313739598309894
 20
139.3755539747552916
 30
0.0
 40
0.000328746373494
 50
126.6193933696732046
 51
168.0866655253784074
  0
ARC
  5
CEC3
  8
0
  6
CONTINUOUS
 62
     7
 10
1001.7312500385239673
 20
139.3756805855568075
 30
0.0
 40
0.0001550667947427
 50
50.8740741054729071
 51
117.7389048365426021
  0
ARC
  5
CEC4
  8
0
  6
CONTINUOUS
 62
     7
 10
1001.730863191928961
 20
139.3751125070585033
 30
0.0
 40
0.0008418965590651
 50
35.7804021014194831
 51
54.8498280572790691
  0
ARC
  5
CEC5
  8
0
  6
CONTINUOUS
 62
     7
 10
1001.724647750059944
 20
139.3710588426444872
 30
0.0
 40
0.0082615829638829
 50
19.0945857554411589
 51
33.3839048704730388
  0
ARC
  5
CEC6
  8
0
  6
CONTINUOUS
 62
     7
 10
1001.710267339176994
 20
139.363755294138997
 30
0.0
 40
0.0243393818677123
 50
13.9453405983989001
 51
24.27454445320895
  0
ARC
  5
CEC7
  8
0
  6
CONTINUOUS
 62
     7
 10
1001.5647045688619983
 20
139.3169126915643119
 30
0.0
 40
0.177205115495388
 50
15.3268186846337393
 51
17.3040471441903385
  0
ARC
  5
CEC8
  8
0
  6
CONTINUOUS
 62
     7
 10
1001.3266377981959749
 20
139.2530482108618912
 30
0.0
 40
0.4236878027223594
 50
13.0798742338481393
 51
15.1464447258633204
  0
ARC
  5
CEC9
  8
0
  6
CONTINUOUS
 62
     7
 10
1001.4594371236339612
 20
139.2829629692431865
 30
0.0
 40
0.2875653582899236
 50
9.6740281255540541
 51
13.2621971024583907
  0
ARC
  5
CECA
  8
0
  6
CONTINUOUS
 62
     7
 10
1001.7042493267549617
 20
139.3240575536754022
 30
0.0
 40
0.039333833009437
 50
2.45529964662345
 51
10.5898035301400792
  0
ARC
  5
CECB
  8
0
  6
CONTINUOUS
 62
     7
 10
1001.7387289673099531
 20
139.3744216189327858
 30
0.0
 40
0.0077699314634833
 50
171.1139537629632912
 51
184.9770120098957022
  0
ARC
  5
CECC
  8
0
  6
CONTINUOUS
 62
     7
 10
1001.8012472883269766
 20
139.3796601072353951
 30
0.0
 40
0.0705073013997883
 50
184.8103386904527952
 51
190.3424738217175047
  0
ARC
  5
CECD
  8
0
  6
CONTINUOUS
 62
     7
 10
1001.9521093855789786
 20
139.4050713110202082
 30
0.0
 40
0.2234900736344744
 50
189.8076381489183007
 51
191.95537147611671
  0
ARC
  5
CECE
  8
0
  6
CONTINUOUS
 62
     7
 10
1002.0766386092619769
 20
139.4310948492527018
 30
0.0
 40
0.3507090960576254
 50
191.9002945398461009
 51
194.6760013122786859
  0
ARC
  5
CECF
  8
0
  6
CONTINUOUS
 62
     7
 10
1001.9078121110139818
 20
139.385557268766604
 30
0.0
 40
0.1758583187176775
 50
194.2592236004358881
 51
198.3337820332421018
  0
ARC
  5
CED0
  8
0
  6
CONTINUOUS
 62
     7
 10
1001.3134308800849794
 20
139.1681820728774994
 30
0.0
 40
0.4571389433309449
 50
20.1319893800318006
 51
20.7631818112116306
  0
ARC
  5
CED1
  8
0
  6
CONTINUOUS
 62
     7
 10
1001.7453525666810492
 20
139.3267415052459057
 30
0.0
 40
0.0029744197738196
 50
204.2054738061169985
 51
219.7497901345116986
  0
ARC
  5
CED2
  8
0
  6
CONTINUOUS
 62
     7
 10
1001.7403300735410312
 20
139.3256071429906058
 30
0.0
 40
0.0032198268455932
 50
347.7569506057274111
 51
2.4113576084472239
  0
ARC
  5
CED3
  8
0
  6
CONTINUOUS
 62
     7
 10
1001.7430980898450343
 20
139.3249930394281932
 30
0.0
 40
0.0003847626290184
 50
315.3748197082881006
 51
349.7160911740509732
  0
ARC
  5
CED4
  8
0
  6
CONTINUOUS
 62
     7
 10
1001.7434686950559808
 20
139.3251680075534011
 30
0.0
 40
0.0005198902833258
 50
219.1812373913467979
 51
241.1428504600353904
  0
ARC
  5
CED5
  8
0
  6
CONTINUOUS
 62
     7
 10
1001.7432875971910562
 20
139.32482870830259
 30
0.0
 40
0.0001354182342423
 50
238.9654741526763075
 51
308.5189667189088141
  0
ARC
  5
CED6
  8
0
  6
CONTINUOUS
 62
     7
 10
1001.8069565631740261
 20
139.4119541463047938
 30
0.0
 40
0.0146964028233462
 50
222.521905222494297
 51
290.0059740719740944
  0
ARC
  5
CED7
  8
0
  6
CONTINUOUS
 62
     7
 10
1001.800053169469038
 20
139.5105377465397964
 30
0.0
 40
0.0220546805807811
 50
123.2489378335074974
 51
167.1591338793784871
  0
ARC
  5
CED8
  8
0
  6
CONTINUOUS
 62
     7
 10
1001.9403458884939937
 20
139.4856048657916858
 30
0.0
 40
0.1645235059240256
 50
169.5522827155241998
 51
186.9048804590119062
  0
ARC
  5
CED9
  8
0
  6
CONTINUOUS
 62
     7
 10
1002.0154754002960544
 20
139.4907149944457103
 30
0.0
 40
0.2397551489908546
 50
185.9587043604412031
 51
196.1686343354288908
  0
ARC
  5
CEDA
  8
0
  6
CONTINUOUS
 62
     7
 10
1001.8451297008009533
 20
139.4391557053185124
 30
0.0
 40
0.0618249331047359
 50
194.236428147247608
 51
213.5455780886169066
  0
ARC
  5
CEDB
  8
0
  6
CONTINUOUS
 62
     7
 10
1001.8120146118169487
 20
139.4180767765815858
 30
0.0
 40
0.0225888977570009
 50
215.4006715137045092
 51
225.2976247159110983
  0
ARC
  5
CEDC
  8
0
  6
CONTINUOUS
 62
     7
 10
1001.8916991006390163
 20
139.4323337139238959
 30
0.0
 40
0.0461945541171811
 50
205.2533209936001128
 51
214.6058590885727995
  0
ARC
  5
CEDD
  8
0
  6
CONTINUOUS
 62
     7
 10
1001.8649464474769957
 20
139.4134623434117941
 30
0.0
 40
0.0134617178427353
 50
213.1626971359036986
 51
238.5688156809989948
  0
ARC
  5
CEDE
  8
0
  6
CONTINUOUS
 62
     7
 10
1001.8597725172160153
 20
139.4051417932469121
 30
0.0
 40
0.0036647792496364
 50
239.7538597737409987
 51
301.0000619795280841
  0
ARC
  5
CEDF
  8
0
  6
CONTINUOUS
 62
     7
 10
1001.8571844970659868
 20
139.4086049886157923
 30
0.0
 40
0.0079780968718678
 50
304.1233253361413063
 51
334.1924679573355093
  0
ARC
  5
CEE0
  8
0
  6
CONTINUOUS
 62
     7
 10
1001.832320457316996
 20
139.4209588257328107
 30
0.0
 40
0.0357417071530188
 50
333.7161343147482171
 51
348.8218750161377102
  0
ARC
  5
CEE1
  8
0
  6
CONTINUOUS
 62
     7
 10
1001.7657022969150376
 20
139.4359556829070073
 30
0.0
 40
0.1040188951704684
 50
347.8315758971593255
 51
353.0121292448508257
  0
ARC
  5
CEE2
  8
0
  6
CONTINUOUS
 62
     7
 10
1001.5930218180490101
 20
139.4539027028820044
 30
0.0
 40
0.2776184911180333
 50
353.6714287224043005
 51
0.6250021094509063
  0
ARC
  5
CEE3
  8
0
  6
CONTINUOUS
 62
     7
 10
1001.391518820714964
 20
139.4550545081467874
 30
0.0
 40
0.4791086462091946
 50
0.2244071292391133
 51
3.321039354865134
  0
ARC
  5
CEE4
  8
0
  6
CONTINUOUS
 62
     7
 10
1001.4545983682289716
 20
139.4616439614885053
 30
0.0
 40
0.4157635858432226
 50
2.9180631729990352
 51
10.8609825963038595
  0
ARC
  5
CEE5
  8
0
  6
CONTINUOUS
 62
     7
 10
1001.7061017818430173
 20
139.5097343935082961
 30
0.0
 40
0.1597038481553006
 50
10.9187285341656697
 51
20.1613593993925697
  0
ARC
  5
CEE6
  8
0
  6
CONTINUOUS
 62
     7
 10
1001.8147658661749801
 20
139.5505398099884928
 30
0.0
 40
0.0436421992580623
 50
19.0422592258163093
 51
38.6107757525673492
  0
ARC
  5
CEE7
  8
0
  6
CONTINUOUS
 62
     7
 10
1001.8428529482270051
 20
139.5729350181647987
 30
0.0
 40
0.0077197093222054
 50
38.8141377385440265
 51
88.4464780601839351
  0
ARC
  5
CEE8
  8
0
  6
CONTINUOUS
 62
     7
 10
1001.8439201387129742
 20
139.5740713383206071
 30
0.0
 40
0.0066362382870135
 50
97.4277312855333975
 51
140.7567484233782125
  0
ARC
  5
CEE9
  8
0
  6
CONTINUOUS
 62
     7
 10
1001.8557123004250116
 20
139.5639294618287067
 30
0.0
 40
0.0221882847514761
 50
139.7375608824033861
 51
159.618972461575197
  0
ARC
  5
CEEA
  8
0
  6
CONTINUOUS
 62
     7
 10
1001.8975025440629452
 20
139.5476272073213124
 30
0.0
 40
0.0670437490888485
 50
158.9970225373423887
 51
170.5304939009812131
  0
ARC
  5
CEEB
  8
0
  6
CONTINUOUS
 62
     7
 10
1001.9455643243139775
 20
139.5378199281690001
 30
0.0
 40
0.116077566303517
 50
169.6585736122925141
 51
172.7813812483543927
  0
ARC
  5
CEEC
  8
0
  6
CONTINUOUS
 62
     7
 10
1001.897045178429039
 20
139.471310233207106
 30
0.0
 40
0.1147053494717403
 50
180.8778570287269076
 51
196.8156223977055106
  0
ARC
  5
CEED
  8
0
  6
CONTINUOUS
 62
     7
 10
1001.8074796696810154
 20
139.4437709917488917
 30
0.0
 40
0.0210075409452195
 50
195.5854098744414955
 51
215.2160067364063991
  0
ARC
  5
CEEE
  8
0
  6
CONTINUOUS
 62
     7
 10
1001.7922716090570248
 20
139.4328817683532975
 30
0.0
 40
0.0023068826374937
 50
212.0742961899692034
 51
260.2327798465544788
  0
ARC
  5
CEEF
  8
0
  6
CONTINUOUS
 62
     7
 10
1001.7918973515610332
 20
139.4320360704232939
 30
0.0
 40
0.001427849054197
 50
269.3139968591788147
 51
335.7822190748786966
  0
ARC
  5
CEF0
  8
0
  6
CONTINUOUS
 62
     7
 10
1001.7774131481539825
 20
139.4388690562807938
 30
0.0
 40
0.0174426844641602
 50
334.829168288993003
 51
357.3578325388148755
  0
ARC
  5
CEF1
  8
0
  6
CONTINUOUS
 62
     7
 10
1001.7041537399469462
 20
139.4453448089550136
 30
0.0
 40
0.0909752827563223
 50
355.4102931654534245
 51
5.6306729607947039
  0
ARC
  5
CEF2
  8
0
  6
CONTINUOUS
 62
     7
 10
1001.6797580509489762
 20
139.4457368965076114
 30
0.0
 40
0.1152484188597318
 50
4.246573870288068
 51
15.1116668797478599
  0
ARC
  5
CEF3
  8
0
  6
CONTINUOUS
 62
     7
 10
1001.7640180248099568
 20
139.4690648017397052
 30
0.0
 40
0.0278261073611226
 50
13.9697397130929595
 51
30.0625264826759597
  0
ARC
  5
CEF4
  8
0
  6
CONTINUOUS
 62
     7
 10
1001.7836955258579792
 20
139.4804783375261934
 30
0.0
 40
0.0050781301412874
 50
29.8274287330762284
 51
55.8929107632664497
  0
ARC
  5
CEF5
  8
0
  6
CONTINUOUS
 62
     7
 10
1001.7858248908610221
 20
139.4835670887570132
 30
0.0
 40
0.0013270134078682
 50
57.2360033554018628
 51
118.4300605167586014
  0
ARC
  5
CEF6
  8
0
  6
CONTINUOUS
 62
     7
 10
1001.7869606490660317
 20
139.482081824205892
 30
0.0
 40
0.003187245412548
 50
123.6806611439927934
 51
161.8179925633660048
  0
ARC
  5
CEF7
  8
0
  6
CONTINUOUS
 62
     7
 10
1001.7981277147630408
 20
139.4773039053077923
 30
0.0
 40
0.0153239734913944
 50
157.8709200299919928
 51
171.0402406747107023
  0
ARC
  5
CEF8
  8
0
  6
CONTINUOUS
 62
     7
 10
1001.8363726550660431
 20
139.4712450743039085
 30
0.0
 40
0.0540458621320856
 50
171.0099149515098986
 51
181.7942812492584039
  0
ARC
  5
CEF9
  8
0
  6
CONTINUOUS
 62
     7
 10
1003.5448674141659922
 20
139.8399576145471883
 30
0.0
 40
1.8233239623733459
 50
184.8128179269388056
 51
192.6876618549900115
  0
ARC
  5
CEFA
  8
0
  6
CONTINUOUS
 62
     7
 10
1002.7566797254650055
 20
139.8007730845700962
 30
0.0
 40
1.0349821351664359
 50
167.6130297085038876
 51
186.3122924842029988
  0
ARC
  5
CEFB
  8
0
  6
CONTINUOUS
 62
     7
 10
1002.3288562594169662
 20
139.8912193984193095
 30
0.0
 40
0.597725863549065
 50
144.1821855550232954
 51
167.2839566001912033
  0
ARC
  5
CEFC
  8
0
  6
CONTINUOUS
 62
     7
 10
1002.2583061248840295
 20
139.9346790063690946
 30
0.0
 40
0.5151205292323326
 50
135.5997495069038052
 51
143.509683715432999
  0
ARC
  5
CEFD
  8
0
  6
CONTINUOUS
 62
     7
 10
1007.4311152140900276
 20
140.6510276995973925
 30
0.0
 40
5.7250927699364258
 50
206.745856548643701
 51
208.0627708529952997
  0
ARC
  5
CEFE
  8
0
  6
CONTINUOUS
 62
     7
 10
1001.6725007626979504
 20
139.7651548149659106
 30
0.0
 40
0.0118119461539032
 50
118.5027509689993934
 51
181.6577610520211863
  0
ARC
  5
CEFF
  8
0
  6
CONTINUOUS
 62
     7
 10
1001.6800898990200039
 20
139.6529075492007905
 30
0.0
 40
0.0118075654020746
 50
185.9111607579700092
 51
290.5082053381649985
  0
LINE
  5
CF00
  8
0
  6
CONTINUOUS
 62
     7
 10
1001.6683451170989656
 20
139.6516915317874918
 30
0.0
 11
1001.6606937603310143
 21
139.7648131030196055
 31
0.0
  0
ARC
  5
CF01
  8
0
 10
1002.7373260856470552
 20
137.5463684008049938
 30
0.0
 40
0.1204381721698611
 50
200.2347657527739102
 51
204.537165505767689
  0
LINE
  5
CF02
  8
0
 10
1004.6928145594730495
 20
130.4084296392346971
 30
0.0
 11
1004.6928145594720263
 21
130.4651249931347081
 31
0.0
  0
LINE
  5
CF03
  8
0
 10
1005.4211610161729595
 20
130.4897018433347
 30
0.0
 11
1005.4211610161729595
 21
130.5007829802347032
 31
0.0
  0
LINE
  5
CF04
  8
0
 10
1005.4662115454229934
 20
130.5246880544011958
 30
0.0
 11
1005.4662115487940355
 21
130.5372858565268075
 31
0.0
  0
LINE
  5
CF05
  8
0
 10
1005.4210398938230355
 20
130.5611498430012034
 30
0.0
 11
1005.4210398938230355
 21
130.572216999618206
 31
0.0
  0
LINE
  5
CF06
  8
0
 10
1005.4211610161729595
 20
130.5007829802347032
 30
0.0
 11
1005.4662115454229934
 21
130.5246880544011958
 31
0.0
  0
LINE
  5
CF07
  8
0
 10
1005.4662115487940355
 20
130.5372858565268075
 30
0.0
 11
1005.4210398938230355
 21
130.5611498430012034
 31
0.0
  0
LINE
  5
CF08
  8
0
 10
1005.4210398938230355
 20
130.572216999618206
 30
0.0
 11
1005.466211156723034
 21
130.5960801872197123
 31
0.0
  0
LINE
  5
CF09
  8
0
 10
1005.466211156723034
 20
130.5960801872197123
 30
0.0
 11
1005.466211156723034
 21
130.6086786110012099
 31
0.0
  0
LINE
  5
CF0A
  8
0
 10
1005.466211156723034
 20
130.6086786110012099
 30
0.0
 11
1005.4210398938230355
 21
130.6325432397011923
 31
0.0
  0
LINE
  5
CF0B
  8
0
 10
1005.4210398938230355
 20
130.6325432397011923
 30
0.0
 11
1005.4210398938230355
 21
130.6436275639755138
 31
0.0
  0
LINE
  5
CF0C
  8
0
 10
1005.4210398938230355
 20
130.6436275639755138
 30
0.0
 11
1005.4663124722229668
 21
130.667530021501193
 31
0.0
  0
LINE
  5
CF0D
  8
0
 10
1005.4663124722229668
 20
130.667530021501193
 30
0.0
 11
1005.4663124722229668
 21
130.6801284467011897
 31
0.0
  0
LINE
  5
CF0E
  8
0
 10
1005.4663124722229668
 20
130.6801284467011897
 30
0.0
 11
1005.4210398938230355
 21
130.7040279849011881
 31
0.0
  0
LINE
  5
CF0F
  8
0
 10
1004.6928145595519482
 20
130.6683283439525098
 30
0.0
 11
1004.6475400561230344
 21
130.6444208268011948
 31
0.0
  0
LINE
  5
CF10
  8
0
 10
1004.6475400561230344
 20
130.6444208268011948
 30
0.0
 11
1004.6475404438240275
 21
130.6318372174681883
 31
0.0
  0
LINE
  5
CF11
  8
0
 10
1004.6475404438240275
 20
130.6318372174681883
 30
0.0
 11
1004.6926934371230118
 21
130.6079656574011949
 31
0.0
  0
LINE
  5
CF12
  8
0
 10
1004.6926934371230118
 20
130.6079656574011949
 30
0.0
 11
1004.6926934371230118
 21
130.5968830279142026
 31
0.0
  0
LINE
  5
CF13
  8
0
 10
1004.6926934371230118
 20
130.5968830279142026
 30
0.0
 11
1004.6474192778240422
 21
130.5729823234011917
 31
0.0
  0
LINE
  5
CF14
  8
0
 10
1004.6474192778240422
 20
130.5729823234011917
 30
0.0
 11
1004.6474192778240422
 21
130.5603838996090929
 31
0.0
  0
LINE
  5
CF15
  8
0
 10
1004.6474192778240422
 20
130.5603838996090929
 30
0.0
 11
1004.6926934371230118
 21
130.5364833433011995
 31
0.0
  0
LINE
  5
CF16
  8
0
 10
1004.6926934371230118
 20
130.5364833433011995
 30
0.0
 11
1004.6926934371230118
 21
130.5253983824491115
 31
0.0
  0
LINE
  5
CF17
  8
0
 10
1004.6926934371230118
 20
130.5253983824491115
 30
0.0
 11
1004.6475457175230304
 21
130.5015442696011974
 31
0.0
  0
LINE
  5
CF18
  8
0
 10
1004.6475457175230304
 20
130.5015442696011974
 30
0.0
 11
1004.6475465581239632
 21
130.4889690279798913
 31
0.0
  0
LINE
  5
CF19
  8
0
 10
1004.6475465581239632
 20
130.4889690279798913
 30
0.0
 11
1004.6928145594720263
 21
130.4651249931347081
 31
0.0
  0
ARC
  5
CF1A
  8
0
 10
1015.96686176772198
 20
-92.3610342063888652
 30
0.0
 40
223.1111861025019891
 50
92.7091844558726308
 51
92.8964506288646419
  0
ARC
  5
CF1B
  8
0
 10
386.2119996703057723
 20
14314.1698801405091217
 30
0.0
 40
14197.1569940573899657
 50
272.4966239625334765
 51
272.4999310101193828
  0
ARC
  5
CF1C
  8
0
 10
835.9276922396151122
 20
4004.4460614070640077
 30
0.0
 40
3877.6168597241548923
 50
272.4937967723524821
 51
272.5059049254027173
  0
ARC
  5
CF1D
  8
0
 10
994.0243930064279994
 20
355.302290223310024
 30
0.0
 40
225.0299174325886042
 50
272.7173177551736103
 51
272.9029883556067944
  0
ARC
  5
CF1E
  8
0
 10
1014.9028659342659466
 20
-70.133164604091121
 30
0.0
 40
200.9292294061563098
 50
92.7047854156651852
 51
92.9127262645675245
  0
ARC
  5
CF1F
  8
0
 10
-8083.1083979539725988
 20
208592.4763388195133302
 30
0.0
 40
208659.9092048823076766
 50
272.4961901350092717
 51
272.4964151800610921
  0
ARC
  5
CF20
  8
0
 10
-625.9324602438075544
 20
37541.7857411471413798
 30
0.0
 40
37446.7305759725422831
 50
272.4956756616851976
 51
272.4969296531464806
  0
ARC
  5
CF21
  8
0
 10
994.8678127610342017
 20
338.722319245400513
 30
0.0
 40
208.3572064532885122
 50
272.7027287707535947
 51
272.9032554895077283
  0
ARC
  5
CF22
  8
0
 10
1015.4917158779270494
 20
-82.4919578832266893
 30
0.0
 40
213.3733729843029039
 50
92.7052188426169295
 51
92.9010314227221983
  0
ARC
  5
CF23
  8
0
 10
593.1479582793484724
 20
9579.6002643325919053
 30
0.0
 40
9457.9245208840602572
 50
272.4936373899158752
 51
272.498602193272518
  0
ARC
  5
CF24
  8
0
 10
850.903664198759202
 20
3665.3822919459271361
 30
0.0
 40
3538.0798460305290973
 50
272.4905175085050928
 51
272.5037893386079872
  0
ARC
  5
CF25
  8
0
 10
995.8521991916734351
 20
318.4504237435492087
 30
0.0
 40
187.990084400071396
 50
272.6954444887152818
 51
272.9176603092349751
  0
LINE
  5
CF26
  8
0
 10
1004.6928145594730495
 20
130.4084296392346971
 30
0.0
 11
1004.7124995987740022
 21
130.3887445998346948
 31
0.0
  0
LINE
  5
CF27
  8
0
 10
1004.7124995987740022
 20
130.3887445998346948
 30
0.0
 11
1005.4014759767729856
 21
130.3887445998346948
 31
0.0
  0
LINE
  5
CF28
  8
0
 10
1005.4014759767729856
 20
130.3887445998346948
 30
0.0
 11
1005.4211610161729595
 21
130.4084296392346971
 31
0.0
  0
LINE
  5
CF29
  8
0
 10
1005.4211610161729595
 20
130.4084296392346971
 30
0.0
 11
1005.4211610161729595
 21
130.4293998649347088
 31
0.0
  0
LINE
  5
CF2A
  8
0
 10
1005.4211610161729595
 20
130.4293998649347088
 30
0.0
 11
1005.4663032394729498
 21
130.4532511867346898
 31
0.0
  0
LINE
  5
CF2B
  8
0
 10
1005.4663032394729498
 20
130.4532511867346898
 30
0.0
 11
1005.4663032394729498
 21
130.4658266073141988
 31
0.0
  0
LINE
  5
CF2C
  8
0
 10
1005.4663032394729498
 20
130.4658266073141988
 30
0.0
 11
1005.4211610161729595
 21
130.4897018433347
 31
0.0
  0
LINE
  5
CF2D
  8
0
 10
1005.074372802273956
 20
130.448547905034701
 30
0.0
 11
1005.074372802273956
 21
130.4359494798347043
 31
0.0
  0
LINE
  5
CF2E
  8
0
 10
1005.074372802273956
 20
130.4359494798347043
 30
0.0
 11
1005.3052272898729598
 21
130.4203634321347067
 31
0.0
  0
ARC
  5
CF2F
  8
0
 10
1005.2851557663990434
 20
131.4260898042120118
 30
0.0
 40
1.0059266382526519
 50
271.1433138989355029
 51
277.7704131953281035
  0
ARC
  5
CF30
  8
0
 10
1005.292559150134025
 20
131.3376423514193903
 30
0.0
 40
0.8576371873930572
 50
270.8463454575153833
 51
278.6239728999159979
  0
LINE
  5
CF31
  8
0
 10
1005.0743728022949881
 20
130.4485479050354115
 30
0.0
 11
1005.3052272898729598
 21
130.4800987295346886
 31
0.0
  0
ARC
  5
CF32
  8
0
 10
1005.0586059154099985
 20
135.2598776043413125
 30
0.0
 40
4.8113555335420291
 50
270.1877594962787157
 51
274.8608715214523954
  0
ARC
  5
CF33
  8
0
 10
1005.0592353821530196
 20
135.2266458254601957
 30
0.0
 40
4.7907202608247621
 50
270.1810399442243806
 51
274.8743040373731787
  0
LINE
  5
CF34
  8
0
 10
1004.6928145594730495
 20
130.6683283439487866
 30
0.0
 11
1004.6928145594730495
 21
130.7037052297347088
 31
0.0
  0
LINE
  5
CF35
  8
0
 10
1004.6928145594730495
 20
130.7037052297347088
 30
0.0
 11
1005.414697387216961
 21
130.7037052297347088
 31
0.0
  0
ARC
  5
CF36
  8
0
 10
1004.6652534003490018
 20
130.7588387503315914
 30
0.0
 40
0.0314978473247899
 50
0.0003305248693151
 51
88.1067268999516955
  0
ARC
  5
CF37
  8
0
 10
1005.4487220191580263
 20
130.7588383841197981
 30
0.0
 40
0.0314980108334037
 50
91.8820744531209357
 51
179.9944308351684867
  0
LINE
  5
CF38
  8
0
 10
1005.4172053633590167
 20
130.7588761590641866
 30
0.0
 11
1005.4172271206859932
 21
130.7038339378154035
 31
0.0
  0
LINE
  5
CF39
  8
0
 10
1004.6967516206390201
 20
130.7037052297347088
 30
0.0
 11
1004.696751247672978
 21
130.7588389320347062
 31
0.0
  0
LINE
  5
CF3B
  8
0
 10
1005.4211610161729595
 20
130.4084296392346971
 30
0.0
 11
1004.6928145594730495
 21
130.4084296392229874
 31
0.0
  0
ENDSEC
  0
EOF
