  0
SECTION
  2
HEADER
  9
$ACADVER
  1
AC1009
  9
$INSBASE
 10
4473.3317587878691484
 20
270.7554246218754201
 30
0.0
  9
$EXTMIN
 10
4470.9695540634193094
 20
267.3956959006748093
 30
0.0
  9
$EXTMAX
 10
4475.6939635123189873
 20
273.1176293463253728
 30
0.0
  9
$LIMMIN
 10
0.0
 20
0.0
  9
$LIMMAX
 10
11.6929133858000007
 20
8.2677165353999982
  9
$ORTHOMODE
 70
     0
  9
$REGENMODE
 70
     1
  9
$FILLMODE
 70
     1
  9
$QTEXTMODE
 70
     0
  9
$MIRRTEXT
 70
     0
  9
$DRAGMODE
 70
     2
  9
$LTSCALE
 40
0.6431102362
  9
$OSMODE
 70
   575
  9
$ATTMODE
 70
     1
  9
$TEXTSIZE
 40
0.2
  9
$TRACEWID
 40
0.05
  9
$TEXTSTYLE
  7
STANDARD
  9
$CLAYER
  8
0
  9
$CELTYPE
  6
BYLAYER
  9
$CECOLOR
 62
   256
  9
$DIMSCALE
 40
1.0
  9
$DIMASZ
 40
0.1875
  9
$DIMEXO
 40
0.0625
  9
$DIMDLI
 40
0.4443307087
  9
$DIMRND
 40
0.0
  9
$DIMDLE
 40
0.0
  9
$DIMEXE
 40
0.125
  9
$DIMTP
 40
0.01
  9
$DIMTM
 40
0.01
  9
$DIMTXT
 40
2.0
  9
$DIMCEN
 40
0.1052362205
  9
$DIMTSZ
 40
0.0
  9
$DIMTOL
 70
     1
  9
$DIMLIM
 70
     0
  9
$DIMTIH
 70
     1
  9
$DIMTOH
 70
     1
  9
$DIMSE1
 70
     0
  9
$DIMSE2
 70
     0
  9
$DIMTAD
 70
     0
  9
$DIMZIN
 70
     0
  9
$DIMBLK
  1

  9
$DIMASO
 70
     1
  9
$DIMSHO
 70
     1
  9
$DIMPOST
  1
\X
  9
$DIMAPOST
  1

  9
$DIMALT
 70
     1
  9
$DIMALTD
 70
     2
  9
$DIMALTF
 40
25.3999999999999986
  9
$DIMLFAC
 40
1.0
  9
$DIMTOFL
 70
     0
  9
$DIMTVP
 40
0.0
  9
$DIMTIX
 70
     0
  9
$DIMSOXD
 70
     0
  9
$DIMSAH
 70
     0
  9
$DIMBLK1
  1

  9
$DIMBLK2
  1

  9
$DIMSTYLE
  2
STANDARD
  9
$DIMCLRD
 70
     0
  9
$DIMCLRE
 70
     0
  9
$DIMCLRT
 70
     0
  9
$DIMTFAC
 40
1.0
  9
$DIMGAP
 40
0.09
  9
$LUNITS
 70
     2
  9
$LUPREC
 70
     4
  9
$SKETCHINC
 40
0.1
  9
$FILLETRAD
 40
0.0
  9
$AUNITS
 70
     0
  9
$AUPREC
 70
     0
  9
$MENU
  1
.
  9
$ELEVATION
 40
0.0
  9
$PELEVATION
 40
0.0
  9
$THICKNESS
 40
0.0
  9
$LIMCHECK
 70
     0
  9
$BLIPMODE
 70
     0
  9
$CHAMFERA
 40
0.0
  9
$CHAMFERB
 40
0.0
  9
$SKPOLY
 70
     0
  9
$TDCREATE
 40
2458060.468368056230247
  9
$TDUPDATE
 40
2459436.8947222228161991
  9
$TDINDWG
 40
0.5351922454
  9
$TDUSRTIMER
 40
0.5351922454
  9
$USRTIMER
 70
     1
  9
$ANGBASE
 50
0.0
  9
$ANGDIR
 70
     0
  9
$PDMODE
 70
     0
  9
$PDSIZE
 40
0.3125
  9
$PLINEWID
 40
0.0
  9
$COORDS
 70
     2
  9
$SPLFRAME
 70
     0
  9
$SPLINETYPE
 70
     6
  9
$SPLINESEGS
 70
     8
  9
$ATTDIA
 70
     1
  9
$ATTREQ
 70
     1
  9
$HANDLING
 70
     1
  9
$HANDSEED
  5
23DEA
  9
$SURFTAB1
 70
     6
  9
$SURFTAB2
 70
     6
  9
$SURFTYPE
 70
     6
  9
$SURFU
 70
     6
  9
$SURFV
 70
     6
  9
$UCSNAME
  2

  9
$UCSORG
 10
0.0
 20
0.0
 30
0.0
  9
$UCSXDIR
 10
1.0
 20
0.0
 30
0.0
  9
$UCSYDIR
 10
0.0
 20
1.0
 30
0.0
  9
$PUCSNAME
  2

  9
$PUCSORG
 10
0.0
 20
0.0
 30
0.0
  9
$PUCSXDIR
 10
1.0
 20
0.0
 30
0.0
  9
$PUCSYDIR
 10
0.0
 20
1.0
 30
0.0
  9
$USERI1
 70
     0
  9
$USERI2
 70
     0
  9
$USERI3
 70
     0
  9
$USERI4
 70
     0
  9
$USERI5
 70
     0
  9
$USERR1
 40
0.0
  9
$USERR2
 40
0.0
  9
$USERR3
 40
0.0
  9
$USERR4
 40
0.0
  9
$USERR5
 40
0.0
  9
$WORLDVIEW
 70
     1
  9
$SHADEDGE
 70
     3
  9
$SHADEDIF
 70
    70
  9
$TILEMODE
 70
     1
  9
$MAXACTVP
 70
    64
  9
$PLIMCHECK
 70
     0
  9
$PEXTMIN
 10
1.0000000000000000E+20
 20
1.0000000000000000E+20
 30
1.0000000000000000E+20
  9
$PEXTMAX
 10
-1.0000000000000000E+20
 20
-1.0000000000000000E+20
 30
-1.0000000000000000E+20
  9
$PLIMMIN
 10
0.0
 20
0.0
  9
$PLIMMAX
 10
12.0
 20
9.0
  9
$UNITMODE
 70
     0
  9
$VISRETAIN
 70
     1
  9
$PLINEGEN
 70
     0
  9
$PSLTSCALE
 70
     1
  0
ENDSEC
  0
SECTION
  2
TABLES
  0
TABLE
  2
VPORT
 70
     1
  0
VPORT
  2
*ACTIVE
 70
     0
 10
0.0
 20
0.0
 11
1.0
 21
1.0
 12
563.0516307571076595
 22
137.6770575142363953
 13
0.0
 23
0.0
 14
1.0
 24
1.0
 15
0.0
 25
0.0
 16
0.0
 26
0.0
 36
60.4960186965801583
 17
3911.3653564453120453
 27
132.5796051025390057
 37
0.0
 40
6.2500928635553556
 41
2.5310015898251188
 42
50.0
 43
0.0
 44
0.0
 50
0.0
 51
0.0
 71
     0
 72
   100
 73
     1
 74
     1
 75
     0
 76
     0
 77
     0
 78
     0
  0
ENDTAB
  0
TABLE
  2
LTYPE
 70
     2
  0
LTYPE
  2
CONTINUOUS
 70
     0
  3
Solid line
 72
    65
 73
     0
 40
0.0
  0
LTYPE
  2
PHANTOM2
 70
     0
  3
___ _ _ ___ _ _ ___ _ _ ___ _ _
 72
    65
 73
     6
 40
1.25
 49
0.625
 49
-0.125
 49
0.125
 49
-0.125
 49
0.125
 49
-0.125
  0
ENDTAB
  0
TABLE
  2
LAYER
 70
     2
  0
LAYER
  2
0
 70
     0
 62
   255
  6
CONTINUOUS
  0
LAYER
  2
DEFPOINTS
 70
     0
 62
     7
  6
CONTINUOUS
  0
ENDTAB
  0
TABLE
  2
STYLE
 70
     1
  0
STYLE
  2
STANDARD
 70
     0
 40
0.0
 41
0.8
 50
0.0
 71
     0
 42
0.2
  3
txt
  4

  0
ENDTAB
  0
TABLE
  2
VIEW
 70
     0
  0
ENDTAB
  0
TABLE
  2
UCS
 70
     0
  0
ENDTAB
  0
TABLE
  2
APPID
 70
    11
  0
APPID
  2
ACAD
 70
     0
  0
APPID
  2
ACAD_MLEADERVER
 70
     0
  0
APPID
  2
ACAD_EXEMPT_FROM_CAD_STANDARDS
 70
     0
  0
APPID
  2
ACAD_NAV_VCDISPLAY
 70
     0
  0
APPID
  2
ACAECLAYERSTANDARD
 70
     0
  0
APPID
  2
ACCMTRANSPARENCY
 70
     0
  0
APPID
  2
ACAD_DSTYLE_DIMJAG
 70
     0
  0
APPID
  2
ACAD_DSTYLE_DIMTALN
 70
     0
  0
APPID
  2
ACDBATTR
 70
     0
  0
APPID
  2
ACADANNOTATIVE
 70
     0
  0
APPID
  2
DCO15
 70
     0
  0
ENDTAB
  0
TABLE
  2
DIMSTYLE
 70
     1
  0
DIMSTYLE
  2
STANDARD
 70
     0
  3

  4

  5

  6

  7

 40
1.0
 41
0.1875
 42
0.0625
 43
0.38
 44
0.125
 45
0.0
 46
0.0
 47
0.01
 48
0.01
140
0.15625
141
0.09
142
0.0
143
25.3999999999999986
144
1.0
145
0.0
146
1.0
147
0.09
 71
     1
 72
     0
 73
     1
 74
     1
 75
     0
 76
     0
 77
     0
 78
     4
170
     0
171
     2
172
     0
173
     0
174
     0
175
     0
176
     0
177
     0
178
     0
  0
ENDTAB
  0
ENDSEC
  0
SECTION
  2
BLOCKS
  0
BLOCK
  8
0
  2
$MODEL_SPACE
 70
     0
 10
0.0
 20
0.0
 30
0.0
  3
$MODEL_SPACE
  1

  0
ENDBLK
  5
21
  8
0
  0
BLOCK
 67
     1
  8
0
  2
$PAPER_SPACE
 70
     0
 10
0.0
 20
0.0
 30
0.0
  3
$PAPER_SPACE
  1

  0
ENDBLK
  5
1D
 67
     1
  8
0
  0
ENDSEC
  0
SECTION
  2
ENTITIES
  0
ATTDEF
  5
20106
  8
DEFPOINTS
 10
4473.331764698101324
 20
270.7543728943721248
 30
0.0
 40
0.001
  1
K-R99254X-4CD
  3

  2
MODELNUMBER
 70
     0
1001
ACDBATTR
1070
     0
1070
     1
  0
ATTDEF
  5
20107
  8
DEFPOINTS
 10
4473.3316388884441039
 20
270.7527060539929948
 30
0.0
 40
0.001
  1
SINGULIER
  3

  2
TRADENAME
 70
     0
1001
ACDBATTR
1070
     0
1070
     1
  0
ATTDEF
  5
20108
  8
DEFPOINTS
 10
4473.331764698101324
 20
270.7510395610387945
 30
0.0
 40
0.001
  1
SHOWER TRIM
  3

  2
PRODUCT
 70
     0
1001
ACDBATTR
1070
     0
1070
     1
  0
LINE
  5
23CA3
  8
0
 10
4472.9070912269189648
 20
267.3956960734254267
 30
0.0
 11
4473.3317587878691484
 21
267.3956959006748093
 31
0.0
  0
LINE
  5
23CA4
  8
0
 10
4470.9695540634193094
 20
268.5900702912252882
 30
0.0
 11
4470.9695540634193094
 21
272.920778952625426
 31
0.0
  0
LINE
  5
23CA5
  8
0
 10
4472.8250353466146407
 20
268.3932198974252969
 30
0.0
 11
4471.1664044571180057
 21
268.3932198974252969
 31
0.0
  0
LINE
  5
23CA6
  8
0
 10
4472.8271299155194356
 20
267.4804196808253209
 30
0.0
 11
4472.8271317750186427
 21
267.4803857922253201
 31
0.0
  0
LINE
  5
23CA7
  8
0
 10
4472.8239208775967199
 20
269.4897936318923826
 30
0.0
 11
4472.8230005261193583
 21
269.5503196894254074
 31
0.0
  0
LINE
  5
23CA8
  8
0
 10
4472.8250349347190422
 20
267.8807944733254089
 30
0.0
 11
4472.8250360618194463
 21
269.2829785160254232
 31
0.0
  0
LINE
  5
23CA9
  8
0
 10
4472.831710009820199
 20
269.7015869223254185
 30
0.0
 11
4472.8317084939226334
 21
267.4513693128412228
 31
0.0
  0
LINE
  5
23CAA
  8
0
 10
4471.1664044572189596
 20
273.1176293463253728
 30
0.0
 11
4475.4971131185975537
 21
273.1176293463253728
 31
0.0
  0
ARC
  5
23CAB
  8
0
 10
4456.4141556562863116
 20
269.2978986682363143
 30
0.0
 40
16.4108871879503688
 50
359.9479088571284819
 51
0.6699834060680659
  0
ARC
  5
23CAC
  8
0
 10
4471.1664044571180057
 20
268.5900702911254143
 30
0.0
 40
0.1968503937
 50
179.9999999938997917
 51
270.0
  0
ARC
  5
23CAD
  8
0
 10
4472.6912728213092123
 20
269.7755613763886231
 30
0.0
 40
0.1217640281605018
 50
34.0983669222958099
 51
36.6818416166381525
  0
ARC
  5
23CAE
  8
0
 10
4473.3317587879191706
 20
270.7554246219252718
 30
0.0
 40
0.9527559054999999
 50
90.0000000030223788
 51
227.3777857844301877
  0
ARC
  5
23CAF
  8
0
 10
4471.1664044571180057
 20
272.920778952625426
 30
0.0
 40
0.1968503937
 50
89.9999999939030886
 51
180.0
  0
ARC
  5
23CB0
  8
0
 10
4473.3317590931192171
 20
271.5038533260254212
 30
0.0
 40
0.1887130282
 50
90.0000926779526083
 51
121.9207084170821958
  0
ARC
  5
23CB1
  8
0
 10
4520.5042749702452056
 20
267.823221358741705
 30
0.0
 40
47.67927479554195
 50
179.9308148604418136
 51
180.3535662225069984
  0
ARC
  5
23CB2
  8
0
 10
4473.333285438963685
 20
270.747749250056188
 30
0.0
 40
0.9158224804990879
 50
90.0955105458711074
 51
134.1676927667450911
  0
ARC
  5
23CB3
  8
0
 10
4473.3167394869888085
 20
270.7560637716038059
 30
0.0
 40
0.8983504169658946
 50
133.7802179202284094
 51
179.31417264685399
  0
ARC
  5
23CB4
  8
0
 10
4473.3325299082744095
 20
270.7482892649729251
 30
0.0
 40
0.9142642289888275
 50
178.8388283931853096
 51
211.8151670515595981
  0
ARC
  5
23CB5
  8
0
 10
4473.3252817031743689
 20
270.7426047735903012
 30
0.0
 40
0.9051088520034838
 50
211.7512756634808113
 51
225.1504244504156986
  0
ARC
  5
23CB6
  8
0
 10
4472.3620123535856692
 20
269.789799767668228
 30
0.0
 40
0.4498696628126824
 50
26.715287996457981
 51
43.7548631282595366
  0
ARC
  5
23CB7
  8
0
 10
4472.1920873895369368
 20
269.7053223087049219
 30
0.0
 40
0.6396335274890113
 50
359.6653973224815104
 51
26.6318566021373186
  0
ARC
  5
23CB8
  8
0
 10
4473.3333838372427635
 20
270.7350159346888745
 30
0.0
 40
0.9457169939267206
 50
94.542038980377086
 51
125.0754857290071982
  0
ARC
  5
23CB9
  8
0
 10
4473.3254770170242409
 20
270.7392089151969117
 30
0.0
 40
0.9377505768735881
 50
124.8273374350529963
 51
153.515516930815096
  0
ARC
  5
23CBA
  8
0
 10
4473.3341375501968287
 20
270.7348709631950214
 30
0.0
 40
0.9474367653229245
 50
153.5142775314726009
 51
178.7569197639284084
  0
ARC
  5
23CBB
  8
0
 10
4473.3118756633357407
 20
270.7482598592682166
 30
0.0
 40
0.9249796537570635
 50
179.5561800836536008
 51
194.3703932106346883
  0
ARC
  5
23CBC
  8
0
 10
4473.3531168060771961
 20
270.7570530244137217
 30
0.0
 40
0.9671143197510211
 50
194.26863721940299
 51
216.781163789370396
  0
ARC
  5
23CBD
  8
0
 10
4473.2354710638537654
 20
270.6603724787556189
 30
0.0
 40
0.8150300426332447
 50
216.2895866288855871
 51
225.541003254755509
  0
ARC
  5
23CBE
  8
0
 10
4472.3332832364640126
 20
269.7649959280141161
 30
0.0
 40
0.4562478443004357
 50
18.4869901237969394
 51
43.4285495131275425
  0
ARC
  5
23CBF
  8
0
 10
4472.2148495190303947
 20
269.7179550132585746
 30
0.0
 40
0.5835287440425166
 50
15.3365222106335803
 51
19.1801520304627218
  0
ARC
  5
23CC0
  8
0
 10
4472.8512294701658902
 20
269.8923796634206269
 30
0.0
 40
0.076322360086422
 50
195.2602960312335085
 51
215.2784128262238994
  0
ARC
  5
23CC1
  8
0
 10
4472.4399224838616647
 20
269.7096985296141725
 30
0.0
 40
0.3768562206330268
 50
10.3181065878690603
 51
20.8490211245128414
  0
ARC
  5
23CC2
  8
0
 10
4472.2451089874175523
 20
269.6745518114195761
 30
0.0
 40
0.5748146127600906
 50
0.3040953185083927
 51
10.2866771167365201
  0
ARC
  5
23CC3
  8
0
 10
4464.9955276632681489
 20
269.4242800204410742
 30
0.0
 40
7.8284875561523313
 50
0.9225093680321412
 51
1.8543619146503441
  0
ARC
  5
23CC4
  8
0
 10
4472.9076494938180986
 20
267.4754112646202202
 30
0.0
 40
0.0797171460173834
 50
224.6493404018245883
 51
269.5987488228710731
  0
ARC
  5
23CC5
  8
0
 10
4472.9087824546841148
 20
267.4759396781483929
 30
0.0
 40
0.0808956011090231
 50
189.7108378420556107
 51
224.3516668550751945
  0
ARC
  5
23CC6
  8
0
 10
4473.0073107753678414
 20
267.4907601870967824
 30
0.0
 40
0.1805232319132021
 50
180.9044665640795984
 51
189.0724979764995055
  0
ARC
  5
23CC7
  8
0
 10
4474.465362699119396
 20
267.5444371822313769
 30
0.0
 40
1.6395273975615341
 50
180.5395033069117972
 51
181.9757996812575982
  0
ARC
  5
23CC8
  8
0
 10
4473.3583403546599584
 20
269.7133033664842969
 30
0.0
 40
1.9548143330908081
 50
90.7791320657028962
 51
94.9759492125990619
  0
ARC
  5
23CC9
  8
0
 10
4473.2744903993216212
 20
271.3569051699507213
 30
0.0
 40
0.3157014632650514
 50
95.4518652459543375
 51
105.7522131495700961
  0
LINE
  5
23CCA
  8
0
 10
4473.7564263488202414
 20
267.3956960734254267
 30
0.0
 11
4473.3317587878691484
 21
267.3956959006748093
 31
0.0
  0
LINE
  5
23CCB
  8
0
 10
4475.6939635123189873
 20
268.5900702912252882
 30
0.0
 11
4475.6939635123189873
 21
272.920778952625426
 31
0.0
  0
LINE
  5
23CCC
  8
0
 10
4473.8384822291227465
 20
268.3932198974252969
 30
0.0
 11
4475.4971131186202911
 21
268.3932198974252969
 31
0.0
  0
LINE
  5
23CCD
  8
0
 10
4473.8363876602179516
 20
267.4804196808253209
 30
0.0
 11
4473.8363858007178351
 21
267.4803857922253201
 31
0.0
  0
LINE
  5
23CCE
  8
0
 10
4473.8395966981397578
 20
269.4897936318923826
 30
0.0
 11
4473.8405170496189385
 21
269.5503196894254074
 31
0.0
  0
LINE
  5
23CCF
  8
0
 10
4473.8384826410192545
 20
267.8807944733254089
 30
0.0
 11
4473.8384815139188504
 21
269.2829785160254232
 31
0.0
  0
LINE
  5
23CD0
  8
0
 10
4473.8318075659190072
 20
269.7015869223254185
 30
0.0
 11
4473.8318090818147539
 21
267.4513693128412228
 31
0.0
  0
ARC
  5
23CD1
  8
0
 10
4490.2493619194519852
 20
269.2978986682363143
 30
0.0
 40
16.4108871879503688
 50
179.3300165939319015
 51
180.0520911428714896
  0
ARC
  5
23CD2
  8
0
 10
4475.4971131186202911
 20
268.5900702911254143
 30
0.0
 40
0.1968503937
 50
270.0
 51
0.0000000061001512
  0
ARC
  5
23CD3
  8
0
 10
4473.9722447544290844
 20
269.7755613763886231
 30
0.0
 40
0.1217640281605018
 50
143.3181583833618049
 51
145.9016330777041901
  0
ARC
  5
23CD4
  8
0
 10
4473.3317587878191262
 20
270.7554246219252718
 30
0.0
 40
0.9527559054999999
 50
312.6222142155697838
 51
89.999999996977607
  0
ARC
  5
23CD5
  8
0
 10
4475.4971131186202911
 20
272.920778952625426
 30
0.0
 40
0.1968503937
 50
0.0
 51
90.0000000060969114
  0
ARC
  5
23CD6
  8
0
 10
4473.3317584826181701
 20
271.5038533260254212
 30
0.0
 40
0.1887130282
 50
58.0792915829177971
 51
89.9999073220473633
  0
ARC
  5
23CD7
  8
0
 10
4426.1592426054930911
 20
267.823221358741705
 30
0.0
 40
47.67927479554195
 50
359.6464337774929163
 51
0.0691851395582135
  0
ARC
  5
23CD8
  8
0
 10
4473.3302321367737022
 20
270.747749250056188
 30
0.0
 40
0.9158224804990879
 50
45.8323072332549231
 51
89.9044894541289068
  0
ARC
  5
23CD9
  8
0
 10
4473.3467780887485787
 20
270.7560637716038059
 30
0.0
 40
0.8983504169658946
 50
0.6858273531459737
 51
46.2197820797715266
  0
ARC
  5
23CDA
  8
0
 10
4473.3309876674638872
 20
270.7482892649729251
 30
0.0
 40
0.9142642289888275
 50
328.1848329484403735
 51
1.161171606814722
  0
ARC
  5
23CDB
  8
0
 10
4473.3382358725639278
 20
270.7426047735903012
 30
0.0
 40
0.9051088520034838
 50
314.8495755495841877
 51
328.2487243365163749
  0
ARC
  5
23CDC
  8
0
 10
4474.3015052221526275
 20
269.789799767668228
 30
0.0
 40
0.4498696628126824
 50
136.2451368717404137
 51
153.2847120035420119
  0
ARC
  5
23CDD
  8
0
 10
4474.4714301862013599
 20
269.7053223087049219
 30
0.0
 40
0.6396335274890113
 50
153.3681433978626956
 51
180.3346026775184896
  0
ARC
  5
23CDE
  8
0
 10
4473.3301337384946237
 20
270.7350159346888745
 30
0.0
 40
0.9457169939267206
 50
54.9245142709928089
 51
85.4579610196229282
  0
ARC
  5
23CDF
  8
0
 10
4473.3380405587140558
 20
270.7392089151969117
 30
0.0
 40
0.9377505768735881
 50
26.4844830691848507
 51
55.1726625649469824
  0
ARC
  5
23CE0
  8
0
 10
4473.3293800255423776
 20
270.7348709631950214
 30
0.0
 40
0.9474367653229245
 50
1.2430802360716089
 51
26.48572246852736
  0
ARC
  5
23CE1
  8
0
 10
4473.351641912404375
 20
270.7482598592682166
 30
0.0
 40
0.9249796537570635
 50
345.629606789365198
 51
0.4438199163463387
  0
ARC
  5
23CE2
  8
0
 10
4473.3104007696611006
 20
270.7570530244137217
 30
0.0
 40
0.9671143197510211
 50
323.2188362106297177
 51
345.73136278059701
  0
ARC
  5
23CE3
  8
0
 10
4473.4280465118827124
 20
270.6603724787556189
 30
0.0
 40
0.8150300426332447
 50
314.4589967452445194
 51
323.7104133711143277
  0
ARC
  5
23CE4
  8
0
 10
4474.3302343392742841
 20
269.7649959280141161
 30
0.0
 40
0.4562478443004357
 50
136.5714504868724077
 51
161.5130098762030002
  0
ARC
  5
23CE5
  8
0
 10
4474.448668056707902
 20
269.7179550132585746
 30
0.0
 40
0.5835287440425166
 50
160.819847969537193
 51
164.6634777893663966
  0
ARC
  5
23CE6
  8
0
 10
4473.8122881055705875
 20
269.8923796634206269
 30
0.0
 40
0.076322360086422
 50
324.7215871737760722
 51
344.7397039687663778
  0
ARC
  5
23CE7
  8
0
 10
4474.2235950918766321
 20
269.7096985296141725
 30
0.0
 40
0.3768562206330268
 50
159.1509788754871124
 51
169.6818934121309042
  0
ARC
  5
23CE8
  8
0
 10
4474.4184085883189255
 20
269.6745518114195761
 30
0.0
 40
0.5748146127600906
 50
169.713322883263487
 51
179.6959046814916121
  0
ARC
  5
23CE9
  8
0
 10
4481.6679899124701478
 20
269.4242800204410742
 30
0.0
 40
7.8284875561523313
 50
178.1456380853495887
 51
179.0774906319678053
  0
ARC
  5
23CEA
  8
0
 10
4473.7558680819183792
 20
267.4754112646202202
 30
0.0
 40
0.0797171460173834
 50
270.4012511771288132
 51
315.3506595981754117
  0
ARC
  5
23CEB
  8
0
 10
4473.7547351210541819
 20
267.4759396781483929
 30
0.0
 40
0.0808956011090231
 50
315.6483331449247771
 51
350.2891621579444177
  0
ARC
  5
23CEC
  8
0
 10
4473.6562068003695458
 20
267.4907601870967824
 30
0.0
 40
0.1805232319132021
 50
350.9275020235003808
 51
359.095533435920288
  0
ARC
  5
23CED
  8
0
 10
4472.1981548766179912
 20
267.5444371822313769
 30
0.0
 40
1.6395273975615341
 50
358.0242003187423734
 51
359.4604966930880892
  0
ARC
  5
23CEE
  8
0
 10
4473.3051772210783383
 20
269.7133033664842969
 30
0.0
 40
1.9548143330908081
 50
85.0240507874009381
 51
89.2208679342971038
  0
ARC
  5
23CEF
  8
0
 10
4473.3890271764148565
 20
271.3569051699507213
 30
0.0
 40
0.3157014632650514
 50
74.2477868504298897
 51
84.5481347540456625
  0
ENDSEC
  0
EOF
