  0
SECTION
  2
HEADER
  9
$ACADVER
  1
AC1009
  9
$INSBASE
 10
3062.8665724264810706
 20
161.789513834914402
 30
0.0
  9
$EXTMIN
 10
3059.3662738881957921
 20
156.3357968666244915
 30
-0.0000000000112498
  9
$EXTMAX
 10
3066.3844531657578045
 20
161.7919833757163133
 30
0.0000000000002956
  9
$LIMMIN
 10
0.0
 20
0.0
  9
$LIMMAX
 10
11.6929133858000007
 20
8.2677165353999982
  9
$ORTHOMODE
 70
     1
  9
$REGENMODE
 70
     1
  9
$FILLMODE
 70
     1
  9
$QTEXTMODE
 70
     0
  9
$MIRRTEXT
 70
     0
  9
$DRAGMODE
 70
     2
  9
$LTSCALE
 40
0.6431102362
  9
$OSMODE
 70
  4095
  9
$ATTMODE
 70
     1
  9
$TEXTSIZE
 40
0.2
  9
$TRACEWID
 40
0.05
  9
$TEXTSTYLE
  7
STANDARD
  9
$CLAYER
  8
0
  9
$CELTYPE
  6
BYLAYER
  9
$CECOLOR
 62
   256
  9
$DIMSCALE
 40
1.0
  9
$DIMASZ
 40
0.1875
  9
$DIMEXO
 40
0.0625
  9
$DIMDLI
 40
0.4443307087
  9
$DIMRND
 40
0.0
  9
$DIMDLE
 40
0.0
  9
$DIMEXE
 40
0.125
  9
$DIMTP
 40
0.01
  9
$DIMTM
 40
0.01
  9
$DIMTXT
 40
2.0
  9
$DIMCEN
 40
0.1052362205
  9
$DIMTSZ
 40
0.0
  9
$DIMTOL
 70
     1
  9
$DIMLIM
 70
     0
  9
$DIMTIH
 70
     1
  9
$DIMTOH
 70
     1
  9
$DIMSE1
 70
     0
  9
$DIMSE2
 70
     0
  9
$DIMTAD
 70
     0
  9
$DIMZIN
 70
     0
  9
$DIMBLK
  1

  9
$DIMASO
 70
     1
  9
$DIMSHO
 70
     1
  9
$DIMPOST
  1
\X
  9
$DIMAPOST
  1

  9
$DIMALT
 70
     1
  9
$DIMALTD
 70
     2
  9
$DIMALTF
 40
25.3999999999999986
  9
$DIMLFAC
 40
1.0
  9
$DIMTOFL
 70
     0
  9
$DIMTVP
 40
0.0
  9
$DIMTIX
 70
     0
  9
$DIMSOXD
 70
     0
  9
$DIMSAH
 70
     0
  9
$DIMBLK1
  1

  9
$DIMBLK2
  1

  9
$DIMSTYLE
  2
STANDARD
  9
$DIMCLRD
 70
     0
  9
$DIMCLRE
 70
     0
  9
$DIMCLRT
 70
     0
  9
$DIMTFAC
 40
1.0
  9
$DIMGAP
 40
0.09
  9
$LUNITS
 70
     2
  9
$LUPREC
 70
     4
  9
$SKETCHINC
 40
0.1
  9
$FILLETRAD
 40
0.0
  9
$AUNITS
 70
     0
  9
$AUPREC
 70
     0
  9
$MENU
  1
.
  9
$ELEVATION
 40
0.0
  9
$PELEVATION
 40
0.0
  9
$THICKNESS
 40
0.0
  9
$LIMCHECK
 70
     0
  9
$BLIPMODE
 70
     0
  9
$CHAMFERA
 40
0.0
  9
$CHAMFERB
 40
0.0
  9
$SKPOLY
 70
     0
  9
$TDCREATE
 40
2458060.468368056230247
  9
$TDUPDATE
 40
2459621.6522800931707025
  9
$TDINDWG
 40
0.4348681713
  9
$TDUSRTIMER
 40
0.4348681713
  9
$USRTIMER
 70
     1
  9
$ANGBASE
 50
0.0
  9
$ANGDIR
 70
     0
  9
$PDMODE
 70
     0
  9
$PDSIZE
 40
0.3125
  9
$PLINEWID
 40
0.0
  9
$COORDS
 70
     1
  9
$SPLFRAME
 70
     0
  9
$SPLINETYPE
 70
     6
  9
$SPLINESEGS
 70
     8
  9
$ATTDIA
 70
     1
  9
$ATTREQ
 70
     1
  9
$HANDLING
 70
     1
  9
$HANDSEED
  5
2ADD4
  9
$SURFTAB1
 70
     6
  9
$SURFTAB2
 70
     6
  9
$SURFTYPE
 70
     6
  9
$SURFU
 70
     6
  9
$SURFV
 70
     6
  9
$UCSNAME
  2

  9
$UCSORG
 10
0.0
 20
0.0
 30
0.0
  9
$UCSXDIR
 10
1.0
 20
0.0
 30
0.0
  9
$UCSYDIR
 10
0.0
 20
1.0
 30
0.0
  9
$PUCSNAME
  2

  9
$PUCSORG
 10
0.0
 20
0.0
 30
0.0
  9
$PUCSXDIR
 10
1.0
 20
0.0
 30
0.0
  9
$PUCSYDIR
 10
0.0
 20
1.0
 30
0.0
  9
$USERI1
 70
     0
  9
$USERI2
 70
     0
  9
$USERI3
 70
     0
  9
$USERI4
 70
     0
  9
$USERI5
 70
     0
  9
$USERR1
 40
0.0
  9
$USERR2
 40
0.0
  9
$USERR3
 40
0.0
  9
$USERR4
 40
0.0
  9
$USERR5
 40
0.0
  9
$WORLDVIEW
 70
     1
  9
$SHADEDGE
 70
     3
  9
$SHADEDIF
 70
    70
  9
$TILEMODE
 70
     1
  9
$MAXACTVP
 70
    64
  9
$PLIMCHECK
 70
     0
  9
$PEXTMIN
 10
1.0000000000000000E+20
 20
1.0000000000000000E+20
 30
1.0000000000000000E+20
  9
$PEXTMAX
 10
-1.0000000000000000E+20
 20
-1.0000000000000000E+20
 30
-1.0000000000000000E+20
  9
$PLIMMIN
 10
0.0
 20
0.0
  9
$PLIMMAX
 10
12.0
 20
9.0
  9
$UNITMODE
 70
     0
  9
$VISRETAIN
 70
     1
  9
$PLINEGEN
 70
     0
  9
$PSLTSCALE
 70
     1
  0
ENDSEC
  0
SECTION
  2
TABLES
  0
TABLE
  2
VPORT
 70
     1
  0
VPORT
  2
*ACTIVE
 70
     0
 10
0.0
 20
0.0
 11
1.0
 21
1.0
 12
-740.6687038558357017
 22
33.068627924420511
 13
0.0
 23
0.0
 14
1.0
 24
1.0
 15
0.0
 25
0.0
 16
0.0
 26
0.0
 36
17.1152628219792007
 17
3803.5440673828129547
 27
125.9952621967499056
 37
0.0
 40
5.4952522836198661
 41
2.2831541218637992
 42
50.0
 43
0.0
 44
0.0
 50
0.0
 51
0.0
 71
     0
 72
   100
 73
     1
 74
     1
 75
     0
 76
     0
 77
     0
 78
     0
  0
ENDTAB
  0
TABLE
  2
LTYPE
 70
     2
  0
LTYPE
  2
CONTINUOUS
 70
     0
  3
Solid line
 72
    65
 73
     0
 40
0.0
  0
LTYPE
  2
PHANTOM2
 70
     0
  3
___ _ _ ___ _ _ ___ _ _ ___ _ _
 72
    65
 73
     6
 40
1.25
 49
0.625
 49
-0.125
 49
0.125
 49
-0.125
 49
0.125
 49
-0.125
  0
ENDTAB
  0
TABLE
  2
LAYER
 70
     2
  0
LAYER
  2
0
 70
     0
 62
   255
  6
CONTINUOUS
  0
LAYER
  2
DEFPOINTS
 70
     0
 62
     7
  6
CONTINUOUS
  0
ENDTAB
  0
TABLE
  2
STYLE
 70
     1
  0
STYLE
  2
STANDARD
 70
     0
 40
0.0
 41
0.8
 50
0.0
 71
     0
 42
0.2
  3
txt
  4

  0
ENDTAB
  0
TABLE
  2
VIEW
 70
     0
  0
ENDTAB
  0
TABLE
  2
UCS
 70
     0
  0
ENDTAB
  0
TABLE
  2
APPID
 70
     9
  0
APPID
  2
ACAD
 70
     0
  0
APPID
  2
ACAD_MLEADERVER
 70
     0
  0
APPID
  2
ACAD_EXEMPT_FROM_CAD_STANDARDS
 70
     0
  0
APPID
  2
ACAD_NAV_VCDISPLAY
 70
     0
  0
APPID
  2
ACAECLAYERSTANDARD
 70
     0
  0
APPID
  2
ACCMTRANSPARENCY
 70
     0
  0
APPID
  2
ACAD_DSTYLE_DIMJAG
 70
     0
  0
APPID
  2
ACAD_DSTYLE_DIMTALN
 70
     0
  0
APPID
  2
ACDBATTR
 70
     0
  0
ENDTAB
  0
TABLE
  2
DIMSTYLE
 70
     1
  0
DIMSTYLE
  2
STANDARD
 70
     0
  3

  4

  5

  6

  7

 40
1.0
 41
0.1875
 42
0.0625
 43
0.38
 44
0.125
 45
0.0
 46
0.0
 47
0.01
 48
0.01
140
0.15625
141
0.09
142
0.0
143
25.3999999999999986
144
1.0
145
0.0
146
1.0
147
0.09
 71
     1
 72
     0
 73
     1
 74
     1
 75
     0
 76
     0
 77
     0
 78
     4
170
     0
171
     2
172
     0
173
     0
174
     0
175
     0
176
     0
177
     0
178
     0
  0
ENDTAB
  0
ENDSEC
  0
SECTION
  2
BLOCKS
  0
BLOCK
  8
0
  2
$MODEL_SPACE
 70
     0
 10
0.0
 20
0.0
 30
0.0
  3
$MODEL_SPACE
  1

  0
ENDBLK
  5
21
  8
0
  0
BLOCK
 67
     1
  8
0
  2
$PAPER_SPACE
 70
     0
 10
0.0
 20
0.0
 30
0.0
  3
$PAPER_SPACE
  1

  0
ENDBLK
  5
1D
 67
     1
  8
0
  0
BLOCK
  8
0
  2
_FILLED
 70
     0
 10
0.0
 20
0.0
 30
0.0
  3
_FILLED
  1

  0
SOLID
  5
2A3C8
  8
0
  6
BYBLOCK
 62
     0
 10
0.0
 20
0.0
 30
0.0
 11
-1.0
 21
0.1666666667
 31
0.0
 12
-1.0
 22
-0.1666666667
 32
0.0
 13
-1.0
 23
-0.1666666667
 33
0.0
  0
ENDBLK
  5
2A3C9
  8
0
  6
BYBLOCK
 62
     0
  0
ENDSEC
  0
SECTION
  2
ENTITIES
  0
LINE
  5
2A667
  8
0
 10
3059.4666472937810795
 20
160.8795138349144054
 30
0.0
 11
3059.4666472937810795
 21
161.0323765597144074
 31
0.0
  0
LINE
  5
2A668
  8
0
 10
3059.5959922710308092
 20
161.789513834914402
 30
0.0
 11
3059.4666472937810795
 21
161.0323765597144074
 31
0.0
  0
LINE
  5
2A669
  8
0
 10
3062.0865817532308029
 20
158.0730138349144056
 30
0.0
 11
3063.646563099731793
 21
158.0730138349144056
 31
0.0
  0
LINE
  5
2A66A
  8
0
 10
3062.0865724264308483
 20
158.163013834914409
 30
0.0
 11
3063.6465653758318695
 21
158.163013834914409
 31
0.0
  0
LINE
  5
2A66B
  8
0
 10
3062.0780724264318451
 20
158.3065138349143979
 30
0.0
 11
3063.6550724264311611
 21
158.3065138349143979
 31
0.0
  0
LINE
  5
2A66C
  8
0
 10
3061.8666472937688923
 20
160.5895138349144133
 30
0.0
 11
3061.8666472937688923
 21
160.6095138349143951
 31
0.0
  0
LINE
  5
2A66D
  8
0
 10
3062.0665724264308665
 20
158.0930138349143874
 30
0.0
 11
3062.0665724264308665
 21
158.1430138349143988
 31
0.0
  0
LINE
  5
2A66E
  8
0
 10
3062.0665724264308665
 20
158.0930138349143874
 30
0.0
 11
3062.0665724264308665
 21
158.1430138349143988
 31
0.0
  0
LINE
  5
2A66F
  8
0
 10
3062.0780724264318451
 20
158.3065138349143979
 30
0.0
 11
3062.0780724264318451
 21
160.5595138349144122
 31
0.0
  0
LINE
  5
2A670
  8
0
 10
3062.1301707952311517
 20
158.3065138349143979
 30
0.0
 11
3062.1251596648321538
 21
158.163013834914409
 31
0.0
  0
LINE
  5
2A671
  8
0
 10
3062.6065724264321943
 20
156.8630138349143976
 30
0.0
 11
3062.6065724264321943
 21
157.7930138349144045
 31
0.0
  0
LINE
  5
2A672
  8
0
 10
3063.1265724264321761
 20
156.8630138349143976
 30
0.0
 11
3063.1265724264321761
 21
157.7930138349144045
 31
0.0
  0
LINE
  5
2A673
  8
0
 10
3063.6029740577309894
 20
158.3065138349143979
 30
0.0
 11
3063.6079851881308969
 21
158.163013834914409
 31
0.0
  0
LINE
  5
2A674
  8
0
 10
3061.8965724264307937
 20
160.5595138349144122
 30
0.0
 11
3063.8365724264322125
 21
160.5595138349144122
 31
0.0
  0
LINE
  5
2A675
  8
0
 10
3061.8665986645310113
 20
160.6195138349143861
 30
0.0
 11
3061.8752671627480595
 21
160.6195138349143861
 31
0.0
  0
LINE
  5
2A676
  8
0
 10
3061.8665724264260461
 20
160.6195138349443141
 30
0.0
 11
3063.8665724264369601
 21
160.6195138349443141
 31
0.0
  0
LINE
  5
2A677
  8
0
 10
3063.6550724264311611
 20
158.3065138349143979
 30
0.0
 11
3063.6550724264311611
 21
160.5595138349144122
 31
0.0
  0
LINE
  5
2A678
  8
0
 10
3063.6665724264307755
 20
158.0930138349143874
 30
0.0
 11
3063.6665724264307755
 21
158.1430138349143988
 31
0.0
  0
LINE
  5
2A679
  8
0
 10
3063.6665724264307755
 20
158.0930138349143874
 30
0.0
 11
3063.6665724264307755
 21
158.1430138349143988
 31
0.0
  0
LINE
  5
2A67A
  8
0
 10
3063.8666472937820799
 20
160.5895138349144133
 30
0.0
 11
3063.8666472937820799
 21
160.6095138349143951
 31
0.0
  0
LINE
  5
2A67B
  8
0
 10
3059.566572426431776
 20
160.7795138349144111
 30
0.0
 11
3066.1665724264307755
 21
160.7795138349144111
 31
0.0
  0
LINE
  5
2A67C
  8
0
 10
3066.1371525819308772
 20
161.789513834914402
 30
0.0
 11
3059.5959922710308092
 21
161.789513834914402
 31
0.0
  0
LINE
  5
2A67D
  8
0
 10
3066.2666472937821709
 20
160.8795138349144054
 30
0.0
 11
3066.2666472937821709
 21
161.0323765597144074
 31
0.0
  0
LINE
  5
2A67E
  8
0
 10
3066.1371525819308772
 20
161.789513834914402
 30
0.0
 11
3066.2666472937821709
 21
161.0323765597144074
 31
0.0
  0
ARC
  5
2A67F
  8
0
 10
3060.5114253576321062
 20
157.665520534014405
 30
0.0
 40
3.25
 50
65.3566671736067804
 51
73.365781839994753
  0
ARC
  5
2A680
  8
0
 10
3065.2217194952318096
 20
157.665520534014405
 30
0.0
 40
3.25
 50
106.6342181600052044
 51
114.6433328263932054
  0
CIRCLE
  5
2A681
  8
0
 10
3062.8665724264310484
 20
156.6680138349144045
 30
0.0
 40
0.325
  0
ARC
  5
2A682
  8
0
 10
3062.3265724264310848
 20
157.7930138349144045
 30
0.0
 40
0.28
 50
0.0
 51
89.9999955669064349
  0
ARC
  5
2A683
  8
0
 10
3063.406572426431012
 20
157.7930138349144045
 30
0.0
 40
0.28
 50
90.0000044330935509
 51
180.0
  0
ARC
  5
2A684
  8
0
 10
3059.5665195350370595
 20
160.8793861437949033
 30
0.0
 40
0.099872322885869
 50
179.9267448276872869
 51
270.0303432790253169
  0
ARC
  5
2A685
  8
0
 10
3066.1665194393522142
 20
160.8796417570389963
 30
0.0
 40
0.1001279361447469
 50
270.0303205703575031
 51
359.9267996513445951
  0
ARC
  5
2A686
  8
0
 10
3063.8365193274630656
 20
160.5896420271641887
 30
0.0
 40
0.0301282390414253
 50
270.1009799596524203
 51
359.7562122025100848
  0
ARC
  5
2A687
  8
0
 10
3061.8965195955188392
 20
160.589386361927609
 30
0.0
 40
0.0298725737301077
 50
179.7555052880209985
 51
270.1013300653133911
  0
ARC
  5
2A688
  8
0
 10
3063.6465724264307937
 20
158.1430138349143988
 30
0.0
 40
0.02
 50
0.0
 51
90.0
  0
ARC
  5
2A689
  8
0
 10
3063.6465724264307937
 20
158.0930138349143874
 30
0.0
 40
0.02
 50
270.0
 51
0.0
  0
ARC
  5
2A68A
  8
0
 10
3062.0865724301411319
 20
158.0930138364510071
 30
0.0
 40
0.0200000037095452
 50
180.0000044018713936
 51
270.0267086827659
  0
ARC
  5
2A68B
  8
0
 10
3062.0865724264308483
 20
158.1430138349143988
 30
0.0
 40
0.02
 50
90.0
 51
180.0
  0
ARC
  5
2A68C
  8
0
 10
3061.8766666729961798
 20
160.6095923683571129
 30
0.0
 40
0.0100196870014298
 50
98.0290996103019268
 51
180.4490839771731032
  0
ARC
  5
2A68D
  8
0
 10
3063.8563193314807904
 20
160.6093019187003108
 30
0.0
 40
0.0103301361928606
 50
1.1754691560143651
 51
81.3234895213785336
  0
LINE
  5
2A6E3
  8
0
 10
3066.2666472937821709
 20
161.0323765597144074
 30
0.0
 11
3059.4666472937810795
 21
161.0323765597144074
 31
0.0
  0
ATTDEF
  5
2A82F
  8
DEFPOINTS
 10
3062.8550001022899778
 20
161.7865513084182112
 30
0.0
 40
0.001
  1
K-T14501-4
  3

  2
MODELNUMBER
 70
     0
1001
ACDBATTR
1070
     0
1070
     1
  0
ATTDEF
  5
2A830
  8
DEFPOINTS
 10
3062.8550001022899778
 20
161.7848846417514892
 30
0.0
 40
0.001
  1
PURIST
  3

  2
TRADENAME
 70
     0
1001
ACDBATTR
1070
     0
1070
     1
  0
ATTDEF
  5
2A831
  8
DEFPOINTS
 10
3062.8550001022899778
 20
161.7832179750847956
 30
0.0
 40
0.001
  1
VALVE TRIM
  3

  2
PRODUCT
 70
     0
1001
ACDBATTR
1070
     0
1070
     1
  0
ENDSEC
  0
EOF
