  0
SECTION
  2
HEADER
  9
$ACADVER
  1
AC1009
  9
$INSBASE
 10
-36212.6085247705486836
 20
-17260.3501630434584513
 30
0.0
  9
$EXTMIN
 10
-36219.6566721877024975
 20
-17260.3556687565906032
 30
0.0
  9
$EXTMAX
 10
-36205.5603742812963901
 20
-17254.3599923827096063
 30
0.0
  9
$LIMMIN
 10
0.0
 20
0.0
  9
$LIMMAX
 10
11.6929133858000007
 20
8.2677165353999982
  9
$ORTHOMODE
 70
     0
  9
$REGENMODE
 70
     1
  9
$FILLMODE
 70
     1
  9
$QTEXTMODE
 70
     0
  9
$MIRRTEXT
 70
     0
  9
$DRAGMODE
 70
     2
  9
$LTSCALE
 40
0.6431102362
  9
$OSMODE
 70
  4095
  9
$ATTMODE
 70
     1
  9
$TEXTSIZE
 40
0.2
  9
$TRACEWID
 40
0.05
  9
$TEXTSTYLE
  7
STANDARD
  9
$CLAYER
  8
0
  9
$CELTYPE
  6
BYLAYER
  9
$CECOLOR
 62
   256
  9
$DIMSCALE
 40
1.0
  9
$DIMASZ
 40
0.1875
  9
$DIMEXO
 40
0.0625
  9
$DIMDLI
 40
0.4443307087
  9
$DIMRND
 40
0.0
  9
$DIMDLE
 40
0.0
  9
$DIMEXE
 40
0.125
  9
$DIMTP
 40
0.01
  9
$DIMTM
 40
0.01
  9
$DIMTXT
 40
2.0
  9
$DIMCEN
 40
0.1052362205
  9
$DIMTSZ
 40
0.0
  9
$DIMTOL
 70
     1
  9
$DIMLIM
 70
     0
  9
$DIMTIH
 70
     1
  9
$DIMTOH
 70
     1
  9
$DIMSE1
 70
     0
  9
$DIMSE2
 70
     0
  9
$DIMTAD
 70
     0
  9
$DIMZIN
 70
     0
  9
$DIMBLK
  1

  9
$DIMASO
 70
     1
  9
$DIMSHO
 70
     1
  9
$DIMPOST
  1
\X
  9
$DIMAPOST
  1

  9
$DIMALT
 70
     1
  9
$DIMALTD
 70
     2
  9
$DIMALTF
 40
25.3999999999999986
  9
$DIMLFAC
 40
1.0
  9
$DIMTOFL
 70
     0
  9
$DIMTVP
 40
0.0
  9
$DIMTIX
 70
     0
  9
$DIMSOXD
 70
     0
  9
$DIMSAH
 70
     0
  9
$DIMBLK1
  1

  9
$DIMBLK2
  1

  9
$DIMSTYLE
  2
STANDARD
  9
$DIMCLRD
 70
     0
  9
$DIMCLRE
 70
     0
  9
$DIMCLRT
 70
     0
  9
$DIMTFAC
 40
1.0
  9
$DIMGAP
 40
0.09
  9
$LUNITS
 70
     2
  9
$LUPREC
 70
     4
  9
$SKETCHINC
 40
0.1
  9
$FILLETRAD
 40
0.0
  9
$AUNITS
 70
     0
  9
$AUPREC
 70
     0
  9
$MENU
  1
.
  9
$ELEVATION
 40
0.0
  9
$PELEVATION
 40
0.0
  9
$THICKNESS
 40
0.0
  9
$LIMCHECK
 70
     0
  9
$BLIPMODE
 70
     0
  9
$CHAMFERA
 40
0.0
  9
$CHAMFERB
 40
0.0
  9
$SKPOLY
 70
     0
  9
$TDCREATE
 40
2458060.468368056230247
  9
$TDUPDATE
 40
2459951.4630439821630716
  9
$TDINDWG
 40
0.3803774306
  9
$TDUSRTIMER
 40
0.3803774306
  9
$USRTIMER
 70
     1
  9
$ANGBASE
 50
0.0
  9
$ANGDIR
 70
     0
  9
$PDMODE
 70
     0
  9
$PDSIZE
 40
0.3125
  9
$PLINEWID
 40
0.0
  9
$COORDS
 70
     1
  9
$SPLFRAME
 70
     0
  9
$SPLINETYPE
 70
     6
  9
$SPLINESEGS
 70
     8
  9
$ATTDIA
 70
     1
  9
$ATTREQ
 70
     1
  9
$HANDLING
 70
     1
  9
$HANDSEED
  5
8CAD
  9
$SURFTAB1
 70
     6
  9
$SURFTAB2
 70
     6
  9
$SURFTYPE
 70
     6
  9
$SURFU
 70
     6
  9
$SURFV
 70
     6
  9
$UCSNAME
  2

  9
$UCSORG
 10
0.0
 20
0.0
 30
0.0
  9
$UCSXDIR
 10
1.0
 20
0.0
 30
0.0
  9
$UCSYDIR
 10
0.0
 20
1.0
 30
0.0
  9
$PUCSNAME
  2

  9
$PUCSORG
 10
0.0
 20
0.0
 30
0.0
  9
$PUCSXDIR
 10
1.0
 20
0.0
 30
0.0
  9
$PUCSYDIR
 10
0.0
 20
1.0
 30
0.0
  9
$USERI1
 70
     0
  9
$USERI2
 70
     0
  9
$USERI3
 70
     0
  9
$USERI4
 70
     0
  9
$USERI5
 70
     0
  9
$USERR1
 40
0.0
  9
$USERR2
 40
0.0
  9
$USERR3
 40
0.0
  9
$USERR4
 40
0.0
  9
$USERR5
 40
0.0
  9
$WORLDVIEW
 70
     1
  9
$SHADEDGE
 70
     3
  9
$SHADEDIF
 70
    70
  9
$TILEMODE
 70
     1
  9
$MAXACTVP
 70
    64
  9
$PLIMCHECK
 70
     0
  9
$PEXTMIN
 10
1.0000000000000000E+20
 20
1.0000000000000000E+20
 30
1.0000000000000000E+20
  9
$PEXTMAX
 10
-1.0000000000000000E+20
 20
-1.0000000000000000E+20
 30
-1.0000000000000000E+20
  9
$PLIMMIN
 10
0.0
 20
0.0
  9
$PLIMMAX
 10
12.0
 20
9.0
  9
$UNITMODE
 70
     0
  9
$VISRETAIN
 70
     1
  9
$PLINEGEN
 70
     0
  9
$PSLTSCALE
 70
     1
  0
ENDSEC
  0
SECTION
  2
TABLES
  0
TABLE
  2
VPORT
 70
     1
  0
VPORT
  2
*ACTIVE
 70
     0
 10
0.0
 20
0.0
 11
1.0
 21
1.0
 12
-40127.433768415969098
 22
-17379.5595184356207028
 13
0.0
 23
0.0
 14
1.0
 24
1.0
 15
0.0
 25
0.0
 16
0.0
 26
0.0
 36
60.2538140246172205
 17
3914.8226318359379547
 27
119.2012214660643963
 37
0.0
 40
0.0455966818157834
 41
2.5251322751322749
 42
50.0
 43
0.0
 44
0.0
 50
0.0
 51
0.0
 71
     0
 72
   100
 73
     1
 74
     1
 75
     0
 76
     0
 77
     0
 78
     0
  0
ENDTAB
  0
TABLE
  2
LTYPE
 70
     2
  0
LTYPE
  2
CONTINUOUS
 70
     0
  3
Solid line
 72
    65
 73
     0
 40
0.0
  0
LTYPE
  2
PHANTOM2
 70
     0
  3
___ _ _ ___ _ _ ___ _ _ ___ _ _
 72
    65
 73
     6
 40
1.25
 49
0.625
 49
-0.125
 49
0.125
 49
-0.125
 49
0.125
 49
-0.125
  0
ENDTAB
  0
TABLE
  2
LAYER
 70
     2
  0
LAYER
  2
0
 70
     0
 62
   255
  6
CONTINUOUS
  0
LAYER
  2
DEFPOINTS
 70
     0
 62
     7
  6
CONTINUOUS
  0
ENDTAB
  0
TABLE
  2
STYLE
 70
     1
  0
STYLE
  2
STANDARD
 70
     0
 40
0.0
 41
0.8
 50
0.0
 71
     0
 42
0.2
  3
txt
  4

  0
ENDTAB
  0
TABLE
  2
VIEW
 70
     0
  0
ENDTAB
  0
TABLE
  2
UCS
 70
     0
  0
ENDTAB
  0
TABLE
  2
APPID
 70
    10
  0
APPID
  2
ACAD
 70
     0
  0
APPID
  2
ACAD_MLEADERVER
 70
     0
  0
APPID
  2
ACAD_EXEMPT_FROM_CAD_STANDARDS
 70
     0
  0
APPID
  2
ACAD_NAV_VCDISPLAY
 70
     0
  0
APPID
  2
ACAECLAYERSTANDARD
 70
     0
  0
APPID
  2
ACCMTRANSPARENCY
 70
     0
  0
APPID
  2
ACAD_DSTYLE_DIMJAG
 70
     0
  0
APPID
  2
ACAD_DSTYLE_DIMTALN
 70
     0
  0
APPID
  2
ACDBATTR
 70
     0
  0
APPID
  2
ACADANNOTATIVE
 70
     0
  0
ENDTAB
  0
TABLE
  2
DIMSTYLE
 70
     2
  0
DIMSTYLE
  2
STANDARD
 70
     0
  3

  4

  5

  6

  7

 40
1.0
 41
0.1875
 42
0.0625
 43
0.38
 44
0.125
 45
0.0
 46
0.0
 47
0.01
 48
0.01
140
0.15625
141
0.09
142
0.0
143
25.3999999999999986
144
1.0
145
0.0
146
1.0
147
0.09
 71
     1
 72
     0
 73
     1
 74
     1
 75
     0
 76
     0
 77
     0
 78
     4
170
     0
171
     2
172
     0
173
     0
174
     0
175
     0
176
     0
177
     0
178
     0
  0
DIMSTYLE
  2
ANNOTATIVE
 70
     0
  3

  4

  5

  6

  7

 40
0.0
 41
0.18
 42
0.0625
 43
0.38
 44
0.18
 45
0.0
 46
0.0
 47
0.0
 48
0.0
140
0.18
141
0.09
142
0.0
143
25.3999999999999986
144
1.0
145
0.0
146
1.0
147
0.09
 71
     0
 72
     0
 73
     1
 74
     1
 75
     0
 76
     0
 77
     0
 78
     0
170
     0
171
     2
172
     0
173
     0
174
     0
175
     0
176
     0
177
     0
178
     0
  0
ENDTAB
  0
ENDSEC
  0
SECTION
  2
BLOCKS
  0
BLOCK
  8
0
  2
$MODEL_SPACE
 70
     0
 10
0.0
 20
0.0
 30
0.0
  3
$MODEL_SPACE
  1

  0
ENDBLK
  5
21
  8
0
  0
BLOCK
 67
     1
  8
0
  2
$PAPER_SPACE
 70
     0
 10
0.0
 20
0.0
 30
0.0
  3
$PAPER_SPACE
  1

  0
ENDBLK
  5
1D
 67
     1
  8
0
  0
BLOCK
  8
0
  2
_FILLED
 70
     0
 10
0.0
 20
0.0
 30
0.0
  3
_FILLED
  1

  0
SOLID
  5
7203
  8
0
  6
BYBLOCK
 62
     0
 10
0.0
 20
0.0
 30
0.0
 11
-1.0
 21
0.1666666667
 31
0.0
 12
-1.0
 22
-0.1666666667
 32
0.0
 13
-1.0
 23
-0.1666666667
 33
0.0
  0
ENDBLK
  5
7204
  8
0
  6
BYBLOCK
 62
     0
  0
BLOCK
  8
0
  2
A$C7244D1A3
 70
     2
 10
0.0
 20
0.0
 30
0.0
  3
A$C7244D1A3
  1

  0
LINE
  5
7B64
  8
0
 10
27.5801309042119591
 20
21.8139801302080798
 30
0.0
 11
43.3381960339892132
 21
21.8139801302080798
 31
0.0
  0
ARC
  5
7B65
  8
0
 10
27.5768677386060403
 20
21.674924162909889
 30
0.0
 40
0.1390942496690901
 50
88.6557117351550232
 51
140.1738818121214081
  0
ARC
  5
7B66
  8
0
 10
27.7160052212331607
 20
21.5573277301322399
 30
0.0
 40
0.3212687140394075
 50
139.9596732521075921
 51
170.2262582503350927
  0
LINE
  5
7B67
  8
0
 10
27.3872589081276487
 20
21.4518922060073294
 30
0.0
 11
27.4566728913252405
 21
18.6290248568097105
 31
0.0
  0
LINE
  5
7B68
  8
0
 10
27.4566728913252405
 20
18.6290248568097105
 30
0.0
 11
43.4595772084268788
 21
18.6290248568097105
 31
0.0
  0
LINE
  5
7B69
  8
0
 10
43.4595772084268788
 20
18.6290248568097105
 30
0.0
 11
43.5289911765777902
 21
21.4518922065421087
 31
0.0
  0
LINE
  5
7B6A
  8
0
 10
27.517180167930011
 20
18.6290248568097105
 30
0.0
 11
27.517180167930011
 21
18.5699697387084584
 31
0.0
  0
LINE
  5
7B6B
  8
0
 10
27.517180167930011
 20
18.5699697387084584
 30
0.0
 11
43.3990699317275173
 21
18.5699697387084584
 31
0.0
  0
LINE
  5
7B6C
  8
0
 10
43.3990699317275173
 20
18.5699697387084584
 30
0.0
 11
43.3990699317275173
 21
18.6290248568097105
 31
0.0
  0
ARC
  5
7B6D
  8
0
 10
29.1594277012465604
 20
18.3381848990051388
 30
0.0
 40
0.2317854610503457
 50
64.5716613989620214
 51
90.1326667622966937
  0
LINE
  5
7B6E
  8
0
 10
36.616326721536268
 20
14.9085524159076197
 30
0.0
 11
34.2999233673819504
 21
14.9085524159076197
 31
0.0
  0
ARC
  5
7B6F
  8
0
 10
34.2999233728316426
 20
15.1054037348025307
 30
0.0
 40
0.1968513188927612
 50
185.0002467646571915
 51
269.9999984145990197
  0
LINE
  5
7B70
  8
0
 10
34.103821206530661
 20
15.0882461673085402
 30
0.0
 11
34.003505805141863
 21
16.2347995778494791
 31
0.0
  0
ARC
  5
7B71
  8
0
 10
33.8082910652576132
 20
16.21771965396184
 30
0.0
 40
0.195960502314323
 50
5.0002467646572324
 51
16.9997622622603295
  0
LINE
  5
7B72
  8
0
 10
33.9956892633255805
 20
16.2750121825069094
 30
0.0
 11
33.3918046343298514
 21
16.2751786712091402
 31
0.0
  0
LINE
  5
7B73
  8
0
 10
33.3918046343298514
 20
16.2751786712091402
 30
0.0
 11
33.3507212047245005
 21
16.2749483379069808
 31
0.0
  0
ARC
  5
7B74
  8
0
 10
33.3508109686137573
 20
15.7127953544026298
 30
0.0
 40
0.5621529906704575
 50
90.0091489183701867
 51
97.3073844973903448
  0
ARC
  5
7B75
  8
0
 10
32.8985033951086621
 20
19.5216551439065391
 30
0.0
 40
3.273497597696764
 50
270.9774203285127214
 51
276.680343065478894
  0
ARC
  5
7B76
  8
0
 10
32.8878209686865333
 20
17.8624538911921285
 30
0.0
 40
1.61519051955281
 50
264.1571383511176805
 51
272.3604424311083108
  0
ARC
  5
7B77
  8
0
 10
32.7352038631999633
 20
16.4027461397075989
 30
0.0
 40
0.1475649442305193
 50
202.1312555934048873
 51
265.4095148896590786
  0
LINE
  5
7B78
  8
0
 10
32.5985110233288466
 20
16.34715405130774
 30
0.0
 11
32.5417036267155595
 21
16.5032503201531711
 31
0.0
  0
ARC
  5
7B79
  8
0
 10
32.3555367871942394
 20
16.434749111273419
 30
0.0
 40
0.1983696240772639
 50
20.2013956959558989
 51
76.0231535105473739
  0
ARC
  5
7B7A
  8
0
 10
33.8662946394962887
 20
22.6159367023014113
 30
0.0
 40
6.1647658159282601
 50
252.2340438413804975
 51
256.2732706435310774
  0
LINE
  5
7B7B
  8
0
 10
31.9852426203926292
 20
16.745163255242371
 30
0.0
 11
31.9572599935256108
 21
16.7452946627076109
 31
0.0
  0
ARC
  5
7B7C
  8
0
 10
31.9547346009259812
 20
16.2075237007542512
 30
0.0
 40
0.5377768915915168
 50
89.7309388490477744
 51
97.563685174229775
  0
ARC
  5
7B7D
  8
0
 10
31.4580007181995711
 20
20.3602423375181516
 30
0.0
 40
3.6445968548624972
 50
270.8479663718482016
 51
276.7115476128914224
  0
ARC
  5
7B7E
  8
0
 10
31.4359124231979798
 20
18.6155095421221688
 30
0.0
 40
1.9009857667791481
 50
264.4553402256227059
 51
272.2920270687354218
  0
ARC
  5
7B7F
  8
0
 10
31.2607425375301204
 20
16.8732915304994116
 30
0.0
 40
0.1501146055183809
 50
201.5217390701724014
 51
266.7515384837644774
  0
LINE
  5
7B80
  8
0
 10
31.1210941559312992
 20
16.8182213543062993
 30
0.0
 11
31.0332908362017292
 21
17.0883400478764109
 31
0.0
  0
ARC
  5
7B81
  8
0
 10
30.8241342509047094
 20
17.0149540481456008
 30
0.0
 40
0.2216569635315092
 50
19.3302489824351795
 51
33.3392951957363621
  0
ARC
  5
7B82
  8
0
 10
-116.8535561448314013
 20
-205.7728990256343025
 30
0.0
 40
267.4923387419200935
 50
56.4424548548212286
 51
56.5443973215802274
  0
ARC
  5
7B83
  8
0
 10
34.0118488229620084
 20
22.5966770125327514
 30
0.0
 40
6.21018210412862
 50
232.1606473374523887
 51
236.8120172642043997
  0
ARC
  5
7B84
  8
0
 10
30.0528485079614214
 20
13.4359778916354191
 30
0.0
 40
4.2589280816333162
 50
87.9901455755481834
 51
92.3493964513667152
  0
ARC
  5
7B85
  8
0
 10
29.1581998072198907
 20
18.3319361793896007
 30
0.0
 40
0.2379612657436342
 50
42.9547966724695129
 51
64.9506838779444422
  0
ARC
  5
7B86
  8
0
 10
35.9132022923569707
 20
24.6211215789175206
 30
0.0
 40
8.9915518072098664
 50
222.9547966724695129
 51
224.9702141602201948
  0
ARC
  5
7B87
  8
0
 10
29.3880892126164213
 20
18.1087768649653285
 30
0.0
 40
0.2273659205940667
 50
28.238778769474699
 51
43.9026723781127686
  0
ARC
  5
7B88
  8
0
 10
29.4174208602327703
 20
18.1285941927039005
 30
0.0
 40
0.1921820710696922
 50
12.8713870780247994
 51
27.1712369873461199
  0
ARC
  5
7B89
  8
0
 10
97.0752236789105041
 20
33.5887437461700813
 30
0.0
 40
69.2095074362207754
 50
192.8713870780248101
 51
193.078411373575193
  0
ARC
  5
7B8A
  8
0
 10
-122.3182011666447977
 20
-17.3785707346447396
 30
0.0
 40
156.0262401946756086
 50
13.02300650040522
 51
13.0784113735754008
  0
ARC
  5
7B8B
  8
0
 10
29.8112478684326483
 20
17.8013534229088712
 30
0.0
 40
0.1180704340565466
 50
190.0552518280179015
 51
228.9320893677709137
  0
ARC
  5
7B8C
  8
0
 10
29.8113243852987502
 20
17.8012991019917592
 30
0.0
 40
0.1180797847238996
 50
228.886781182455195
 51
265.2928657072582155
  0
ARC
  5
7B8D
  8
0
 10
29.8114237224637613
 20
17.8006394942625796
 30
0.0
 40
0.1174306534423079
 50
265.2181511739985922
 51
289.34532147311279
  0
LINE
  5
7B8E
  8
0
 10
29.8782613590284996
 20
17.6913260245077311
 30
0.0
 11
29.8503238998584415
 21
17.6898390675181894
 31
0.0
  0
ARC
  5
7B8F
  8
0
 10
36.1341840152583131
 20
16.5695020370716612
 30
0.0
 40
2.1545704822400031
 50
187.8068974726911904
 51
223.4321311960808032
  0
ARC
  5
7B90
  8
0
 10
50.0487717087582382
 20
19.4240692738880192
 30
0.0
 40
16.3548625140483814
 50
186.2858750566365131
 51
191.0948687165067099
  0
ARC
  5
7B91
  8
0
 10
-513.2397365016020103
 20
-48.9757201969237883
 30
0.0
 40
551.0723646141028667
 50
6.9424191739237511
 51
6.9812816472083901
  0
ARC
  5
7B92
  8
0
 10
71.7518699657504726
 20
22.7319735172117383
 30
0.0
 40
38.2978501668575007
 50
186.5512887679180096
 51
187.0907898987632905
  0
ARC
  5
7B93
  8
0
 10
33.4686064236868219
 20
18.3335155035951196
 30
0.0
 40
0.2372673679057446
 50
7.0102597101326198
 51
85.2551392694850279
  0
ARC
  5
7B94
  8
0
 10
41.7568223985637701
 20
18.3381848990051388
 30
0.0
 40
0.2317854610503457
 50
89.8673332377033063
 51
115.428338601038007
  0
ARC
  5
7B95
  8
0
 10
36.6163267269859602
 20
15.1054037348025307
 30
0.0
 40
0.19685131889276
 50
269.9999984145990197
 51
354.9997532353427232
  0
LINE
  5
7B96
  8
0
 10
36.812428893286949
 20
15.0882461673085402
 30
0.0
 11
36.9127442946757469
 21
16.2347995778494791
 31
0.0
  0
ARC
  5
7B97
  8
0
 10
37.1079590345527208
 20
16.21771965396184
 30
0.0
 40
0.195960502314323
 50
163.0002377377396101
 51
174.9997532353428085
  0
LINE
  5
7B98
  8
0
 10
36.9205608364847606
 20
16.2750121825069094
 30
0.0
 11
37.5244454654877586
 21
16.2751786712091402
 31
0.0
  0
LINE
  5
7B99
  8
0
 10
37.5244454654877586
 20
16.2751786712091402
 30
0.0
 11
37.5655288950858335
 21
16.2749483379069808
 31
0.0
  0
ARC
  5
7B9A
  8
0
 10
37.5654391311965696
 20
15.7127953544026298
 30
0.0
 40
0.5621529906704575
 50
82.6926155026096836
 51
89.9908510816298133
  0
ARC
  5
7B9B
  8
0
 10
38.0177467047016577
 20
19.5216551439065391
 30
0.0
 40
3.273497597696764
 50
263.3196569345209923
 51
269.0225796714872786
  0
ARC
  5
7B9C
  8
0
 10
38.0284291311238007
 20
17.8624538911921285
 30
0.0
 40
1.61519051955281
 50
267.6395575688916892
 51
275.8428616488823195
  0
ARC
  5
7B9D
  8
0
 10
38.1810462366103707
 20
16.4027461397075989
 30
0.0
 40
0.1475649442305193
 50
274.5904851103409214
 51
337.8687444065951127
  0
LINE
  5
7B9E
  8
0
 10
38.3177390764814731
 20
16.34715405130774
 30
0.0
 11
38.3745464730947674
 21
16.5032503201531711
 31
0.0
  0
ARC
  5
7B9F
  8
0
 10
38.5607133126160875
 20
16.434749111273419
 30
0.0
 40
0.1983696240772591
 50
103.9768464894525977
 51
159.7986043040440904
  0
ARC
  5
7BA0
  8
0
 10
37.0499554603140382
 20
22.6159367023014113
 30
0.0
 40
6.1647658159282601
 50
283.7267293564689226
 51
287.7659561586194741
  0
LINE
  5
7BA1
  8
0
 10
38.9310074794177012
 20
16.745163255242371
 30
0.0
 11
38.9589901062847233
 21
16.7452946627076109
 31
0.0
  0
ARC
  5
7BA2
  8
0
 10
38.9615154988843528
 20
16.2075237007542512
 30
0.0
 40
0.5377768915915168
 50
82.4363148257702392
 51
90.2690611509522398
  0
ARC
  5
7BA3
  8
0
 10
39.4582493816180317
 20
20.3602423375181516
 30
0.0
 40
3.6445968548624972
 50
263.2884523871085207
 51
269.1520336281517984
  0
ARC
  5
7BA4
  8
0
 10
39.4803376766196266
 20
18.6155095421221688
 30
0.0
 40
1.9009857667791481
 50
267.7079729312645782
 51
275.5446597743772941
  0
ARC
  5
7BA5
  8
0
 10
39.6555075622802065
 20
16.8732915304994116
 30
0.0
 40
0.1501146055183809
 50
273.2484615162355226
 51
338.478260929827627
  0
LINE
  5
7BA6
  8
0
 10
39.7951559438863001
 20
16.8182213543062993
 30
0.0
 11
39.8829592636085977
 21
17.0883400478764109
 31
0.0
  0
ARC
  5
7BA7
  8
0
 10
40.0921158489056211
 20
17.0149540481456008
 30
0.0
 40
0.2216569635315092
 50
146.6607048042635881
 51
160.6697510175648063
  0
ARC
  5
7BA8
  8
0
 10
187.7698062446416998
 20
-205.7728990256343025
 30
0.0
 40
267.4923387419200935
 50
123.455602678419794
 51
123.5575451451786932
  0
ARC
  5
7BA9
  8
0
 10
36.9044012768483185
 20
22.5966770125327514
 30
0.0
 40
6.21018210412862
 50
303.1879827357955719
 51
307.8393526625475829
  0
ARC
  5
7BAA
  8
0
 10
40.8634015918489126
 20
13.4359778916354191
 30
0.0
 40
4.2589280816333162
 50
87.6506035486332848
 51
92.0098544244518024
  0
ARC
  5
7BAB
  8
0
 10
41.7580502925904398
 20
18.3319361793896007
 30
0.0
 40
0.2379612657436342
 50
115.049316122055501
 51
137.0452033275304871
  0
ARC
  5
7BAC
  8
0
 10
35.0030478074606322
 20
24.6211215789175206
 30
0.0
 40
8.9915518072098664
 50
315.0297858397796062
 51
317.0452033275304871
  0
ARC
  5
7BAD
  8
0
 10
41.5281608871938985
 20
18.1087768649653285
 30
0.0
 40
0.2273659205940667
 50
136.0973276218871888
 51
151.7612212305253081
  0
ARC
  5
7BAE
  8
0
 10
41.4988292395775602
 20
18.1285941927039005
 30
0.0
 40
0.1921820710696922
 50
152.828763012653809
 51
167.1286129219751899
  0
ARC
  5
7BAF
  8
0
 10
-26.1589735791001807
 20
33.5887437461700813
 30
0.0
 40
69.2095074362207754
 50
346.9215886264246933
 51
347.1286129219752183
  0
ARC
  5
7BB0
  8
0
 10
193.2344512664550962
 20
-17.3785707346447396
 30
0.0
 40
156.0262401946756086
 50
166.921588626424608
 51
166.976993499594812
  0
ARC
  5
7BB1
  8
0
 10
41.1050022313849581
 20
17.8013534229088712
 30
0.0
 40
0.1180704340565466
 50
311.0679106322290863
 51
349.944748171981928
  0
ARC
  5
7BB2
  8
0
 10
41.1049257145115803
 20
17.8012991019917592
 30
0.0
 40
0.1180797847238996
 50
274.7071342927417845
 51
311.113218817544805
  0
ARC
  5
7BB3
  8
0
 10
41.104826377353838
 20
17.8006394942625796
 30
0.0
 40
0.1174306534423079
 50
250.6546785268870963
 51
274.7818488260014078
  0
LINE
  5
7BB4
  8
0
 10
41.0379887407818202
 20
17.6913260245077311
 30
0.0
 11
41.065926199951889
 21
17.6898390675181894
 31
0.0
  0
ARC
  5
7BB5
  8
0
 10
34.7820661645438918
 20
16.5695020130537216
 30
0.0
 40
2.1545703997242889
 50
316.5678676059333156
 51
352.1931028712930924
  0
ARC
  5
7BB6
  8
0
 10
20.8674783910520887
 20
19.4240692738880192
 30
0.0
 40
16.3548625140483814
 50
348.9051312834931764
 51
353.7141249433634016
  0
ARC
  5
7BB7
  8
0
 10
584.1559866014124509
 20
-48.9757201969237883
 30
0.0
 40
551.0723646141028667
 50
173.018718352791609
 51
173.0575808260761903
  0
ARC
  5
7BB8
  8
0
 10
-0.8356198659328697
 20
22.7319735172117383
 30
0.0
 40
38.2978501668575007
 50
352.9092101012366811
 51
353.4487112320820188
  0
ARC
  5
7BB9
  8
0
 10
37.4476436761235121
 20
18.3335155035951196
 30
0.0
 40
0.2372673679057446
 50
94.7448607305149864
 51
172.9897402898673135
  0
ARC
  5
7BBA
  8
0
 10
33.4404375582000171
 20
17.9725817281527291
 30
0.0
 40
0.3081722273438976
 50
5.9147471206875393
 51
72.3948141110140568
  0
LINE
  5
7BBB
  8
0
 10
30.5376010522506398
 20
18.2661291200769504
 30
0.0
 11
33.5336461478129308
 21
18.2663201841445684
 31
0.0
  0
LINE
  5
7BBC
  8
0
 10
30.5376010522506398
 20
18.2661291200769504
 30
0.0
 11
30.5025140807248896
 21
18.2665859884094992
 31
0.0
  0
LINE
  5
7BBD
  8
0
 10
30.5025140807248896
 20
18.2665859884094992
 30
0.0
 11
30.4702091929267986
 21
18.2662995724080304
 31
0.0
  0
ARC
  5
7BBE
  8
0
 10
31.2767638199204114
 20
-9.3620696871454072
 30
0.0
 40
27.6401396217282311
 50
91.6721600372213032
 51
92.6261007063100266
  0
ARC
  5
7BBF
  8
0
 10
29.8472032912088103
 20
22.6384954559966083
 30
0.0
 40
4.3924838850135863
 50
267.2481629923991022
 51
272.1285352340188979
  0
ARC
  5
7BC0
  8
0
 10
29.6486712041498208
 20
18.5584929776035992
 30
0.0
 40
0.3076642451770706
 50
251.6693341510417099
 51
267.6991388512450953
  0
ARC
  5
7BC1
  8
0
 10
33.741874085657571
 20
17.7052586371086385
 30
0.0
 40
0.0724719948628137
 50
62.2026709592218765
 51
94.4696404812444683
  0
ARC
  5
7BC2
  8
0
 10
33.7350293819092215
 20
17.4762656497463489
 30
0.0
 40
0.3012469557562348
 50
89.7723545533746545
 51
96.9836112053494759
  0
LINE
  5
7BC3
  8
0
 10
33.6984021406298666
 20
17.7752776454093713
 30
0.0
 11
30.7803566683271015
 21
17.7752434563066402
 31
0.0
  0
LINE
  5
7BC4
  8
0
 10
30.7803566646309186
 20
17.7752394328075809
 30
0.0
 11
30.6340433471252105
 21
17.7796717486075089
 31
0.0
  0
ARC
  5
7BC5
  8
0
 10
30.5391301388792193
 20
14.6465316474845206
 30
0.0
 40
3.1345773894356199
 50
88.2648513960640884
 51
89.5885443475493162
  0
ARC
  5
7BC6
  8
0
 10
29.9291536981456296
 20
47.954745197321607
 30
0.0
 40
30.1803451910132203
 50
269.6504516167457837
 51
271.2008297812320166
  0
ARC
  5
7BC7
  8
0
 10
29.7376036859552109
 20
18.1119383285280513
 30
0.0
 40
0.3370585305438146
 50
265.0201925983145088
 51
271.2627370504475834
  0
ARC
  5
7BC8
  8
0
 10
29.7074915429240605
 20
17.7953148635300806
 30
0.0
 40
0.0191818037019689
 50
229.3002793789316911
 51
272.5514152379678876
  0
ARC
  5
7BC9
  8
0
 10
31.0343352006804594
 20
17.0890433581720593
 30
0.0
 40
0.0012637112276254
 50
90.9363488271733473
 51
184.1607295340500912
  0
ARC
  5
7BCA
  8
0
 10
31.0260900523991801
 20
17.0434679882331714
 30
0.0
 40
0.0475555051520592
 50
61.1336527279834314
 51
80.0408954287553769
  0
ARC
  5
7BCB
  8
0
 10
31.216131887440671
 20
17.5694691626326005
 30
0.0
 40
0.5123633670294538
 50
250.9675484504570875
 51
273.9457918441676156
  0
ARC
  5
7BCC
  8
0
 10
31.2757032575956906
 20
19.4007704492527395
 30
0.0
 40
2.3425763341526311
 50
269.4052993975312802
 51
278.6869846230752046
  0
ARC
  5
7BCD
  8
0
 10
31.7236396367718001
 20
16.2511269273549317
 30
0.0
 40
0.8392354386692851
 50
86.0080834311493447
 51
96.4394152633921919
  0
ARC
  5
7BCE
  8
0
 10
94.177496773858536
 20
217248.1854644923005253
 30
0.0
 40
217231.1060991515114438
 50
269.9835428953405199
 51
269.9840913953211157
  0
LINE
  5
7BCF
  8
0
 10
31.9852426205381484
 20
16.745163255242371
 30
0.0
 11
33.8779316357305902
 21
16.744649227907221
 31
0.0
  0
ARC
  5
7BD0
  8
0
 10
33.8748895181544825
 20
16.6633206078389797
 30
0.0
 40
0.0813854957695412
 50
58.9943492893543393
 51
87.857835596098937
  0
LINE
  5
7BD1
  8
0
 10
38.9310074794177012
 20
16.745163255242371
 30
0.0
 11
38.9589901062847233
 21
16.7452946627076109
 31
0.0
  0
ARC
  5
7BD2
  8
0
 10
38.9615154988843528
 20
16.2075237007542512
 30
0.0
 40
0.5377768915915168
 50
82.4363148257702392
 51
90.2690611509522398
  0
ARC
  5
7BD3
  8
0
 10
41.5281608871938985
 20
18.1087768649653285
 30
0.0
 40
0.2273659205940667
 50
136.0973276218871888
 51
151.7612212305253081
  0
ARC
  5
7BD4
  8
0
 10
41.4988292395775602
 20
18.1285941927039005
 30
0.0
 40
0.1921820710696922
 50
152.828763012653809
 51
167.1286129219751899
  0
ARC
  5
7BD5
  8
0
 10
37.4758125416103098
 20
17.9725817281527291
 30
0.0
 40
0.3081722273438976
 50
107.6051858889859005
 51
174.0852528793124065
  0
LINE
  5
7BD6
  8
0
 10
40.3786490475596906
 20
18.2661291200769504
 30
0.0
 11
37.3826039519974032
 21
18.2663201841445684
 31
0.0
  0
LINE
  5
7BD7
  8
0
 10
40.3786490475596906
 20
18.2661291200769504
 30
0.0
 11
40.4137360190854267
 21
18.2665859884094992
 31
0.0
  0
LINE
  5
7BD8
  8
0
 10
40.4137360190854267
 20
18.2665859884094992
 30
0.0
 11
40.4460409068835176
 21
18.2662995724080304
 31
0.0
  0
ARC
  5
7BD9
  8
0
 10
39.6394862798899226
 20
-9.3620696871454072
 30
0.0
 40
27.6401396217282311
 50
87.3738992936899876
 51
88.3278399627786825
  0
ARC
  5
7BDA
  8
0
 10
41.069046808601513
 20
22.6384954559966083
 30
0.0
 40
4.3924838850135863
 50
267.8714647659811021
 51
272.7518370076007841
  0
ARC
  5
7BDB
  8
0
 10
41.267578895667782
 20
18.5584929776035992
 30
0.0
 40
0.3076642451770706
 50
272.3008611487549047
 51
288.3306658489582901
  0
ARC
  5
7BDC
  8
0
 10
37.174376014152763
 20
17.7052586371086385
 30
0.0
 40
0.0724719948628137
 50
85.5303595187555032
 51
117.7973290407775977
  0
ARC
  5
7BDD
  8
0
 10
37.1812207179011125
 20
17.4762656497463489
 30
0.0
 40
0.3012469557562348
 50
83.0163887946505383
 51
90.2276454466253455
  0
LINE
  5
7BDE
  8
0
 10
37.2178479591877434
 20
17.7752776454093713
 30
0.0
 11
40.1358934314832183
 21
17.7752434563066402
 31
0.0
  0
LINE
  5
7BDF
  8
0
 10
40.1358934351866878
 20
17.7752394328075809
 30
0.0
 11
40.2822067526851129
 21
17.7796717486075089
 31
0.0
  0
ARC
  5
7BE0
  8
0
 10
40.3771199609383871
 20
14.6465316474845206
 30
0.0
 40
3.1345773894356199
 50
90.4114556524506838
 51
91.7351486039358974
  0
ARC
  5
7BE1
  8
0
 10
40.9870964016647008
 20
47.954745197321607
 30
0.0
 40
30.1803451910132203
 50
268.7991702187679834
 51
270.3495483832542163
  0
ARC
  5
7BE2
  8
0
 10
41.1786464138551125
 20
18.1119383285280513
 30
0.0
 40
0.3370585305438146
 50
268.7372629495524166
 51
274.9798074016854912
  0
ARC
  5
7BE3
  8
0
 10
41.2087585568935424
 20
17.7953148635300806
 30
0.0
 40
0.0191818037019689
 50
267.4485847620321124
 51
310.6997206210681952
  0
ARC
  5
7BE4
  8
0
 10
39.8819148991298675
 20
17.0890433581720593
 30
0.0
 40
0.0012637112276254
 50
355.8392704661577
 51
89.0636511728266669
  0
ARC
  5
7BE5
  8
0
 10
39.8901600474184193
 20
17.0434679882331714
 30
0.0
 40
0.0475555051520592
 50
99.9591045712446089
 51
118.866347272016597
  0
ARC
  5
7BE6
  8
0
 10
39.7001182123769425
 20
17.5694691626326005
 30
0.0
 40
0.5123633670294538
 50
266.0542081558323844
 51
289.0324515495428841
  0
ARC
  5
7BE7
  8
0
 10
39.6405468422146328
 20
19.4007704492527395
 30
0.0
 40
2.3425763341526311
 50
261.3130153769247954
 51
270.5947006024687198
  0
ARC
  5
7BE8
  8
0
 10
39.1926104630458099
 20
16.2511269273549317
 30
0.0
 40
0.8392354386692851
 50
83.5605847366077938
 51
93.9919165688506695
  0
ARC
  5
7BE9
  8
0
 10
-23.2612466740482091
 20
217248.1854644923005253
 30
0.0
 40
217231.1060991515114438
 50
270.0159086046788843
 51
270.0164571046594801
  0
LINE
  5
7BEA
  8
0
 10
38.9310074792721821
 20
16.745163255242371
 30
0.0
 11
37.0383184640870127
 21
16.744649227907221
 31
0.0
  0
ARC
  5
7BEB
  8
0
 10
37.0413605816558515
 20
16.6633206078389797
 30
0.0
 40
0.0813854957695412
 50
92.1421644039010772
 51
121.0056507106455967
  0
LINE
  5
7BEC
  8
0
 10
34.5733522673892324
 20
15.0882459000589808
 30
0.0
 11
34.573354153462958
 21
15.0882459000589808
 31
0.0
  0
LINE
  5
7BED
  8
0
 10
34.5695581112506218
 20
15.0882459000589808
 30
0.0
 11
36.3466919776675965
 21
15.0882459000589808
 31
0.0
  0
ARC
  5
7BEE
  8
0
 10
26.6152137046503299
 20
21.4542252326558902
 30
0.0
 40
0.7720464930732712
 50
359.9059522424540205
 51
0.1047251693980906
  0
ARC
  5
7BEF
  8
0
 10
43.3397938880427205
 20
21.6748448488018788
 30
0.0
 40
0.139144456122255
 50
72.4707208355181649
 51
91.5102945882610754
  0
ARC
  5
7BF0
  8
0
 10
43.3427441042278474
 20
21.6841850933764384
 30
0.0
 40
0.1293493581526035
 50
50.3250994541910401
 51
72.4707208355181649
  0
ARC
  5
7BF1
  8
0
 10
43.2124778048875484
 20
21.55878930117834
 30
0.0
 40
0.3096898415876692
 50
6.1257892478920519
 51
46.5839867595725821
  0
ARC
  5
7BF2
  8
0
 10
42.4919535020728176
 20
21.46361303616359
 30
0.0
 40
1.0370496145210459
 50
0.2748926432389058
 51
5.1455917716684079
  0
ARC
  5
7BF3
  8
0
 10
43.0854536209355317
 20
21.5193026992623402
 30
0.0
 40
0.4409523319858078
 50
4.855042049193619
 51
9.4678534865150077
  0
ARC
  5
7BF4
  8
0
 10
45.6139359395512471
 20
21.4602398479204588
 30
0.0
 40
2.0849614739297229
 50
179.7705727659187005
 51
180.2293979693793915
  0
ARC
  5
7BF5
  8
0
 10
28.0352889909174188
 20
21.492079062163981
 30
0.0
 40
0.6470736506167656
 50
169.3318452965393135
 51
176.4230081775052099
  0
ARC
  5
7BF6
  8
0
 10
28.6852916526460717
 20
21.4514464081315985
 30
0.0
 40
1.2983450785408699
 50
176.4230081775052099
 51
178.7432153193983027
  0
ARC
  5
7BF7
  8
0
 10
25.300211323059731
 20
21.4659077808268215
 30
0.0
 40
2.0870946453604331
 50
359.6152357909875263
 51
0.3847644251719523
  0
LINE
  5
7BF8
  8
0
 10
35.4581250444591092
 20
21.8139801302080798
 30
0.0
 11
58.3542783167766217
 21
36.6598325140801435
 31
0.0
  0
ATTDEF
  5
7BF9
  8
DEFPOINTS
 10
35.4471459467806085
 20
18.5652068066068807
 30
0.0
 40
0.001
  1
BATHROOM SINK
  3

  2
PRODUCT
 70
     0
1001
ACDBATTR
1070
     0
1070
     1
  0
ATTDEF
  5
7BFA
  8
DEFPOINTS
 10
35.4471459467806085
 20
18.5668734732738905
 30
0.0
 40
0.001
  1
VOX
  3

  2
TRADENAME
 70
     0
1001
ACDBATTR
1070
     0
1070
     1
  0
ATTDEF
  5
7BFB
  8
DEFPOINTS
 10
35.4471459467806085
 20
18.5685401399408896
 30
0.0
 40
0.001
  1
K-2661M
  3

  2
MODELNUMBER
 70
     0
1001
ACDBATTR
1070
     0
1070
     1
  0
ENDBLK
  5
7BFF
  8
0
  0
ENDSEC
  0
SECTION
  2
ENTITIES
  0
ATTDEF
  5
761E
  8
DEFPOINTS
 10
-36212.6120896071806783
 20
-17260.3523354232602287
 30
0.0
 40
0.001
  1
K-T15290-4
  3

  2
MODELNUMBER
 70
     0
1001
ACDBATTR
1070
     0
1070
     1
  0
ATTDEF
  5
761F
  8
DEFPOINTS
 10
-36212.6120896071806783
 20
-17260.3540020899308729
 30
0.0
 40
0.001
  1
CORALAIS
  3

  2
TRADENAME
 70
     0
1001
ACDBATTR
1070
     0
1070
     1
  0
ATTDEF
  5
7620
  8
DEFPOINTS
 10
-36212.6120896071806783
 20
-17260.3556687565906032
 30
0.0
 40
0.001
  1
DECK MOUNT BATH FAUCET TRIM
  3

  2
PRODUCT
 70
     0
1001
ACDBATTR
1070
     0
1070
     1
  0
LINE
  5
8A2E
  8
0
 10
-36217.764323731942568
 20
-17260.3501630434584513
 30
0.0
 11
-36215.4527227369471802
 21
-17260.3501630434584513
 31
0.0
  0
ARC
  5
8A2F
  8
0
 10
-36215.4527227369471802
 20
-17260.3101630434612161
 30
0.0
 40
0.04
 50
270.0
 51
5.7105931176715519
  0
LINE
  5
8A30
  8
0
 10
-36214.1077947871017386
 20
-17260.3501630434584513
 30
0.0
 11
-36211.1092547540029045
 21
-17260.3501630434584513
 31
0.0
  0
LINE
  5
8A31
  8
0
 10
-36217.7885232344997348
 20
-17260.1501630434613617
 30
0.0
 11
-36215.4285232344991527
 21
-17260.1501630434613617
 31
0.0
  0
LINE
  5
8A32
  8
0
 10
-36217.7885232344997348
 20
-17260.1501630434613617
 30
0.0
 11
-36217.7885232344997348
 21
-17260.1401630434884282
 31
0.0
  0
LINE
  5
8A33
  8
0
 10
-36217.7898739789015963
 20
-17260.163670487669151
 30
0.0
 11
-36217.8041252193870605
 21
-17260.3061828931604396
 31
0.0
  0
ARC
  5
8A34
  8
0
 10
-36217.764323731942568
 20
-17260.3101630434612161
 30
0.0
 40
0.04
 50
174.2894068823283931
 51
270.0
  0
ARC
  5
8A35
  8
0
 10
-36217.7749484210435185
 20
-17260.1651630434607796
 30
0.0
 40
0.015
 50
90.0
 51
174.2894068823283931
  0
ARC
  5
8A36
  8
0
 10
-36221.6865737401967635
 20
-17257.891785349460406
 30
0.0
 40
4.5000000000000071
 50
330.023848445984072
 51
354.0
  0
LINE
  5
8A37
  8
0
 10
-36217.2112252109873225
 20
-17258.36216343416163
 30
0.0
 11
-36217.1213467699926696
 21
-17257.5070271895601763
 31
0.0
  0
LINE
  5
8A38
  8
0
 10
-36217.091511113132583
 20
-17257.4801630434594699
 30
0.0
 11
-36216.125535355793545
 21
-17257.4801630434594699
 31
0.0
  0
LINE
  5
8A39
  8
0
 10
-36216.1275172451132676
 20
-17257.4601630434590334
 30
0.0
 11
-36217.0895092303617275
 21
-17257.4601630434590334
 31
0.0
  0
LINE
  5
8A3A
  8
0
 10
-36217.0885232344880933
 20
-17257.4801630434594699
 30
0.0
 11
-36217.0885232344880933
 21
-17257.4601630434590334
 31
0.0
  0
ARC
  5
8A3B
  8
0
 10
-36217.091511113132583
 20
-17257.5101630434583058
 30
0.0
 40
0.03
 50
90.0
 51
174.0000000023239863
  0
ARC
  5
8A3C
  8
0
 10
-36217.7940139679412823
 20
-17257.4295893865710241
 30
0.0
 40
0.6745049711220409
 50
359.9533457911612118
 51
17.5064583178950102
  0
ARC
  5
8A3D
  8
0
 10
-36217.5145654822117649
 20
-17257.341444985679118
 30
0.0
 40
0.3814846790242358
 50
17.5064583178950102
 51
56.7282481886683883
  0
ARC
  5
8A3E
  8
0
 10
-36217.5549380469019525
 20
-17257.4029724259889917
 30
0.0
 40
0.4550752347407627
 50
56.7282481886683883
 51
89.4143006762053432
  0
ARC
  5
8A3F
  8
0
 10
-36217.7179049188416684
 20
-17261.5647934359003557
 30
0.0
 40
4.619914222957628
 50
87.9207503869762093
 51
94.0081833215450047
  0
ARC
  5
8A40
  8
0
 10
-36218.359664569121378
 20
-17249.6962628100191068
 30
0.0
 40
7.2669140404052008
 50
269.6230838471333868
 51
272.5146330323972279
  0
ARC
  5
8A41
  8
0
 10
-36218.3390185254829703
 20
-17254.0421716147611733
 30
0.0
 40
2.9216499610343121
 50
258.8601427643192778
 51
268.6575094119477853
  0
ARC
  5
8A42
  8
0
 10
-36218.5679734524674132
 20
-17255.0541692458791658
 30
0.0
 40
1.884709702141377
 50
244.2520585524846126
 51
259.74539062791888
  0
ARC
  5
8A43
  8
0
 10
-36219.0179513953189598
 20
-17256.0185142072004965
 30
0.0
 40
0.8207476791087978
 50
228.0109412782192067
 51
243.3010367451448133
  0
ARC
  5
8A44
  8
0
 10
-36219.3432558409695048
 20
-17256.3749339469504775
 30
0.0
 40
0.3382222455786008
 50
203.7871196693149898
 51
228.5782982984671889
  0
ARC
  5
8A45
  8
0
 10
-36219.6006664451197139
 20
-17256.4907528758594708
 30
0.0
 40
0.0560057425728386
 50
152.3551130278389962
 51
201.5806439102946968
  0
ARC
  5
8A46
  8
0
 10
-36219.424468509547296
 20
-17256.6126485158711148
 30
0.0
 40
0.26992444559014
 50
127.7843889202497962
 51
146.7794361420129974
  0
ARC
  5
8A47
  8
0
 10
-36219.2190702068328392
 20
-17256.9658418683684431
 30
0.0
 40
0.6770690259757579
 50
104.3484681345879039
 51
123.2041144275404037
  0
ARC
  5
8A48
  8
0
 10
-36218.704345907572133
 20
-17259.0395645613316447
 30
0.0
 40
2.8137044722505569
 50
88.0764874778549682
 51
104.0381546655781051
  0
ARC
  5
8A49
  8
0
 10
-36218.6411947358064936
 20
-17261.5497926716416259
 30
0.0
 40
5.322439118923703
 50
80.7813121563845158
 51
89.6631443065564753
  0
ARC
  5
8A4A
  8
0
 10
-36218.4154692936499487
 20
-17260.0194078692511539
 30
0.0
 40
3.7757249644195601
 50
69.4244971908567408
 51
80.4419646174319922
  0
ARC
  5
8A4B
  8
0
 10
-36218.4416075927802012
 20
-17260.0729705527810438
 30
0.0
 40
3.835061115648116
 50
61.4464130617771005
 51
69.3401341735895329
  0
ARC
  5
8A4C
  8
0
 10
-36217.6873739273214596
 20
-17258.796072552100668
 30
0.0
 40
2.3535408242830642
 50
47.7234208147647223
 51
62.7164297072323507
  0
ARC
  5
8A4D
  8
0
 10
-36216.1419968150294153
 20
-17257.0960942610399798
 30
0.0
 40
0.0561258520401181
 50
358.040297036234108
 51
47.5615332790666372
  0
ARC
  5
8A4E
  8
0
 10
-43634.6758694833188201
 20
-16998.2853457079399959
 30
0.0
 40
7423.1031971905076716
 50
357.9993566576338253
 51
358.0019300287240185
  0
ARC
  5
8A4F
  8
0
 10
-36216.1275172451132676
 20
-17257.4301630434601975
 30
0.0
 40
0.03
 50
270.0
 51
357.9993566553278015
  0
ARC
  5
8A50
  8
0
 10
-36217.0895092303617275
 20
-17257.4301630434601975
 30
0.0
 40
0.03
 50
179.9533457911612118
 51
270.0
  0
LINE
  5
8A51
  8
0
 10
-36216.0956996989334584
 20
-17257.5070271895601763
 30
0.0
 11
-36216.0058212578296661
 21
-17258.3621634343908227
 31
0.0
  0
ARC
  5
8A52
  8
0
 10
-36211.5304727287002606
 20
-17257.891785349460406
 30
0.0
 40
4.5000000000000311
 50
186.0000000029021976
 51
209.976151553446698
  0
LINE
  5
8A53
  8
0
 10
-36215.4285232344991527
 20
-17260.1401630433210812
 30
0.0
 11
-36215.4285232344991527
 21
-17260.1501630434613617
 31
0.0
  0
LINE
  5
8A54
  8
0
 10
-36215.4271724900027039
 20
-17260.1636704876582371
 30
0.0
 11
-36215.4129212493498926
 21
-17260.3061828947102185
 31
0.0
  0
ARC
  5
8A55
  8
0
 10
-36215.4420980478535057
 20
-17260.1651630434607796
 30
0.0
 40
0.015
 50
5.7105931176715519
 51
90.0
  0
ARC
  5
8A56
  8
0
 10
-36218.1019032148469705
 20
-17249.3647599278192502
 30
0.0
 40
7.312926747872142
 50
257.7563878682838094
 51
260.9319124825432255
  0
ARC
  5
8A57
  8
0
 10
-36218.4399436806706944
 20
-17251.4827703749397187
 30
0.0
 40
5.1681098301234671
 50
260.9319124825432255
 51
270.8930111621875199
  0
ARC
  5
8A58
  8
0
 10
-36218.4603689601790393
 20
-17250.1723863661609357
 30
0.0
 40
6.4786530161791509
 50
270.8930111621875199
 51
275.9660282525708794
  0
ARC
  5
8A59
  8
0
 10
-36217.5386989085309324
 20
-17259.7084374311198189
 30
0.0
 40
3.102439491669323
 50
89.830297919383753
 51
94.590263577940064
  0
ARC
  5
8A5A
  8
0
 10
-36217.5330840325186728
 20
-17257.8127166747799492
 30
0.0
 40
1.206710420078321
 50
67.9046784133837491
 51
89.830297919383753
  0
ARC
  5
8A5B
  8
0
 10
-36217.408711549192958
 20
-17257.5063524219694955
 30
0.0
 40
0.8760632213707049
 50
54.6498516837695192
 51
67.9046784133837491
  0
ARC
  5
8A5C
  8
0
 10
-36215.5675924355819006
 20
-17254.9108665434687282
 30
0.0
 40
2.306116304670343
 50
234.6498516837696116
 51
240.6748143100124082
  0
ARC
  5
8A5D
  8
0
 10
-36216.0154687660833588
 20
-17255.7081513818593521
 30
0.0
 40
1.3916457906899651
 50
240.6748143100124082
 51
267.0988633947540052
  0
LINE
  5
8A5E
  8
0
 10
-36216.1285232345035183
 20
-17257.4601630434590334
 30
0.0
 11
-36216.1285232345035183
 21
-17257.4801630434594699
 31
0.0
  0
ARC
  5
8A5F
  8
0
 10
-36216.125535355793545
 20
-17257.5101630434583058
 30
0.0
 40
0.03
 50
6.000000002902226
 51
90.0
  0
LINE
  5
8A60
  8
0
 10
-36214.107791715003259
 20
-17260.3501630434584513
 30
0.0
 11
-36214.108512956998311
 21
-17260.3401516281592194
 31
0.0
  0
ARC
  5
8A61
  8
0
 10
-36317.1324498063113424
 20
-17260.8572666994004976
 30
0.0
 40
103.0252346366103069
 50
0.2875861979117543
 51
0.9929243050004464
  0
ARC
  5
8A62
  8
0
 10
-36199.1762679928433499
 20
-17260.1292732169204101
 30
0.0
 40
14.9837685257995599
 50
169.6062384911448078
 51
175.9535831567280013
  0
ARC
  5
8A63
  8
0
 10
-36158.1576720482626115
 20
-17266.0313756838513655
 30
0.0
 40
56.4166567499319811
 50
169.6245321602872878
 51
171.2263020654216916
  0
ARC
  5
8A64
  8
0
 10
-36204.5762651865734369
 20
-17257.4255838944409334
 30
0.0
 40
9.2077841061144117
 50
165.4487268298966001
 51
170.2790333401655971
  0
ARC
  5
8A65
  8
0
 10
-36212.7726924110829714
 20
-17255.3272886042104801
 30
0.0
 40
0.7476202903734254
 50
153.0241308078805105
 51
163.2768186287925118
  0
ARC
  5
8A66
  8
0
 10
-36212.1883863850598573
 20
-17255.6246974854111613
 30
0.0
 40
1.403261636425688
 50
138.3301441939017025
 51
153.0241308078805105
  0
ARC
  5
8A67
  8
0
 10
-36212.401706718672358
 20
-17255.4019355219788849
 30
0.0
 40
1.0960889752607459
 50
121.0547681113177987
 51
139.6149731735351907
  0
ARC
  5
8A68
  8
0
 10
-36212.568357497730176
 20
-17255.1412183775792073
 30
0.0
 40
0.7868147100877037
 50
106.621709209795398
 51
120.4523415823718011
  0
ARC
  5
8A69
  8
0
 10
-36212.60409519582754
 20
-17255.0300739561389491
 30
0.0
 40
0.6700962039624747
 50
90.378616938620894
 51
106.4121090845423936
  0
ARC
  5
8A6A
  8
0
 10
-36213.7528894303977722
 20
-17254.6887150578586443
 30
0.0
 40
0.4331439138995219
 50
316.6601271162198827
 51
318.0806123119746189
  0
ARC
  5
8A6B
  8
0
 10
-36213.4176002495587454
 20
-17254.9909307838388486
 30
0.0
 40
0.0182663843707802
 50
111.7761673833555989
 51
135.341615055982686
  0
ARC
  5
8A6C
  8
0
 10
-36213.4209318331486429
 20
-17254.983951581238216
 30
0.0
 40
0.0105613254092391
 50
62.4484719291303776
 51
109.0371701272708975
  0
ARC
  5
8A6D
  8
0
 10
-36213.4243655437021516
 20
-17254.9905332193084178
 30
0.0
 40
0.0179848237587394
 50
42.9474086921331093
 51
62.4484719291303776
  0
ARC
  5
8A6E
  8
0
 10
-36213.4664308528590482
 20
-17255.02458495710016
 30
0.0
 40
0.0720729699535352
 50
19.5980941255592285
 51
39.9768282798739776
  0
ARC
  5
8A6F
  8
0
 10
-36213.1769418996627792
 20
-17254.9172605459607439
 30
0.0
 40
0.2366781786550357
 50
200.5680478890664062
 51
216.3677746547967899
  0
ARC
  5
8A70
  8
0
 10
-36212.8482667879434302
 20
-17254.6735903205699287
 30
0.0
 40
0.6458259177488955
 50
216.4845932845707921
 51
225.6107444700967051
  0
ARC
  5
8A71
  8
0
 10
-36212.6828002504917094
 20
-17254.5115490000498539
 30
0.0
 40
0.8773836006565874
 50
225.2913870277893125
 51
247.2994797646441896
  0
ARC
  5
8A72
  8
0
 10
-36212.6439020984980743
 20
-17254.4032980713309371
 30
0.0
 40
0.9922776694022719
 50
247.6396208906367917
 51
262.8560458548568022
  0
ARC
  5
8A73
  8
0
 10
-36212.6077558703400427
 20
-17254.1873931683694536
 30
0.0
 40
1.2110352628294401
 50
262.429524798876173
 51
269.9636949216138078
  0
ARC
  5
8A74
  8
0
 10
-36212.6141665455215843
 20
-17254.2873664500984887
 30
0.0
 40
1.2254658059439509
 50
255.2466473910023979
 51
270.2638499133091159
  0
ARC
  5
8A75
  8
0
 10
-36212.6948003247307497
 20
-17254.593562226229551
 30
0.0
 40
0.9088309062975397
 50
241.4525063963768901
 51
255.2466473910023979
  0
ARC
  5
8A76
  8
0
 10
-36213.2628067071200348
 20
-17255.6376350468199234
 30
0.0
 40
0.2797477848802629
 50
61.4525063963769185
 51
68.3734659197456267
  0
ARC
  5
8A77
  8
0
 10
-36213.1677208003093256
 20
-17255.3978000244787836
 30
0.0
 40
0.0217513360347124
 50
68.3734659197456267
 51
88.3525272415178335
  0
ARC
  5
8A78
  8
0
 10
-36213.167435595059942
 20
-17255.3878838949785859
 30
0.0
 40
0.0118311058831411
 50
88.3525272415178335
 51
100.5919107079414943
  0
ARC
  5
8A79
  8
0
 10
-36213.1687487511371728
 20
-17255.3808616244205041
 30
0.0
 40
0.0046871110169896
 50
100.5919107079414943
 51
168.6813692437403915
  0
ARC
  5
8A7A
  8
0
 10
-36213.1631487886988907
 20
-17255.3819825011014473
 30
0.0
 40
0.0103981480385219
 50
168.6813692437403915
 51
194.6473183540622074
  0
ARC
  5
8A7B
  8
0
 10
-36213.1179318897411576
 20
-17255.3701644959510304
 30
0.0
 40
0.0571339287362456
 50
194.6473183540622074
 51
210.9683913819679049
  0
ARC
  5
8A7C
  8
0
 10
-36212.8378033179833437
 20
-17255.2020565330494719
 30
0.0
 40
0.3838330317441238
 50
210.9683913819679049
 51
213.0023433361942864
  0
LINE
  5
8A7D
  8
0
 10
-36213.1597042345019872
 20
-17255.3775798540591495
 30
0.0
 11
-36213.1597042345019872
 21
-17255.5881250884194742
 31
0.0
  0
LINE
  5
8A7E
  8
0
 10
-36213.1185232344869291
 20
-17255.5604958772601094
 30
0.0
 11
-36213.1185232344869291
 21
-17255.7786564014604664
 31
0.0
  0
ARC
  5
8A7F
  8
0
 10
-36213.0751551725334139
 20
-17255.7039734185600537
 30
0.0
 40
0.1498886041632668
 50
106.818164683406394
 51
118.6486070307470015
  0
ARC
  5
8A80
  8
0
 10
-36213.1303884452790953
 20
-17255.6028725991782267
 30
0.0
 40
0.0346840465348484
 50
118.6486070307470015
 51
139.1033500769327986
  0
ARC
  5
8A81
  8
0
 10
-36213.1463913073021104
 20
-17255.589012122949498
 30
0.0
 40
0.0135132082358289
 50
139.1033500769327986
 51
161.0213383282865038
  0
ARC
  5
8A82
  8
0
 10
-36213.149803315900499
 20
-17255.5878386953590962
 30
0.0
 40
0.0099050598261006
 50
161.0213383282865038
 51
212.1202052442932882
  0
ARC
  5
8A83
  8
0
 10
-36213.1375983374091447
 20
-17255.5801765277392406
 30
0.0
 40
0.0243158305357571
 50
212.1202052442932882
 51
233.6626919276612
  0
ARC
  5
8A84
  8
0
 10
-36213.1089421903525363
 20
-17255.5412191032410192
 30
0.0
 40
0.072677547711613
 50
233.6626919276612
 51
248.6527158583022867
  0
ARC
  5
8A85
  8
0
 10
-36212.9913241967806243
 20
-17255.2402786141901743
 30
0.0
 40
0.3957861523073866
 50
248.6527158583022867
 51
251.2534017174428982
  0
ARC
  5
8A86
  8
0
 10
-36212.6136549603979802
 20
-17259.4543062916782219
 30
0.0
 40
3.7748826888220282
 50
89.9221098110574673
 51
94.3204437929052091
  0
ARC
  5
8A87
  8
0
 10
-36212.7690781329220044
 20
-17257.3970622786400781
 30
0.0
 40
1.711775980063329
 50
94.3204437929052091
 51
99.9751299702762708
  0
ARC
  5
8A88
  8
0
 10
-36212.9933154062819085
 20
-17256.1221136339518125
 30
0.0
 40
0.4172581542488225
 50
99.9751299702762708
 51
107.4619765096403938
  0
ARC
  5
8A89
  8
0
 10
-36212.6133812572224997
 20
-17251.9827685055788606
 30
0.0
 40
3.8405137262371629
 50
266.1518544134627859
 51
270.0724757915215832
  0
ARC
  5
8A8A
  8
0
 10
-36212.7358171885134652
 20
-17253.8029987553381943
 30
0.0
 40
2.0161703595870311
 50
261.2164087542187758
 51
266.1518544134627859
  0
ARC
  5
8A8B
  8
0
 10
-36212.9579969933474786
 20
-17255.2409166816396464
 30
0.0
 40
0.5611886317103507
 50
253.3785659160716932
 51
261.2164087542187758
  0
ARC
  5
8A8C
  8
0
 10
-36212.608959735611279
 20
-17259.3104739553382387
 30
0.0
 40
3.6224085551109502
 50
89.9930958447504139
 51
92.0909979042756959
  0
ARC
  5
8A8D
  8
0
 10
-36212.6336528306783293
 20
-17258.6341547885385808
 30
0.0
 40
2.9456387535389492
 50
92.0909979042756959
 51
94.2429730952840288
  0
ARC
  5
8A8E
  8
0
 10
-36212.7120703276304994
 20
-17257.5771658890116669
 30
0.0
 40
1.8857449675498259
 50
94.2429730952840288
 51
97.777836328998788
  0
ARC
  5
8A8F
  8
0
 10
-36212.870272938052949
 20
-17256.4189266945504642
 30
0.0
 40
0.7167513416004397
 50
97.777836328998788
 51
104.2289365391777949
  0
ARC
  5
8A90
  8
0
 10
-36213.0039319546776824
 20
-17255.89183093210886
 30
0.0
 40
0.1729731924306265
 50
104.2289365391777949
 51
115.7360888617872945
  0
ARC
  5
8A91
  8
0
 10
-36213.0613222958563711
 20
-17255.7727745772899652
 30
0.0
 40
0.040806377825222
 50
115.7360888617872945
 51
134.3530034480654081
  0
ARC
  5
8A92
  8
0
 10
-36213.0805609830495086
 20
-17255.7530964137695264
 30
0.0
 40
0.0132862541992022
 50
134.3530034480654081
 51
158.6063952069661127
  0
ARC
  5
8A93
  8
0
 10
-36213.0849697664889391
 20
-17255.7513691980784643
 30
0.0
 40
0.0085512098046254
 50
158.6063952069661127
 51
200.8738076117847982
  0
ARC
  5
8A94
  8
0
 10
-36213.0802816775030806
 20
-17255.7495814461908594
 30
0.0
 40
0.0135686030689382
 50
200.8738076117847982
 51
229.2271118816466071
  0
ARC
  5
8A95
  8
0
 10
-36213.0516104075068142
 20
-17255.7163336668490956
 30
0.0
 40
0.0574714111116443
 50
229.2271118816466071
 51
250.2342783922198066
  0
ARC
  5
8A96
  8
0
 10
-36212.9403986006509513
 20
-17255.4068501674009894
 30
0.0
 40
0.3863301990711119
 50
250.2342783922198066
 51
257.5890250312556873
  0
ARC
  5
8A97
  8
0
 10
-36212.8629951597977197
 20
-17255.0551203882714617
 30
0.0
 40
0.7464761836054086
 50
257.5890250312556873
 51
264.2082177608460825
  0
ARC
  5
8A98
  8
0
 10
-36212.4884055969232577
 20
-17251.3620865175616927
 30
0.0
 40
4.4584590110023967
 50
264.2082177608460825
 51
265.8863886239398084
  0
ARC
  5
8A99
  8
0
 10
-36212.6834953447396401
 20
-17254.0746924363702419
 30
0.0
 40
1.7388467444341289
 50
265.8863886239398084
 51
269.2821810417721053
  0
ARC
  5
8A9A
  8
0
 10
-36212.6089090633322485
 20
-17252.1649736717699852
 30
0.0
 40
3.6497016029246998
 50
268.4869268559839952
 51
270.0060570333616852
  0
ARC
  5
8A9B
  8
0
 10
-36212.6262823079377995
 20
-17253.3404015956002695
 30
0.0
 40
2.3791434830223048
 50
263.0730822423998916
 51
270.4276872802216758
  0
ARC
  5
8A9C
  8
0
 10
-36212.7066460847781855
 20
-17254.3425076942803571
 30
0.0
 40
1.387803114243072
 50
259.5874775771873146
 51
267.5399340884962953
  0
ARC
  5
8A9D
  8
0
 10
-36212.5630381204609876
 20
-17250.9998844926885795
 30
0.0
 40
4.7335097832699091
 50
267.5399340884962953
 51
269.4494264738132188
  0
ARC
  5
8A9E
  8
0
 10
-36212.9742764587790589
 20
-17255.6429930421691097
 30
0.0
 40
0.0846538193752917
 50
240.9712243233099969
 51
250.4444326890856019
  0
ARC
  5
8A9F
  8
0
 10
-36212.9163337633435731
 20
-17255.4798708591588365
 30
0.0
 40
0.2577613077922289
 50
250.4444326890856019
 51
255.3877859900518956
  0
ARC
  5
8AA0
  8
0
 10
-36212.8781091563068912
 20
-17255.333252472228196
 30
0.0
 40
0.4092805209891513
 50
255.3877859900518956
 51
260.5508599758103969
  0
ARC
  5
8AA1
  8
0
 10
-36212.730777277611196
 20
-17254.448005276688491
 30
0.0
 40
1.306704211166696
 50
260.5508599758103969
 51
263.6169635137305818
  0
ARC
  5
8AA2
  8
0
 10
-36212.6902844096111949
 20
-17254.0860358125610219
 30
0.0
 40
1.6709315650557459
 50
263.6169635137305818
 51
267.4424103694304904
  0
ARC
  5
8AA3
  8
0
 10
-36212.5517254453807254
 20
-17250.9840642792914878
 30
0.0
 40
4.7759961344020398
 50
267.4424103694304904
 51
268.7335756403061282
  0
ARC
  5
8AA4
  8
0
 10
-36212.6199829490215052
 20
-17254.071678582149616
 30
0.0
 40
1.687627443641609
 50
268.7335756403061282
 51
270.3890659192979911
  0
ARC
  5
8AA5
  8
0
 10
-36212.9789030944521073
 20
-17255.5796885752388334
 30
0.0
 40
0.154376924771929
 50
247.3516473037975061
 51
252.8848611599470928
  0
ARC
  5
8AA6
  8
0
 10
-36212.9161622376268497
 20
-17255.375937805580179
 30
0.0
 40
0.367568836559332
 50
252.8848611599470928
 51
259.9716136004818736
  0
ARC
  5
8AA7
  8
0
 10
-36212.7525704010113259
 20
-17254.4508427394684986
 30
0.0
 40
1.3070171695467649
 50
259.9716136004818736
 51
263.5915538414134858
  0
ARC
  5
8AA8
  8
0
 10
-36212.7050030795871862
 20
-17254.027334110251104
 30
0.0
 40
1.7331887419081391
 50
263.5915538414134858
 51
266.8113239567579171
  0
ARC
  5
8AA9
  8
0
 10
-36212.5242122803902021
 20
-17250.7821461080202425
 30
0.0
 40
4.9834088087466784
 50
266.8113239567579171
 51
267.6893761716831932
  0
ARC
  5
8AAA
  8
0
 10
-36212.6234584560006624
 20
-17253.2417866222385783
 30
0.0
 40
2.5217668236971451
 50
267.6893761716831932
 51
270.3393375440850264
  0
LINE
  5
8AAB
  8
0
 10
-36207.4527227370490436
 20
-17260.3501630434584513
 30
0.0
 11
-36209.7643237320371554
 21
-17260.3501630434584513
 31
0.0
  0
ARC
  5
8AAC
  8
0
 10
-36209.7643237320371554
 20
-17260.3101630434612161
 30
0.0
 40
0.04
 50
174.2894068823283931
 51
270.0
  0
LINE
  5
8AAD
  8
0
 10
-36207.4285232344991527
 20
-17260.1501630434613617
 30
0.0
 11
-36209.7885232344997348
 21
-17260.1501630434613617
 31
0.0
  0
LINE
  5
8AAE
  8
0
 10
-36207.4285232344991527
 20
-17260.1501630434613617
 30
0.0
 11
-36207.4285232344991527
 21
-17260.1401630434884282
 31
0.0
  0
LINE
  5
8AAF
  8
0
 10
-36207.4271724900972913
 20
-17260.163670487669151
 30
0.0
 11
-36207.4129212495972752
 21
-17260.3061828931604396
 31
0.0
  0
ARC
  5
8AB0
  8
0
 10
-36207.4527227370490436
 20
-17260.3101630434612161
 30
0.0
 40
0.04
 50
270.0
 51
5.7105931176715519
  0
ARC
  5
8AB1
  8
0
 10
-36207.4420980479480932
 20
-17260.1651630434607796
 30
0.0
 40
0.015
 50
5.7105931176715519
 51
90.0
  0
ARC
  5
8AB2
  8
0
 10
-36203.5304727287875721
 20
-17257.891785349460406
 30
0.0
 40
4.5000000000000071
 50
185.9999999999998863
 51
209.9761515540157859
  0
LINE
  5
8AB3
  8
0
 10
-36208.0058212579970132
 20
-17258.36216343416163
 30
0.0
 11
-36208.095699698998942
 21
-17257.5070271895601763
 31
0.0
  0
LINE
  5
8AB4
  8
0
 10
-36208.1255353558590286
 20
-17257.4801630434594699
 30
0.0
 11
-36209.0915111131980666
 21
-17257.4801630434594699
 31
0.0
  0
LINE
  5
8AB5
  8
0
 10
-36209.0895292238783441
 20
-17257.4601630434590334
 30
0.0
 11
-36208.1275372386298841
 21
-17257.4601630434590334
 31
0.0
  0
LINE
  5
8AB6
  8
0
 10
-36208.1285232345035183
 20
-17257.4801630434594699
 30
0.0
 11
-36208.1285232345035183
 21
-17257.4601630434590334
 31
0.0
  0
ARC
  5
8AB7
  8
0
 10
-36208.1255353558590286
 20
-17257.5101630434583058
 30
0.0
 40
0.03
 50
5.9999999976760057
 51
90.0
  0
ARC
  5
8AB8
  8
0
 10
-36207.4230325010721572
 20
-17257.4295893865710241
 30
0.0
 40
0.6745049711220409
 50
162.4935416821049898
 51
180.0466542088387882
  0
ARC
  5
8AB9
  8
0
 10
-36207.7024809867798467
 20
-17257.341444985679118
 30
0.0
 40
0.3814846790242358
 50
123.2717518113315975
 51
162.4935416821049898
  0
ARC
  5
8ABA
  8
0
 10
-36207.6621084220969351
 20
-17257.4029724259889917
 30
0.0
 40
0.4550752347407627
 50
90.5856993237942447
 51
123.2717518113315975
  0
ARC
  5
8ABB
  8
0
 10
-36207.4991415501499432
 20
-17261.5647934359003557
 30
0.0
 40
4.619914222957628
 50
85.9918166784549953
 51
92.079249613023805
  0
ARC
  5
8ABC
  8
0
 10
-36206.8573818998775096
 20
-17249.6962628100191068
 30
0.0
 40
7.2669140404052008
 50
267.4853669676027721
 51
270.3769161528666132
  0
ARC
  5
8ABD
  8
0
 10
-36206.8780279435231932
 20
-17254.0421716147611733
 30
0.0
 40
2.9216499610343121
 50
271.3424905880522147
 51
281.1398572356807222
  0
ARC
  5
8ABE
  8
0
 10
-36206.6490730165314744
 20
-17255.0541692458791658
 30
0.0
 40
1.884709702141377
 50
280.25460937208112
 51
295.7479414475154158
  0
ARC
  5
8ABF
  8
0
 10
-36206.1990950736726518
 20
-17256.0185142072004965
 30
0.0
 40
0.8207476791087978
 50
296.6989632548551867
 51
311.9890587217806797
  0
ARC
  5
8AC0
  8
0
 10
-36205.8737906280293828
 20
-17256.3749339469504775
 30
0.0
 40
0.3382222455786008
 50
311.4217017015328111
 51
336.2128803306849818
  0
ARC
  5
8AC1
  8
0
 10
-36205.6163800238718977
 20
-17256.4907528758594708
 30
0.0
 40
0.0560057425728386
 50
338.4193560897052748
 51
27.6448869721607906
  0
ARC
  5
8AC2
  8
0
 10
-36205.7925779594515916
 20
-17256.6126485158711148
 30
0.0
 40
0.26992444559014
 50
33.2205638579869813
 51
52.2156110797501611
  0
ARC
  5
8AC3
  8
0
 10
-36205.9979762621587724
 20
-17256.9658418683684431
 30
0.0
 40
0.6770690259757579
 50
56.7958855724595608
 51
75.6515318654120961
  0
ARC
  5
8AC4
  8
0
 10
-36206.5127005614267546
 20
-17259.0395645613316447
 30
0.0
 40
2.8137044722505569
 50
75.9618453344218949
 51
91.923512522145046
  0
ARC
  5
8AC5
  8
0
 10
-36206.575851733192394
 20
-17261.5497926716416259
 30
0.0
 40
5.322439118923703
 50
90.3368556934435389
 51
99.2186878436154842
  0
ARC
  5
8AC6
  8
0
 10
-36206.801577175341663
 20
-17260.0194078692511539
 30
0.0
 40
3.7757249644195601
 50
99.558035382568022
 51
110.5755028091432024
  0
ARC
  5
8AC7
  8
0
 10
-36206.7754388762114104
 20
-17260.0729705527810438
 30
0.0
 40
3.835061115648116
 50
110.659865826410396
 51
118.5535869382229066
  0
ARC
  5
8AC8
  8
0
 10
-36207.5296725416774279
 20
-17258.796072552100668
 30
0.0
 40
2.3535408242830642
 50
117.2835702927676067
 51
132.2765791852351924
  0
ARC
  5
8AC9
  8
0
 10
-36209.0750496539621963
 20
-17257.0960942610399798
 30
0.0
 40
0.0561258520401181
 50
132.4384667209334054
 51
181.9597029637658068
  0
ARC
  5
8ACA
  8
0
 10
-28790.5411769856691535
 20
-16998.2853457079399959
 30
0.0
 40
7423.1031971905076716
 50
181.9980699712760099
 51
182.0006433423660894
  0
ARC
  5
8ACB
  8
0
 10
-36209.0895292238783441
 20
-17257.4301630434601975
 30
0.0
 40
0.03
 50
182.0006433394497947
 51
270.0
  0
ARC
  5
8ACC
  8
0
 10
-36208.1275372386298841
 20
-17257.4301630434601975
 30
0.0
 40
0.03
 50
270.0
 51
0.0466542088387899
  0
LINE
  5
8ACD
  8
0
 10
-36209.1213467700581532
 20
-17257.5070271895601763
 30
0.0
 11
-36209.2112252111619455
 21
-17258.3621634343908227
 31
0.0
  0
ARC
  5
8ACE
  8
0
 10
-36213.6865737402986269
 20
-17257.891785349460406
 30
0.0
 40
4.5000000000000311
 50
330.0238484465534157
 51
353.9999999970976887
  0
LINE
  5
8ACF
  8
0
 10
-36209.7885232344997348
 20
-17260.1401630433210812
 30
0.0
 11
-36209.7885232344997348
 21
-17260.1501630434613617
 31
0.0
  0
LINE
  5
8AD0
  8
0
 10
-36209.7898739790034597
 20
-17260.1636704876582371
 30
0.0
 11
-36209.804125219648995
 21
-17260.3061828947102185
 31
0.0
  0
ARC
  5
8AD1
  8
0
 10
-36209.7749484211526578
 20
-17260.1651630434607796
 30
0.0
 40
0.015
 50
90.0
 51
174.2894068823283931
  0
ARC
  5
8AD2
  8
0
 10
-36207.1151432541519171
 20
-17249.3647599278192502
 30
0.0
 40
7.312926747872142
 50
279.0680875174567745
 51
282.243612131715679
  0
ARC
  5
8AD3
  8
0
 10
-36206.7771027883209172
 20
-17251.4827703749397187
 30
0.0
 40
5.1681098301234671
 50
269.1069888378124801
 51
279.0680875174567745
  0
ARC
  5
8AD4
  8
0
 10
-36206.7566775088198483
 20
-17250.1723863661609357
 30
0.0
 40
6.4786530161791509
 50
264.0339717474291206
 51
269.1069888378124801
  0
ARC
  5
8AD5
  8
0
 10
-36207.6783475604679552
 20
-17259.7084374311198189
 30
0.0
 40
3.102439491669323
 50
85.409736422059936
 51
90.1697020806162328
  0
ARC
  5
8AD6
  8
0
 10
-36207.6839624364802148
 20
-17257.8127166747799492
 30
0.0
 40
1.206710420078321
 50
90.1697020806162328
 51
112.0953215866166062
  0
ARC
  5
8AD7
  8
0
 10
-36207.8083349197986536
 20
-17257.5063524219694955
 30
0.0
 40
0.8760632213707049
 50
112.0953215866166062
 51
125.3501483162305021
  0
ARC
  5
8AD8
  8
0
 10
-36209.6494540334169869
 20
-17254.9108665434687282
 30
0.0
 40
2.306116304670343
 50
299.3251856899876202
 51
305.3501483162305021
  0
ARC
  5
8AD9
  8
0
 10
-36209.2015777029228047
 20
-17255.7081513818593521
 30
0.0
 40
1.3916457906899651
 50
272.9011366052461085
 51
299.3251856899876202
  0
LINE
  5
8ADA
  8
0
 10
-36209.0885232345026452
 20
-17257.4601630434590334
 30
0.0
 11
-36209.0885232345026452
 21
-17257.4801630434594699
 31
0.0
  0
ARC
  5
8ADB
  8
0
 10
-36209.0915111131980666
 20
-17257.5101630434583058
 30
0.0
 40
0.03
 50
90.0
 51
173.9999999970978024
  0
LINE
  5
8ADC
  8
0
 10
-36211.1092547540029045
 20
-17260.3501630434584513
 30
0.0
 11
-36211.1085335119933006
 21
-17260.3401516281592194
 31
0.0
  0
ARC
  5
8ADD
  8
0
 10
-36108.0845966626802692
 20
-17260.8572666994004976
 30
0.0
 40
103.0252346366103069
 50
179.0070756949995996
 51
179.7124138020882071
  0
ARC
  5
8ADE
  8
0
 10
-36226.0407784761628136
 20
-17260.1292732169204101
 30
0.0
 40
14.9837685257995599
 50
4.0464168432720031
 51
10.3937615088551496
  0
ARC
  5
8ADF
  8
0
 10
-36267.0593744207290001
 20
-17266.0313756838513655
 30
0.0
 40
56.4166567499319811
 50
8.7736979345783261
 51
10.3754678397127407
  0
ARC
  5
8AE0
  8
0
 10
-36220.6407812824327266
 20
-17257.4255838944409334
 30
0.0
 40
9.2077841061144117
 50
9.7209666598343354
 51
14.5512731701033609
  0
ARC
  5
8AE1
  8
0
 10
-36212.4443540579304681
 20
-17255.3272886042104801
 30
0.0
 40
0.7476202903734254
 50
16.7231813712074491
 51
26.9758691921195108
  0
ARC
  5
8AE2
  8
0
 10
-36213.0286600839317543
 20
-17255.6246974854111613
 30
0.0
 40
1.403261636425688
 50
26.9758691921195108
 51
41.6698558060983117
  0
ARC
  5
8AE3
  8
0
 10
-36212.8153397503265296
 20
-17255.4019355219788849
 30
0.0
 40
1.0960889752607459
 50
40.3850268264648093
 51
58.9452318886822226
  0
ARC
  5
8AE4
  8
0
 10
-36212.6486889712614357
 20
-17255.1412183775792073
 30
0.0
 40
0.7868147100877037
 50
59.5476584176281634
 51
73.3782907902045736
  0
ARC
  5
8AE5
  8
0
 10
-36212.6129512731567957
 20
-17255.0300739561389491
 30
0.0
 40
0.6700962039624747
 50
73.587890915457578
 51
89.6213830613791345
  0
ARC
  5
8AE6
  8
0
 10
-36211.4641570386011153
 20
-17254.6887150578586443
 30
0.0
 40
0.4331439138995219
 50
221.9193876880254095
 51
223.3398728837800036
  0
ARC
  5
8AE7
  8
0
 10
-36211.7994462194328662
 20
-17254.9909307838388486
 30
0.0
 40
0.0182663843707802
 50
44.65838494401725
 51
68.2238326166443727
  0
ARC
  5
8AE8
  8
0
 10
-36211.7961146358429687
 20
-17254.983951581238216
 30
0.0
 40
0.0105613254092391
 50
70.9628298727290883
 51
117.5515280708700061
  0
ARC
  5
8AE9
  8
0
 10
-36211.7926809252967359
 20
-17254.9905332193084178
 30
0.0
 40
0.0179848237587394
 50
117.5515280708700061
 51
137.0525913078668907
  0
ARC
  5
8AEA
  8
0
 10
-36211.7506156161398394
 20
-17255.02458495710016
 30
0.0
 40
0.0720729699535352
 50
140.0231717201259869
 51
160.4019058744407005
  0
ARC
  5
8AEB
  8
0
 10
-36212.0401045693288324
 20
-17254.9172605459607439
 30
0.0
 40
0.2366781786550357
 50
323.6322253452033237
 51
339.4319521109334801
  0
ARC
  5
8AEC
  8
0
 10
-36212.3687796810627333
 20
-17254.6735903205699287
 30
0.0
 40
0.6458259177488955
 50
314.3892555299032097
 51
323.5154067154290942
  0
ARC
  5
8AED
  8
0
 10
-36212.5342462184999022
 20
-17254.5115490000498539
 30
0.0
 40
0.8773836006565874
 50
292.700520235355782
 51
314.7086129722105738
  0
ARC
  5
8AEE
  8
0
 10
-36212.5731443705008132
 20
-17254.4032980713309371
 30
0.0
 40
0.9922776694022719
 50
277.1439541451431978
 51
292.3603791093628956
  0
ARC
  5
8AEF
  8
0
 10
-36212.6092905986515689
 20
-17254.1873931683694536
 30
0.0
 40
1.2110352628294401
 50
270.0363050783861922
 51
277.570475201123827
  0
ARC
  5
8AF0
  8
0
 10
-36212.6028799234773032
 20
-17254.2873664500984887
 30
0.0
 40
1.2254658059439509
 50
269.7361500866909978
 51
284.7533526089976021
  0
ARC
  5
8AF1
  8
0
 10
-36212.5222461442608619
 20
-17254.593562226229551
 30
0.0
 40
0.9088309062975397
 50
284.7533526089976021
 51
298.5474936036230815
  0
ARC
  5
8AF2
  8
0
 10
-36211.9542397618715768
 20
-17255.6376350468199234
 30
0.0
 40
0.2797477848802629
 50
111.6265340802544017
 51
118.5474936036230957
  0
ARC
  5
8AF3
  8
0
 10
-36212.0493256686822861
 20
-17255.3978000244787836
 30
0.0
 40
0.0217513360347124
 50
91.6474727584821522
 51
111.6265340802544017
  0
ARC
  5
8AF4
  8
0
 10
-36212.0496108739316696
 20
-17255.3878838949785859
 30
0.0
 40
0.0118311058831411
 50
79.4080892920584631
 51
91.6474727584821522
  0
ARC
  5
8AF5
  8
0
 10
-36212.0482977178617148
 20
-17255.3808616244205041
 30
0.0
 40
0.0046871110169896
 50
11.3186307562596191
 51
79.4080892920584631
  0
ARC
  5
8AF6
  8
0
 10
-36212.0538976802999969
 20
-17255.3819825011014473
 30
0.0
 40
0.0103981480385219
 50
345.3526816459377073
 51
11.3186307562596191
  0
ARC
  5
8AF7
  8
0
 10
-36212.0991145792577299
 20
-17255.3701644959510304
 30
0.0
 40
0.0571339287362456
 50
329.0316086180321236
 51
345.3526816459377073
  0
ARC
  5
8AF8
  8
0
 10
-36212.3792431510228198
 20
-17255.2020565330494719
 30
0.0
 40
0.3838330317441238
 50
326.9976566638057989
 51
329.0316086180321236
  0
LINE
  5
8AF9
  8
0
 10
-36212.0573422344969003
 20
-17255.3775798540591495
 30
0.0
 11
-36212.0573422344969003
 21
-17255.5881250884194742
 31
0.0
  0
LINE
  5
8AFA
  8
0
 10
-36212.0985232344974065
 20
-17255.5604958772601094
 30
0.0
 11
-36212.0985232344974065
 21
-17255.7786564014604664
 31
0.0
  0
ARC
  5
8AFB
  8
0
 10
-36212.1418912964800256
 20
-17255.7039734185600537
 30
0.0
 40
0.1498886041632668
 50
61.3513929692529416
 51
73.1818353165935633
  0
ARC
  5
8AFC
  8
0
 10
-36212.0866580237125163
 20
-17255.6028725991782267
 30
0.0
 40
0.0346840465348484
 50
40.8966499230672014
 51
61.3513929692529416
  0
ARC
  5
8AFD
  8
0
 10
-36212.0706551616895013
 20
-17255.589012122949498
 30
0.0
 40
0.0135132082358289
 50
18.9786616717134713
 51
40.8966499230672014
  0
ARC
  5
8AFE
  8
0
 10
-36212.0672431530983886
 20
-17255.5878386953590962
 30
0.0
 40
0.0099050598261006
 50
327.8797947557065982
 51
18.9786616717134713
  0
ARC
  5
8AFF
  8
0
 10
-36212.0794481315824669
 20
-17255.5801765277392406
 30
0.0
 40
0.0243158305357571
 50
306.3373080723388853
 51
327.8797947557065982
  0
ARC
  5
8B00
  8
0
 10
-36212.1081042786536273
 20
-17255.5412191032410192
 30
0.0
 40
0.072677547711613
 50
291.347284141697628
 51
306.3373080723388853
  0
ARC
  5
8B01
  8
0
 10
-36212.2257222722109873
 20
-17255.2402786141901743
 30
0.0
 40
0.3957861523073866
 50
288.7465982825569881
 51
291.347284141697628
  0
ARC
  5
8B02
  8
0
 10
-36212.6033915085936314
 20
-17259.4543062916782219
 30
0.0
 40
3.7748826888220282
 50
85.679556207095203
 51
90.077890188942547
  0
ARC
  5
8B03
  8
0
 10
-36212.4479683360768831
 20
-17257.3970622786400781
 30
0.0
 40
1.711775980063329
 50
80.0248700297237576
 51
85.679556207095203
  0
ARC
  5
8B04
  8
0
 10
-36212.2237310627097031
 20
-17256.1221136339518125
 30
0.0
 40
0.4172581542488225
 50
72.5380234903596346
 51
80.0248700297237576
  0
ARC
  5
8B05
  8
0
 10
-36212.6036652117909398
 20
-17251.9827685055788606
 30
0.0
 40
3.8405137262371629
 50
269.9275242084784168
 51
273.8481455865372141
  0
ARC
  5
8B06
  8
0
 10
-36212.4812292804926983
 20
-17253.8029987553381943
 30
0.0
 40
2.0161703595870311
 50
273.8481455865372141
 51
278.7835912457812242
  0
ARC
  5
8B07
  8
0
 10
-36212.259049475651409
 20
-17255.2409166816396464
 30
0.0
 40
0.5611886317103507
 50
278.7835912457812242
 51
286.6214340839281931
  0
ARC
  5
8B08
  8
0
 10
-36212.6080867333803326
 20
-17259.3104739553382387
 30
0.0
 40
3.6224085551109502
 50
87.9090020957242899
 51
90.0069041552495861
  0
ARC
  5
8B09
  8
0
 10
-36212.5833936383132823
 20
-17258.6341547885385808
 30
0.0
 40
2.9456387535389492
 50
85.757026904715957
 51
87.9090020957242899
  0
ARC
  5
8B0A
  8
0
 10
-36212.5049761413683882
 20
-17257.5771658890116669
 30
0.0
 40
1.8857449675498259
 50
82.2221636710012262
 51
85.757026904715957
  0
ARC
  5
8B0B
  8
0
 10
-36212.3467735309532145
 20
-17256.4189266945504642
 30
0.0
 40
0.7167513416004397
 50
75.7710634608221909
 51
82.2221636710012262
  0
ARC
  5
8B0C
  8
0
 10
-36212.2131145143212052
 20
-17255.89183093210886
 30
0.0
 40
0.1729731924306265
 50
64.2639111382127339
 51
75.7710634608221909
  0
ARC
  5
8B0D
  8
0
 10
-36212.1557241731425165
 20
-17255.7727745772899652
 30
0.0
 40
0.040806377825222
 50
45.6469965519345635
 51
64.2639111382127339
  0
ARC
  5
8B0E
  8
0
 10
-36212.136485485942103
 20
-17255.7530964137695264
 30
0.0
 40
0.0132862541992022
 50
21.3936047930339299
 51
45.6469965519345635
  0
ARC
  5
8B0F
  8
0
 10
-36212.1320767025099485
 20
-17255.7513691980784643
 30
0.0
 40
0.0085512098046254
 50
339.1261923882152018
 51
21.3936047930339299
  0
ARC
  5
8B10
  8
0
 10
-36212.136764791503083
 20
-17255.7495814461908594
 30
0.0
 40
0.0135686030689382
 50
310.7728881183533076
 51
339.1261923882152018
  0
ARC
  5
8B11
  8
0
 10
-36212.1654360614775214
 20
-17255.7163336668490956
 30
0.0
 40
0.0574714111116443
 50
289.7657216077801081
 51
310.7728881183533076
  0
ARC
  5
8B12
  8
0
 10
-36212.2766478683406604
 20
-17255.4068501674009894
 30
0.0
 40
0.3863301990711119
 50
282.4109749687443127
 51
289.7657216077801081
  0
ARC
  5
8B13
  8
0
 10
-36212.354051309186616
 20
-17255.0551203882714617
 30
0.0
 40
0.7464761836054086
 50
275.7917822391539175
 51
282.4109749687443127
  0
ARC
  5
8B14
  8
0
 10
-36212.7286408720829058
 20
-17251.3620865175616927
 30
0.0
 40
4.4584590110023967
 50
274.1136113760601916
 51
275.7917822391539175
  0
ARC
  5
8B15
  8
0
 10
-36212.5335511242519715
 20
-17254.0746924363702419
 30
0.0
 40
1.7388467444341289
 50
270.7178189582278947
 51
274.1136113760601916
  0
ARC
  5
8B16
  8
0
 10
-36212.6081374056666391
 20
-17252.1649736717699852
 30
0.0
 40
3.6497016029246998
 50
269.9939429666383148
 51
271.5130731440160048
  0
ARC
  5
8B17
  8
0
 10
-36212.5907641610610881
 20
-17253.3404015956002695
 30
0.0
 40
2.3791434830223048
 50
269.5723127197779263
 51
276.9269177575999947
  0
ARC
  5
8B18
  8
0
 10
-36212.5104003842134262
 20
-17254.3425076942803571
 30
0.0
 40
1.387803114243072
 50
272.4600659115037047
 51
280.4125224228122875
  0
ARC
  5
8B19
  8
0
 10
-36212.6540083485306241
 20
-17250.9998844926885795
 30
0.0
 40
4.7335097832699091
 50
270.5505735261867812
 51
272.4600659115037047
  0
ARC
  5
8B1A
  8
0
 10
-36212.2427700102125527
 20
-17255.6429930421691097
 30
0.0
 40
0.0846538193752917
 50
289.5555673109142845
 51
299.0287756766899747
  0
ARC
  5
8B1B
  8
0
 10
-36212.3007127056625905
 20
-17255.4798708591588365
 30
0.0
 40
0.2577613077922289
 50
284.6122140099481044
 51
289.5555673109142845
  0
ARC
  5
8B1C
  8
0
 10
-36212.3389373126919963
 20
-17255.333252472228196
 30
0.0
 40
0.4092805209891513
 50
279.4491400241897168
 51
284.6122140099481044
  0
ARC
  5
8B1D
  8
0
 10
-36212.4862691913876915
 20
-17254.448005276688491
 30
0.0
 40
1.306704211166696
 50
276.3830364862694182
 51
279.4491400241897168
  0
ARC
  5
8B1E
  8
0
 10
-36212.5267620593804168
 20
-17254.0860358125610219
 30
0.0
 40
1.6709315650557459
 50
272.5575896305695096
 51
276.3830364862694182
  0
ARC
  5
8B1F
  8
0
 10
-36212.6653210236108862
 20
-17250.9840642792914878
 30
0.0
 40
4.7759961344020398
 50
271.2664243596938718
 51
272.5575896305695096
  0
ARC
  5
8B20
  8
0
 10
-36212.5970635199773824
 20
-17254.071678582149616
 30
0.0
 40
1.687627443641609
 50
269.6109340807018953
 51
271.2664243596938718
  0
ARC
  5
8B21
  8
0
 10
-36212.2381433745395043
 20
-17255.5796885752388334
 30
0.0
 40
0.154376924771929
 50
287.1151388400525093
 51
292.6483526962024939
  0
ARC
  5
8B22
  8
0
 10
-36212.300884231357486
 20
-17255.375937805580179
 30
0.0
 40
0.367568836559332
 50
280.0283863995181264
 51
287.1151388400525093
  0
ARC
  5
8B23
  8
0
 10
-36212.4644760679875617
 20
-17254.4508427394684986
 30
0.0
 40
1.3070171695467649
 50
276.4084461585865142
 51
280.0283863995181264
  0
ARC
  5
8B24
  8
0
 10
-36212.5120433893971494
 20
-17254.027334110251104
 30
0.0
 40
1.7331887419081391
 50
273.1886760432420829
 51
276.4084461585865142
  0
ARC
  5
8B25
  8
0
 10
-36212.6928341886014096
 20
-17250.7821461080202425
 30
0.0
 40
4.9834088087466784
 50
272.3106238283166931
 51
273.1886760432420829
  0
ARC
  5
8B26
  8
0
 10
-36212.5935880129982252
 20
-17253.2417866222385783
 30
0.0
 40
2.5217668236971451
 50
269.6606624559149736
 51
272.3106238283166931
  0
ENDSEC
  0
EOF
