  0
SECTION
  2
HEADER
  9
$ACADVER
  1
AC1009
  9
$INSBASE
 10
4903.5698283712490593
 20
2.191228439427007
 30
0.0
  9
$EXTMIN
 10
4895.1262861184650319
 20
-1.3936854729276851
 30
-0.0015258207003583
  9
$EXTMAX
 10
4903.7308922680167598
 20
15.3779464222695008
 30
0.0000000349246037
  9
$LIMMIN
 10
0.0
 20
0.0
  9
$LIMMAX
 10
11.6929133858000007
 20
8.2677165353999982
  9
$ORTHOMODE
 70
     0
  9
$REGENMODE
 70
     1
  9
$FILLMODE
 70
     1
  9
$QTEXTMODE
 70
     0
  9
$MIRRTEXT
 70
     0
  9
$DRAGMODE
 70
     2
  9
$LTSCALE
 40
0.6431102362
  9
$OSMODE
 70
  3839
  9
$ATTMODE
 70
     1
  9
$TEXTSIZE
 40
0.2
  9
$TRACEWID
 40
0.05
  9
$TEXTSTYLE
  7
STANDARD
  9
$CLAYER
  8
0
  9
$CELTYPE
  6
BYLAYER
  9
$CECOLOR
 62
   256
  9
$DIMSCALE
 40
1.0
  9
$DIMASZ
 40
0.1875
  9
$DIMEXO
 40
0.0625
  9
$DIMDLI
 40
0.4443307087
  9
$DIMRND
 40
0.0
  9
$DIMDLE
 40
0.0
  9
$DIMEXE
 40
0.125
  9
$DIMTP
 40
0.01
  9
$DIMTM
 40
0.01
  9
$DIMTXT
 40
2.0
  9
$DIMCEN
 40
0.1052362205
  9
$DIMTSZ
 40
0.0
  9
$DIMTOL
 70
     1
  9
$DIMLIM
 70
     0
  9
$DIMTIH
 70
     1
  9
$DIMTOH
 70
     1
  9
$DIMSE1
 70
     0
  9
$DIMSE2
 70
     0
  9
$DIMTAD
 70
     0
  9
$DIMZIN
 70
     0
  9
$DIMBLK
  1

  9
$DIMASO
 70
     1
  9
$DIMSHO
 70
     1
  9
$DIMPOST
  1
\X
  9
$DIMAPOST
  1

  9
$DIMALT
 70
     1
  9
$DIMALTD
 70
     2
  9
$DIMALTF
 40
25.3999999999999986
  9
$DIMLFAC
 40
1.0
  9
$DIMTOFL
 70
     0
  9
$DIMTVP
 40
0.0
  9
$DIMTIX
 70
     0
  9
$DIMSOXD
 70
     0
  9
$DIMSAH
 70
     0
  9
$DIMBLK1
  1

  9
$DIMBLK2
  1

  9
$DIMSTYLE
  2
STANDARD
  9
$DIMCLRD
 70
     0
  9
$DIMCLRE
 70
     0
  9
$DIMCLRT
 70
     0
  9
$DIMTFAC
 40
1.0
  9
$DIMGAP
 40
0.09
  9
$LUNITS
 70
     2
  9
$LUPREC
 70
     4
  9
$SKETCHINC
 40
0.1
  9
$FILLETRAD
 40
0.0
  9
$AUNITS
 70
     0
  9
$AUPREC
 70
     0
  9
$MENU
  1
.
  9
$ELEVATION
 40
0.0
  9
$PELEVATION
 40
0.0
  9
$THICKNESS
 40
0.0
  9
$LIMCHECK
 70
     0
  9
$BLIPMODE
 70
     0
  9
$CHAMFERA
 40
0.0
  9
$CHAMFERB
 40
0.0
  9
$SKPOLY
 70
     0
  9
$TDCREATE
 40
2458060.468368056230247
  9
$TDUPDATE
 40
2460514.7962500001303852
  9
$TDINDWG
 40
0.555921412
  9
$TDUSRTIMER
 40
0.555921412
  9
$USRTIMER
 70
     1
  9
$ANGBASE
 50
0.0
  9
$ANGDIR
 70
     0
  9
$PDMODE
 70
     0
  9
$PDSIZE
 40
0.3125
  9
$PLINEWID
 40
0.0
  9
$COORDS
 70
     1
  9
$SPLFRAME
 70
     0
  9
$SPLINETYPE
 70
     6
  9
$SPLINESEGS
 70
     8
  9
$ATTDIA
 70
     1
  9
$ATTREQ
 70
     1
  9
$HANDLING
 70
     1
  9
$HANDSEED
  5
25C00
  9
$SURFTAB1
 70
     6
  9
$SURFTAB2
 70
     6
  9
$SURFTYPE
 70
     6
  9
$SURFU
 70
     6
  9
$SURFV
 70
     6
  9
$UCSNAME
  2

  9
$UCSORG
 10
0.0
 20
0.0
 30
0.0
  9
$UCSXDIR
 10
1.0
 20
0.0
 30
0.0
  9
$UCSYDIR
 10
0.0
 20
1.0
 30
0.0
  9
$PUCSNAME
  2

  9
$PUCSORG
 10
0.0
 20
0.0
 30
0.0
  9
$PUCSXDIR
 10
1.0
 20
0.0
 30
0.0
  9
$PUCSYDIR
 10
0.0
 20
1.0
 30
0.0
  9
$USERI1
 70
     0
  9
$USERI2
 70
     0
  9
$USERI3
 70
     0
  9
$USERI4
 70
     0
  9
$USERI5
 70
     0
  9
$USERR1
 40
0.0
  9
$USERR2
 40
0.0
  9
$USERR3
 40
0.0
  9
$USERR4
 40
0.0
  9
$USERR5
 40
0.0
  9
$WORLDVIEW
 70
     1
  9
$SHADEDGE
 70
     3
  9
$SHADEDIF
 70
    70
  9
$TILEMODE
 70
     1
  9
$MAXACTVP
 70
    64
  9
$PLIMCHECK
 70
     0
  9
$PEXTMIN
 10
1.0000000000000000E+20
 20
1.0000000000000000E+20
 30
1.0000000000000000E+20
  9
$PEXTMAX
 10
-1.0000000000000000E+20
 20
-1.0000000000000000E+20
 30
-1.0000000000000000E+20
  9
$PLIMMIN
 10
0.0
 20
0.0
  9
$PLIMMAX
 10
12.0
 20
9.0
  9
$UNITMODE
 70
     0
  9
$VISRETAIN
 70
     1
  9
$PLINEGEN
 70
     0
  9
$PSLTSCALE
 70
     1
  0
ENDSEC
  0
SECTION
  2
TABLES
  0
TABLE
  2
VPORT
 70
     1
  0
VPORT
  2
*ACTIVE
 70
     0
 10
0.0
 20
0.0
 11
1.0
 21
1.0
 12
1107.0706790369899863
 22
-113.1885259584344965
 13
0.0
 23
0.0
 14
1.0
 24
1.0
 15
0.0
 25
0.0
 16
0.0
 26
0.0
 36
5.1040778033513332
 17
3792.35791015625
 27
120.1806564331053977
 37
0.0
 40
16.8917151784563515
 41
2.2831541218637992
 42
50.0
 43
0.0
 44
0.0
 50
0.0
 51
0.0
 71
     0
 72
   100
 73
     1
 74
     1
 75
     0
 76
     0
 77
     0
 78
     0
  0
ENDTAB
  0
TABLE
  2
LTYPE
 70
     2
  0
LTYPE
  2
CONTINUOUS
 70
     0
  3
Solid line
 72
    65
 73
     0
 40
0.0
  0
LTYPE
  2
PHANTOM2
 70
     0
  3
___ _ _ ___ _ _ ___ _ _ ___ _ _
 72
    65
 73
     6
 40
1.25
 49
0.625
 49
-0.125
 49
0.125
 49
-0.125
 49
0.125
 49
-0.125
  0
ENDTAB
  0
TABLE
  2
LAYER
 70
     2
  0
LAYER
  2
0
 70
     0
 62
   255
  6
CONTINUOUS
  0
LAYER
  2
DEFPOINTS
 70
     0
 62
     7
  6
CONTINUOUS
  0
ENDTAB
  0
TABLE
  2
STYLE
 70
     1
  0
STYLE
  2
STANDARD
 70
     0
 40
0.0
 41
0.8
 50
0.0
 71
     0
 42
0.2
  3
txt
  4

  0
ENDTAB
  0
TABLE
  2
VIEW
 70
     0
  0
ENDTAB
  0
TABLE
  2
UCS
 70
     0
  0
ENDTAB
  0
TABLE
  2
APPID
 70
     9
  0
APPID
  2
ACAD
 70
     0
  0
APPID
  2
ACAD_MLEADERVER
 70
     0
  0
APPID
  2
ACAD_EXEMPT_FROM_CAD_STANDARDS
 70
     0
  0
APPID
  2
ACAD_NAV_VCDISPLAY
 70
     0
  0
APPID
  2
ACAECLAYERSTANDARD
 70
     0
  0
APPID
  2
ACCMTRANSPARENCY
 70
     0
  0
APPID
  2
ACAD_DSTYLE_DIMJAG
 70
     0
  0
APPID
  2
ACAD_DSTYLE_DIMTALN
 70
     0
  0
APPID
  2
ACDBATTR
 70
     0
  0
ENDTAB
  0
TABLE
  2
DIMSTYLE
 70
     1
  0
DIMSTYLE
  2
STANDARD
 70
     0
  3

  4

  5

  6

  7

 40
1.0
 41
0.1875
 42
0.0625
 43
0.38
 44
0.125
 45
0.0
 46
0.0
 47
0.01
 48
0.01
140
0.15625
141
0.09
142
0.0
143
25.3999999999999986
144
1.0
145
0.0
146
1.0
147
0.09
 71
     1
 72
     0
 73
     1
 74
     1
 75
     0
 76
     0
 77
     0
 78
     4
170
     0
171
     2
172
     0
173
     0
174
     0
175
     0
176
     0
177
     0
178
     0
  0
ENDTAB
  0
ENDSEC
  0
SECTION
  2
BLOCKS
  0
BLOCK
  8
0
  2
$MODEL_SPACE
 70
     0
 10
0.0
 20
0.0
 30
0.0
  3
$MODEL_SPACE
  1

  0
ENDBLK
  5
21
  8
0
  0
BLOCK
 67
     1
  8
0
  2
$PAPER_SPACE
 70
     0
 10
0.0
 20
0.0
 30
0.0
  3
$PAPER_SPACE
  1

  0
ENDBLK
  5
1D
 67
     1
  8
0
  0
BLOCK
  8
0
  2
_FILLED
 70
     0
 10
0.0
 20
0.0
 30
0.0
  3
_FILLED
  1

  0
SOLID
  5
22866
  8
0
  6
BYBLOCK
 62
     0
 10
0.0
 20
0.0
 30
0.0
 11
-1.0
 21
0.1666666667
 31
0.0
 12
-1.0
 22
-0.1666666667
 32
0.0
 13
-1.0
 23
-0.1666666667
 33
0.0
  0
ENDBLK
  5
22867
  8
0
  6
BYBLOCK
 62
     0
  0
ENDSEC
  0
SECTION
  2
ENTITIES
  0
ATTDEF
  5
22EF2
  8
DEFPOINTS
 10
4903.57056876068782
 20
2.1954444066149099
 30
0.0
 40
0.001
  1
K-T35326-4G
  3

  2
MODELNUMBER
 70
     0
1001
ACDBATTR
1070
     0
1070
     1
  0
ATTDEF
  5
22EF3
  8
DEFPOINTS
 10
4903.57056876068782
 20
2.1937777399482452
 30
0.0
 40
0.001
  1
ELATE/RITE-TEMP
  3

  2
TRADENAME
 70
     0
1001
ACDBATTR
1070
     0
1070
     1
  0
ATTDEF
  5
22EF4
  8
DEFPOINTS
 10
4903.57056876068782
 20
2.1921110732815801
 30
0.0
 40
0.001
  1
SHOWER TRIM
  3

  2
PRODUCT
 70
     0
1001
ACDBATTR
1070
     0
1070
     1
  0
LINE
  5
25913
  8
0
 10
4903.5698283712490593
 20
5.4302228868601414
 30
0.0
 11
4903.5698283712490593
 21
-1.047766008006126
 31
0.0
  0
LINE
  5
25914
  8
0
 10
4902.6066577455503648
 20
3.351333580536858
 30
0.0
 11
4902.6066577455503648
 21
1.0106924328332569
 31
0.0
  0
LINE
  5
25915
  8
0
 10
4902.6392360581494358
 20
5.3713272018505034
 30
0.0
 11
4902.6392360581494358
 21
-0.9715754726013603
 31
0.0
  0
LINE
  5
25916
  8
0
 10
4899.2012657754739848
 20
3.2851917724544948
 30
0.0
 11
4899.2022392817298169
 21
-1.348138795780905
 31
0.0
  0
LINE
  5
25917
  8
0
 10
4899.6111566511162891
 20
3.2983636925154789
 30
0.0
 11
4899.6111566511162891
 21
-1.3536996347845389
 31
0.0
  0
LINE
  5
25918
  8
0
 10
4899.6308416905158083
 20
3.3063856768243349
 30
0.0
 11
4899.6308416905158083
 21
1.093366052435206
 31
0.0
  0
ARC
  5
25919
  8
0
 10
5037.9065539200473722
 20
0.9976696694803788
 30
0.0
 40
138.7241497239776038
 50
179.0551659338898105
 51
180.9689108282753978
  0
ARC
  5
2591A
  8
0
 10
4899.2363905330003035
 20
3.2857674022041241
 30
0.0
 40
0.0351294739632465
 50
90.5851572355790324
 51
180.9388877081289024
  0
LINE
  5
2591B
  8
0
 10
4899.2360317647162447
 20
3.320895044115479
 30
0.0
 11
4899.5751051879160514
 21
3.3260744297000948
 31
0.0
  0
ARC
  5
2591C
  8
0
 10
4899.5741163005632188
 20
3.288806343995001
 30
0.0
 40
0.0372812031769473
 50
6.5163206872672994
 51
88.4800458922521358
  0
LINE
  5
2591D
  8
0
 10
4899.6111566511162891
 20
3.2983636925154789
 30
0.0
 11
4899.6308416905158083
 21
3.2983612182216899
 31
0.0
  0
ARC
  5
2591E
  8
0
 10
4899.6505564813624005
 20
3.3063760111824561
 30
0.0
 40
0.0197147932157294
 50
92.335383631863067
 51
179.9719093930116003
  0
LINE
  5
2591F
  8
0
 10
4899.6497531262448319
 20
3.326074429700101
 30
0.0
 11
4902.5058937502208209
 21
3.3532461493269539
 31
0.0
  0
ARC
  5
25920
  8
0
 10
4902.5227240196791172
 20
1.5846116515123869
 30
0.0
 40
1.768714574155436
 50
87.2800274822261741
 51
90.5452083535364949
  0
ARC
  5
25921
  8
0
 10
5031.7660283954146507
 20
2.2785200126683001
 30
0.0
 40
129.1638260335325867
 50
178.627930573206811
 51
179.5241051748224095
  0
ARC
  5
25922
  8
0
 10
4902.702210186249431
 20
5.3698215033243191
 30
0.0
 40
0.0629921260000126
 50
91.0000000133700837
 51
178.6303300236999974
  0
LINE
  5
25923
  8
0
 10
4902.7011108220503957
 20
5.432804035318175
 30
0.0
 11
4903.5500920776366911
 21
5.4476200776266888
 31
0.0
  0
ARC
  5
25924
  8
0
 10
4903.5501113529962822
 20
5.4277484014148722
 30
0.0
 40
0.0198716855602858
 50
7.1532207755977382
 51
90.0555764078656154
  0
ARC
  5
25925
  8
0
 10
4899.2403284058327699
 20
-1.348455394519567
 30
0.0
 40
0.0380904398722582
 50
179.5237655312710103
 51
269.5851038912031186
  0
LINE
  5
25926
  8
0
 10
4899.2400525838211252
 20
-1.3865448357320589
 30
0.0
 11
4899.576358185026038
 21
-1.3930697142845121
 31
0.0
  0
ARC
  5
25927
  8
0
 10
4899.5712243091638811
 20
-1.353468087214085
 30
0.0
 40
0.0399330132595649
 50
277.3865149990544978
 51
359.6677743099858162
  0
LINE
  5
25928
  8
0
 10
4899.6111566511162891
 20
1.101513298815479
 30
0.0
 11
4899.6308416905158083
 21
1.101513298815479
 31
0.0
  0
ARC
  5
25929
  8
0
 10
4899.6505269973258692
 20
1.093489531475744
 30
0.0
 40
0.0196856940779852
 50
180.3593916917239994
 51
269.4540313530342246
  0
LINE
  5
2592A
  8
0
 10
4899.6503394161618417
 20
1.073804731130342
 30
0.0
 11
4902.5058949471986125
 21
1.046631366200897
 31
0.0
  0
ARC
  5
2592B
  8
0
 10
4902.5274571755671786
 20
2.6727367106758839
 30
0.0
 40
1.626248296239645
 50
269.2402999679130176
 51
272.7914889492506063
  0
ARC
  5
2592C
  8
0
 10
5031.7660283954146507
 20
2.1212317165803158
 30
0.0
 40
129.1638260335325867
 50
180.4758948251773063
 51
181.37206942679299
  0
ARC
  5
2592D
  8
0
 10
4902.702210186249431
 20
-0.9700697740756556
 30
0.0
 40
0.0629921260000126
 50
181.3696699762994058
 51
268.9999999866299163
  0
LINE
  5
2592E
  8
0
 10
4902.7011108220503957
 20
-1.033052306069512
 30
0.0
 11
4903.5497997806405692
 21
-1.047866226948821
 31
0.0
  0
ARC
  5
2592F
  8
0
 10
4903.5501108742073484
 20
-1.0279964772450449
 30
0.0
 40
0.0198721848949242
 50
269.1030137537238147
 51
352.8463934970620244
  0
LINE
  5
25930
  8
0
 10
4902.6152109342538097
 20
0.2881183171903707
 30
0.0
 11
4901.8897729744157914
 21
0.27545575051548
 31
0.0
  0
ARC
  5
25931
  8
0
 10
4901.8902993367573799
 20
0.245300472169216
 30
0.0
 40
0.0301598718408167
 50
90.9999999987769854
 51
179.9999999121112921
  0
LINE
  5
25932
  8
0
 10
4901.8601394649158465
 20
0.2453004722154795
 30
0.0
 11
4901.8601394638562851
 21
-0.4454234808845206
 31
0.0
  0
ARC
  5
25933
  8
0
 10
4901.8902993355841318
 20
-0.445423480930784
 30
0.0
 40
0.0301598717278413
 50
179.9999999121087058
 51
269.0000021454156922
  0
LINE
  5
25934
  8
0
 10
4901.8897729743739546
 20
-0.4755787591837866
 30
0.0
 11
4902.6285691155426321
 21
-0.4884744661242105
 31
0.0
  0
LINE
  5
25935
  8
0
 10
4901.8601394639263162
 20
-0.4000615043845209
 30
0.0
 11
4901.790139464917047
 21
-0.4000615043845209
 31
0.0
  0
ARC
  5
25936
  8
0
 10
4901.790139464917047
 20
-0.3800615043845195
 30
0.0
 40
0.0200000000000014
 50
179.9999988540880906
 51
270.0
  0
LINE
  5
25937
  8
0
 10
4901.770139464915701
 20
-0.3800615039845203
 30
0.0
 11
4901.7701394761161282
 21
0.1799384956154792
 31
0.0
  0
ARC
  5
25938
  8
0
 10
4901.7901394765158329
 20
0.179938495215481
 30
0.0
 40
0.0200000004000014
 50
90.0000332314612166
 51
179.9999988540861011
  0
LINE
  5
25939
  8
0
 10
4901.790139464917047
 20
0.1999384956154797
 30
0.0
 11
4901.8503751219041078
 21
0.1999385305520507
 31
0.0
  0
ARC
  5
2593A
  8
0
 10
4901.7307693918755831
 20
0.1680683859748733
 30
0.0
 40
0.0393700730406117
 50
359.9999984582506158
 51
90.0000082361746649
  0
LINE
  5
2593B
  8
0
 10
4901.7307693862148881
 20
0.2074384590154796
 30
0.0
 11
4901.2976985200157287
 21
0.2074383967621873
 31
0.0
  0
ARC
  5
2593C
  8
0
 10
4901.2976985103950938
 20
0.2743675210413166
 30
0.0
 40
0.0669291242791299
 50
179.9999071389055985
 51
270.0000082361746081
  0
LINE
  5
2593D
  8
0
 10
4901.2307693862157976
 20
0.3066135391154798
 30
0.0
 11
4901.2307693862157976
 21
-0.5067543752845208
 31
0.0
  0
ARC
  5
2593E
  8
0
 10
4901.1874622571158397
 20
-0.5067543752845208
 30
0.0
 40
0.04330712910002
 50
270.0000560956486879
 51
359.9999999999989768
  0
LINE
  5
2593F
  8
0
 10
4901.1874622995155732
 20
-0.5500615043845203
 30
0.0
 11
4901.0657204497147177
 21
-0.5500616235763696
 31
0.0
  0
ARC
  5
25940
  8
0
 10
4901.0657204073158937
 20
-0.50675461933346
 30
0.0
 40
0.0433070042429306
 50
191.6927839929045092
 51
270.0000560956486879
  0
ARC
  5
25941
  8
0
 10
4903.0308134824335866
 20
-0.1000615041734294
 30
0.0
 40
2.0500431811724669
 50
168.3072160175888996
 51
191.6927839929047934
  0
ARC
  5
25942
  8
0
 10
4901.0657202607799263
 20
0.3066316409382654
 30
0.0
 40
0.0433068546776264
 50
89.999750034263343
 51
168.3072160175892122
  0
LINE
  5
25943
  8
0
 10
4901.0657204497147177
 20
0.3499384956154792
 30
0.0
 11
4901.1874622995146638
 21
0.3499379644893015
 31
0.0
  0
ARC
  5
25944
  8
0
 10
4901.1896004164218539
 20
0.3087681355394469
 30
0.0
 40
0.0412253121233537
 50
357.004133016296521
 51
92.972932309518626
  0
LINE
  5
25945
  8
0
 10
4901.023308117990382
 20
0.3153891624487795
 30
0.0
 11
4901.023308117990382
 21
-0.5155121712177638
 31
0.0
  0
ARC
  5
25946
  8
0
 10
4901.2976985199447881
 20
-0.4744906380138128
 30
0.0
 40
0.0669291337292926
 50
89.9999999394479318
 51
180.0000001461370118
  0
LINE
  5
25947
  8
0
 10
4901.2976985200157287
 20
-0.4075615042845202
 30
0.0
 11
4901.7307693862148881
 21
-0.4075615047420538
 31
0.0
  0
ARC
  5
25948
  8
0
 10
4901.7307693862576343
 20
-0.3681914260836354
 30
0.0
 40
0.0393700786584184
 50
269.9999999394480028
 51
0.0000496248780979
  0
LINE
  5
25949
  8
0
 10
4895.4900068246788578
 20
12.7188218312834902
 30
0.0
 11
4898.5990547034862175
 21
9.6102802298924939
 31
0.0
  0
LINE
  5
2594A
  8
0
 10
4895.4923845035764316
 20
12.7733305568574398
 30
0.0
 11
4895.9390967137433108
 21
13.14816660764291
 31
0.0
  0
LINE
  5
2594B
  8
0
 10
4895.5182800008278718
 20
12.6844619665251006
 30
0.0
 11
4898.5607597142397935
 21
9.6419735370202293
 31
0.0
  0
ARC
  5
2594C
  8
0
 10
4895.5161676451343737
 20
12.7449869124618207
 30
0.0
 40
0.037
 50
129.9999999994730899
 51
225.0046654027702004
  0
LINE
  5
2594D
  8
0
 10
4895.4900068246788578
 20
12.7188218312834902
 30
0.0
 11
4895.5182800008278718
 21
12.6844619665251006
 31
0.0
  0
LINE
  5
2594E
  8
0
 10
4895.9922825527428358
 20
13.1458444637625398
 30
0.0
 11
4899.0221914145449773
 21
10.1159356019589808
 31
0.0
  0
ARC
  5
2594F
  8
0
 10
4895.9644225455640481
 20
13.1179844565837893
 30
0.0
 40
0.0394
 50
44.9999999999937899
 51
129.9999999994747952
  0
LINE
  5
25950
  8
0
 10
4896.9409393822052152
 20
12.4147201813185308
 30
0.0
 11
4895.9922825527428358
 21
13.1458444637625398
 31
0.0
  0
LINE
  5
25951
  8
0
 10
4897.339089384795443
 20
12.4229864337581493
 30
0.0
 11
4897.6752374035449975
 21
12.7050481123828298
 31
0.0
  0
ARC
  5
25952
  8
0
 10
4897.1348757611667679
 20
12.6663587533120108
 30
0.0
 40
0.3177
 50
232.3787685012422912
 51
310.0000000070266992
  0
LINE
  5
25953
  8
0
 10
4897.7251834960097767
 20
12.7028674188942503
 30
0.0
 11
4898.5792143696789935
 21
11.8488365452272699
 31
0.0
  0
ARC
  5
25954
  8
0
 10
4897.6990205451065776
 20
12.6767044679903407
 30
0.0
 40
0.037
 50
44.9999999999966178
 51
130.0000000070255908
  0
LINE
  5
25955
  8
0
 10
4898.3905272300808065
 20
13.1514115477977196
 30
0.0
 11
4898.0878465890000371
 21
12.8487309066172006
 31
0.0
  0
LINE
  5
25956
  8
0
 10
4898.4046693657055584
 20
13.1514115477994498
 30
0.0
 11
4899.027758498631556
 21
12.5283224149732
 31
0.0
  0
ARC
  5
25957
  8
0
 10
4898.3975982978936372
 20
13.1443404799870205
 30
0.0
 40
0.01
 50
45.0000000046177107
 51
135.0000000094514121
  0
LINE
  5
25958
  8
0
 10
4898.0622827467814204
 20
12.7200986393288193
 30
0.0
 11
4898.0728481026344525
 21
12.6946160957296197
 31
0.0
  0
ARC
  5
25959
  8
0
 10
4898.1712851891943501
 20
12.76529230645097
 30
0.0
 40
0.118
 50
135.0000000094524921
 51
202.5194588388455941
  0
LINE
  5
2595A
  8
0
 10
4898.0472842603321624
 20
12.5659838283591405
 30
0.0
 11
4897.999451227417012
 21
12.5181507955223097
 31
0.0
  0
ARC
  5
2595B
  8
0
 10
4897.9638456602206134
 20
12.6494224286074708
 30
0.0
 40
0.118
 50
314.9999999530767241
 51
22.5194588388458214
  0
ARC
  5
2595C
  8
0
 10
4897.9695869845390916
 20
12.0930829478894601
 30
0.0
 40
0.4135322892505354
 50
89.7464640400112046
 51
96.3345496189847239
  0
ARC
  5
2595D
  8
0
 10
4897.9715912202609616
 20
12.5460108027238704
 30
0.0
 40
0.0394
 50
269.7464640400111762
 51
314.9999999530776904
  0
LINE
  5
2595E
  8
0
 10
4898.6194442859841729
 20
12.9238347283005499
 30
0.0
 11
4898.3147163361818457
 21
12.6191067785987201
 31
0.0
  0
ARC
  5
2595F
  8
0
 10
4898.6218524818150399
 20
12.9167241803553701
 30
0.0
 40
0.0075072830798212
 50
75.2916343829741948
 51
108.7101795994402949
  0
ARC
  5
25960
  8
0
 10
4898.6159110027028873
 20
12.8954619343748007
 30
0.0
 40
0.0295833671838691
 50
57.4884636341184674
 51
74.6170187240802107
  0
ARC
  5
25961
  8
0
 10
4898.5725448505336317
 20
12.8260135687248997
 30
0.0
 40
0.1114585574228666
 50
47.0785286424929907
 51
57.8773091846240604
  0
ARC
  5
25962
  8
0
 10
4898.344678093728362
 20
12.5938208446814102
 30
0.0
 40
0.0392056803189542
 50
139.8376326717315976
 51
168.9360947428388897
  0
ARC
  5
25963
  8
0
 10
4898.3666603920337366
 20
12.5897798177992399
 30
0.0
 40
0.0615554165211242
 50
169.1711837624769998
 51
188.4039806660819067
  0
ARC
  5
25964
  8
0
 10
4898.4222438066108225
 20
12.5990266895688894
 30
0.0
 40
0.1178978798050943
 50
188.9016122660837027
 51
207.2735615071522091
  0
ARC
  5
25965
  8
0
 10
4898.5083136537487007
 20
12.6418729675838701
 30
0.0
 40
0.2140373977101305
 50
206.9101435944959064
 51
219.6931162838482123
  0
ARC
  5
25966
  8
0
 10
4898.5522577188421565
 20
12.6760910499802097
 30
0.0
 40
0.2697111475035665
 50
219.3243308919128083
 51
225.0270807651988036
  0
LINE
  5
25967
  8
0
 10
4895.7777471263570988
 20
12.3418651695666899
 30
0.0
 11
4895.8013647723673785
 21
12.3671919941121704
 31
0.0
  0
LINE
  5
25968
  8
0
 10
4895.8840971653962697
 20
12.2355151304227103
 30
0.0
 11
4895.9008274143461676
 21
12.2511163399785996
 31
0.0
  0
LINE
  5
25969
  8
0
 10
4895.8677057247214179
 20
12.23580124408468
 30
0.0
 11
4895.778033240007062
 21
12.3254737288978902
 31
0.0
  0
LINE
  5
2596A
  8
0
 10
4896.0091832863308809
 20
12.0943236823161904
 30
0.0
 11
4896.0988557710388704
 21
12.00465119750851
 31
0.0
  0
LINE
  5
2596B
  8
0
 10
4896.4257012774069153
 20
11.6778056907757595
 30
0.0
 11
4896.5153737620994434
 21
11.5881332059843096
 31
0.0
  0
LINE
  5
2596C
  8
0
 10
4896.0088971726618183
 20
12.1107151229643097
 30
0.0
 11
4896.0331857369083082
 21
12.1367614193580806
 31
0.0
  0
LINE
  5
2596D
  8
0
 10
4896.1152472117146317
 20
12.0043650838475795
 30
0.0
 11
4896.1342564286342167
 21
12.0220914654218198
 31
0.0
  0
LINE
  5
2596E
  8
0
 10
4896.4254151637487666
 20
11.6941971314357591
 30
0.0
 11
4896.4494308230669048
 21
11.7199507730520001
 31
0.0
  0
LINE
  5
2596F
  8
0
 10
4896.5317652027579243
 20
11.5878470923073191
 30
0.0
 11
4896.5534909925208922
 21
11.6081067189635192
 31
0.0
  0
ARC
  5
25970
  8
0
 10
4895.7863771000302222
 20
12.3338175889112396
 30
0.0
 40
0.0118
 50
136.9999999554154897
 51
224.9999999680225926
  0
ARC
  5
25971
  8
0
 10
4895.8760495847418497
 20
12.2441451040980294
 30
0.0
 40
0.0118
 50
224.9999999680225926
 51
313.0000000270088094
  0
ARC
  5
25972
  8
0
 10
4896.0175271463540412
 20
12.1026675423295291
 30
0.0
 40
0.0118
 50
137.0000000926800112
 51
224.9999999680653957
  0
ARC
  5
25973
  8
0
 10
4896.1071996310611212
 20
12.0129950575218505
 30
0.0
 40
0.0118
 50
224.999999968024099
 51
313.0000000344239766
  0
ARC
  5
25974
  8
0
 10
4896.4340451374291661
 20
11.6861495507891107
 30
0.0
 40
0.0118
 50
137.0000000138188057
 51
224.9999999680638894
  0
ARC
  5
25975
  8
0
 10
4896.5237176221207847
 20
11.5964770659976608
 30
0.0
 40
0.0118
 50
224.9999999680624114
 51
312.9999999200045977
  0
ARC
  5
25976
  8
0
 10
4896.1714993002788106
 20
12.6770581701560907
 30
0.0
 40
0.4850067783426218
 50
217.0818726555222042
 51
219.9686278792586904
  0
ARC
  5
25977
  8
0
 10
4895.79092126793239
 20
12.3894184986628009
 30
0.0
 40
0.007957284765407
 50
207.312046451245493
 51
217.081872655520101
  0
ARC
  5
25978
  8
0
 10
4895.7845831034701405
 20
12.3861454402562501
 30
0.0
 40
0.0008238956633307
 50
194.8159015128144063
 51
207.3120464512356023
  0
ARC
  5
25979
  8
0
 10
4895.7838525211782326
 20
12.3859521951572606
 30
0.0
 40
0.0000681879472768
 50
64.1841244932721935
 51
194.8159015123436859
  0
ARC
  5
2597A
  8
0
 10
4895.7179913747750106
 20
12.3137669040619002
 30
0.0
 40
0.0977813110327939
 50
41.371009684837631
 51
47.6343730417280113
  0
ARC
  5
2597B
  8
0
 10
4892.9504091773769687
 20
9.8337148472682507
 30
0.0
 40
3.8139814181753251
 50
40.4212116662946173
 51
41.8511334660767815
  0
ARC
  5
2597C
  8
0
 10
4893.040874219307625
 20
9.8888622501648147
 30
0.0
 40
3.709390335709581
 50
39.4098899917810499
 51
40.6787626330253218
  0
ARC
  5
2597D
  8
0
 10
4895.7057516976738043
 20
12.0776682549191801
 30
0.0
 40
0.2608491189055718
 50
36.8891976491664195
 51
39.5659361375163385
  0
ARC
  5
2597E
  8
0
 10
4895.8990092514823118
 20
12.2229031165416799
 30
0.0
 40
0.0191026981385692
 50
31.7641181966899708
 51
36.4335161587920382
  0
ARC
  5
2597F
  8
0
 10
4895.9130163268682736
 20
12.2316221972322605
 30
0.0
 40
0.0026039382246889
 50
23.9543283577409092
 51
30.89481307255015
  0
ARC
  5
25980
  8
0
 10
4895.9150229821152607
 20
12.2325137017671395
 30
0.0
 40
0.0004081591800026
 50
7.8429376609075234
 51
23.954328357681419
  0
ARC
  5
25981
  8
0
 10
4895.9153763853983037
 20
12.2325623818343203
 30
0.0
 40
0.0000514188959295
 50
221.6527116763813012
 51
7.8429376608977419
  0
ARC
  5
25982
  8
0
 10
4896.0957574266267329
 20
12.4176101033450301
 30
0.0
 40
0.2584695141777973
 50
220.5217807278069984
 51
225.7308408696277127
  0
ARC
  5
25983
  8
0
 10
4896.2677557732986315
 20
12.3236549724088391
 30
0.0
 40
0.3064422207431646
 50
215.3760887175388063
 51
218.7272583259791929
  0
ARC
  5
25984
  8
0
 10
4896.0629712778318208
 20
12.1782507936096405
 30
0.0
 40
0.0552867613242125
 50
208.6227057687648028
 51
215.3760887175388063
  0
ARC
  5
25985
  8
0
 10
4896.0184885331518672
 20
12.1539751406984102
 30
0.0
 40
0.0046111074200643
 50
189.2408401465548025
 51
208.6227057687642059
  0
ARC
  5
25986
  8
0
 10
4896.0142985963911997
 20
12.1532934537575006
 30
0.0
 40
0.0003660788978942
 50
65.1924938537131595
 51
189.2408401466360033
  0
ARC
  5
25987
  8
0
 10
4895.9411407257130122
 20
12.0539941306843694
 30
0.0
 40
0.1236973366293718
 50
43.555129126018798
 51
53.653425098352983
  0
ARC
  5
25988
  8
0
 10
4894.90403598814828
 20
11.0404683964456805
 30
0.0
 40
1.5737971747373889
 50
40.492125300075827
 51
44.2794351704802267
  0
ARC
  5
25989
  8
0
 10
4895.404789258675919
 20
11.4524657444602003
 30
0.0
 40
0.9255246155710088
 50
37.2830186626142392
 51
41.2250465029898123
  0
ARC
  5
2598A
  8
0
 10
4896.0847916425500443
 20
11.9678102816846099
 30
0.0
 40
0.0723317245655413
 50
30.6184635199521402
 51
38.7706124914216517
  0
ARC
  5
2598B
  8
0
 10
4896.1407879507069083
 20
12.0008261238814296
 30
0.0
 40
0.00732773403906
 50
14.38150671349036
 51
31.4572001744061609
  0
ARC
  5
2598C
  8
0
 10
4896.1474482399898989
 20
12.0026293301915192
 30
0.0
 40
0.0004381419317798
 50
268.4937090123544863
 51
2.202195942307569
  0
ARC
  5
2598D
  8
0
 10
4896.1612719977438246
 20
12.0270697339701798
 30
0.0
 40
0.0284666355485722
 50
225.4445842079325928
 51
240.9208606069589962
  0
ARC
  5
2598E
  8
0
 10
4896.5747615647042039
 20
12.4671657372026399
 30
0.0
 40
0.6323284782478559
 50
225.2733809552844946
 51
226.7249892913114877
  0
ARC
  5
2598F
  8
0
 10
4896.562333054026567
 20
11.8126221709068506
 30
0.0
 40
0.1556298512480631
 50
212.7493105392661903
 51
219.8504156287249032
  0
ARC
  5
25990
  8
0
 10
4896.4569947099189449
 20
11.7448680631915394
 30
0.0
 40
0.0303829516794618
 50
201.9608292169417894
 51
212.7493105392653945
  0
ARC
  5
25991
  8
0
 10
4896.4301236357187008
 20
11.7340328080306602
 30
0.0
 40
0.0014095607316913
 50
155.0252317982780141
 51
201.9608292169399988
  0
ARC
  5
25992
  8
0
 10
4896.4294842459366919
 20
11.7340338698047209
 30
0.0
 40
0.000872036203272
 50
70.1460937226647587
 51
137.0579692008219865
  0
ARC
  5
25993
  8
0
 10
4896.3405565664816095
 20
11.5968035143757895
 30
0.0
 40
0.1643741192113238
 50
43.5484079910434119
 51
57.1248967792526727
  0
ARC
  5
25994
  8
0
 10
4895.6375312716672852
 20
10.8594289711081693
 30
0.0
 40
1.1830090480618589
 50
39.6925893083417307
 51
45.9747266820441993
  0
ARC
  5
25995
  8
0
 10
4896.3800635630068427
 20
11.4711597220463197
 30
0.0
 40
0.2209786262792202
 50
33.3377903667467024
 51
40.6042451424229114
  0
ARC
  5
25996
  8
0
 10
4896.5481224312034101
 20
11.5820002219094604
 30
0.0
 40
0.0196610905735722
 50
19.7401196840015487
 51
32.6372961348985413
  0
ARC
  5
25997
  8
0
 10
4896.5644430443653619
 20
11.5879089708229497
 30
0.0
 40
0.0023043884743503
 50
353.3720201239257221
 51
18.5177770308999712
  0
ARC
  5
25998
  8
0
 10
4896.5660974274087494
 20
11.5877881469219908
 30
0.0
 40
0.0006509930679933
 50
251.3610168896126993
 51
347.1162967847483856
  0
ARC
  5
25999
  8
0
 10
4896.6073006371825613
 20
11.6603999362102808
 30
0.0
 40
0.0841268492782247
 50
224.0534943347838066
 51
240.5115592446728101
  0
LINE
  5
2599A
  8
0
 10
4896.1294328583771858
 20
11.93788360592829
 30
0.0
 11
4896.0397603736118981
 21
12.0275560906932206
 31
0.0
  0
LINE
  5
2599B
  8
0
 10
4896.2154881647120419
 20
11.8518282995932296
 30
0.0
 11
4896.3051858899580111
 21
11.7621305743467008
 31
0.0
  0
LINE
  5
2599C
  8
0
 10
4896.5321387027115634
 20
11.5351777615932392
 30
0.0
 11
4896.6218111874759416
 21
11.4455052768283103
 31
0.0
  0
LINE
  5
2599D
  8
0
 10
4896.9269954652118031
 20
11.1403209990932197
 30
0.0
 11
4897.0166679498770463
 21
11.0506485144282998
 31
0.0
  0
LINE
  5
2599E
  8
0
 10
4896.039474259938288
 20
12.0439475313466708
 30
0.0
 11
4896.0491661536580068
 21
12.0543408149446005
 31
0.0
  0
LINE
  5
2599F
  8
0
 10
4896.145824299049309
 20
11.9375974922717294
 30
0.0
 11
4896.1624740068864412
 21
11.9531235960283606
 31
0.0
  0
LINE
  5
259A0
  8
0
 10
4896.2152020510557122
 20
11.8682197402658698
 30
0.0
 11
4896.2368000583237517
 21
11.8913807674266003
 31
0.0
  0
LINE
  5
259A1
  8
0
 10
4896.3216353425541456
 20
11.7618989245276406
 30
0.0
 11
4896.3398197029246148
 21
11.7790868258013397
 31
0.0
  0
LINE
  5
259A2
  8
0
 10
4896.5318525890697856
 20
11.5515692022803993
 30
0.0
 11
4896.5532639089633449
 21
11.5745300316647004
 31
0.0
  0
LINE
  5
259A3
  8
0
 10
4896.6382026281298749
 20
11.4452191631545208
 30
0.0
 11
4896.65835303138374
 21
11.46400971812173
 31
0.0
  0
LINE
  5
259A4
  8
0
 10
4896.9267093515409215
 20
11.1567124397489508
 30
0.0
 11
4896.9469682118642595
 21
11.1784374077168103
 31
0.0
  0
ARC
  5
259A5
  8
0
 10
4896.9353393252304159
 20
11.1486648591112196
 30
0.0
 40
0.0118
 50
137.0000000730973966
 51
224.9999999999980957
  0
ARC
  5
259A6
  8
0
 10
4896.6301550474936448
 20
11.4538491368463102
 30
0.0
 40
0.0118
 50
224.9999999999936051
 51
312.9999999096763759
  0
ARC
  5
259A7
  8
0
 10
4896.5404825627310856
 20
11.5435216216112408
 30
0.0
 40
0.0118
 50
136.9999998644364894
 51
224.9999999999959073
  0
ARC
  5
259A8
  8
0
 10
4896.3135297499766239
 20
11.7704744343647008
 30
0.0
 40
0.0118
 50
224.9999999999980957
 51
313.3863682282283207
  0
ARC
  5
259A9
  8
0
 10
4896.2238320247297452
 20
11.8601721596112295
 30
0.0
 40
0.0118
 50
136.999999960847191
 51
224.9999999999951115
  0
ARC
  5
259AA
  8
0
 10
4896.1377767183939795
 20
11.9462274659462899
 30
0.0
 40
0.0118
 50
224.9999999999920988
 51
313.0000000323634026
  0
ARC
  5
259AB
  8
0
 10
4896.0481042336296014
 20
12.0358999507112099
 30
0.0
 40
0.0118
 50
137.0000000882193092
 51
224.9999999999951115
  0
ARC
  5
259AC
  8
0
 10
4891.3832170917103213
 20
7.7672707092476676
 30
0.0
 40
6.3531917730340259
 50
41.3334020570485308
 51
41.8417558783922416
  0
ARC
  5
259AD
  8
0
 10
4894.6447442936587322
 20
10.6359629806396097
 30
0.0
 40
2.009580943666144
 50
40.5028015141150775
 51
41.3334020570485308
  0
ARC
  5
259AE
  8
0
 10
4896.0037518875324167
 20
11.7967800441977797
 30
0.0
 40
0.2222930834571589
 50
38.9611234393789232
 51
40.5028015141150775
  0
ARC
  5
259AF
  8
0
 10
4896.1646428273861602
 20
11.9268863020788096
 30
0.0
 40
0.0153787705951903
 50
30.9866572972021714
 51
38.96112343937817
  0
ARC
  5
259B0
  8
0
 10
4896.4465479874206721
 20
12.2089568187150395
 30
0.0
 40
0.3838891514564472
 50
222.0099080258777065
 51
225.5732612985785011
  0
ARC
  5
259B1
  8
0
 10
4896.4953745407447059
 20
12.1131099804759401
 30
0.0
 40
0.3450977338679479
 50
217.076822068933609
 51
220.696428230385095
  0
ARC
  5
259B2
  8
0
 10
4896.234007633706824
 20
11.9156058975733004
 30
0.0
 40
0.0174996220632337
 50
205.5819949564150022
 51
217.0768220689342058
  0
ARC
  5
259B3
  8
0
 10
4896.2185328969453622
 20
11.9081976243066805
 30
0.0
 40
0.0003429909652955
 50
115.8495163990208994
 51
205.581994956357903
  0
ARC
  5
259B4
  8
0
 10
4896.2129230811688103
 20
11.8977004993857101
 30
0.0
 40
0.0121070137617561
 50
40.6202167213178029
 51
63.1921102395198631
  0
ARC
  5
259B5
  8
0
 10
4895.5382044645148198
 20
11.1836066050758092
 30
0.0
 40
0.9944747702073113
 50
42.301555574980263
 51
46.5510430085876834
  0
ARC
  5
259B6
  8
0
 10
4894.6043603238231299
 20
10.2928222487171706
 30
0.0
 40
2.2848860622385332
 50
40.6504592642300011
 51
43.0620822109667074
  0
ARC
  5
259B7
  8
0
 10
4896.1425220771998283
 20
11.6093322509634707
 30
0.0
 40
0.2602747947746935
 50
35.6873576141384916
 51
41.352884606331429
  0
ARC
  5
259B8
  8
0
 10
4896.3497545887639717
 20
11.7584463104061108
 30
0.0
 40
0.0049754265372476
 50
17.7792500388705612
 51
33.145069690544112
  0
ARC
  5
259B9
  8
0
 10
4896.3543342365983335
 20
11.7598594526014608
 30
0.0
 40
0.0001904490390192
 50
256.5963188714691228
 51
33.8581817729305925
  0
ARC
  5
259BA
  8
0
 10
4896.4364687548986694
 20
11.8666187178319795
 30
0.0
 40
0.1348720318727557
 50
222.2066202617002943
 51
232.4604850640743905
  0
ARC
  5
259BB
  8
0
 10
4896.6687642863598739
 20
11.6771508424192199
 30
0.0
 40
0.1611988282723068
 50
212.9535683370077095
 51
221.8447762761174999
  0
ARC
  5
259BC
  8
0
 10
4896.3352575577910102
 20
11.3351328227738293
 30
0.0
 40
0.3237866470006488
 50
44.8681476056269588
 51
52.0276337843176506
  0
ARC
  5
259BD
  8
0
 10
4894.5417551681430268
 20
9.5498661201289181
 30
0.0
 40
2.8543652411654259
 50
42.7065332514713702
 51
44.8681476056269304
  0
ARC
  5
259BE
  8
0
 10
4896.2300677122993875
 20
11.1081525731484092
 30
0.0
 40
0.5568326698142969
 50
38.3073963637115185
 51
42.7065332514713702
  0
ARC
  5
259BF
  8
0
 10
4896.6001022279469908
 20
11.4004657939167302
 30
0.0
 40
0.0852687167745575
 50
31.8096032824178288
 51
38.30739636371149
  0
ARC
  5
259C0
  8
0
 10
4896.6711322788778489
 20
11.4445227751385392
 30
0.0
 40
0.0016847127443722
 50
353.1688672817036263
 51
31.8096032824139812
  0
ARC
  5
259C1
  8
0
 10
4896.6723336494005707
 20
11.4447612345483396
 30
0.0
 40
0.000644039140132
 50
233.0925998899332114
 51
317.0472521468818172
  0
ARC
  5
259C2
  8
0
 10
4896.747416551200331
 20
11.5532427237941508
 30
0.0
 40
0.132574129754002
 50
224.9537051297930077
 51
235.3010907470107043
  0
LINE
  5
259C3
  8
0
 10
4896.7274002171770917
 20
11.3009418576282901
 30
0.0
 11
4896.6377535202109357
 21
11.39058855459397
 31
0.0
  0
LINE
  5
259C4
  8
0
 10
4896.5110530232768724
 20
11.5172890515283193
 30
0.0
 11
4896.4213805385106753
 21
11.6069615362932304
 31
0.0
  0
LINE
  5
259C5
  8
0
 10
4896.390989388676644
 20
11.6373526861283096
 30
0.0
 11
4896.3013169039122658
 21
11.7270251708932403
 31
0.0
  0
LINE
  5
259C6
  8
0
 10
4896.9075082704603119
 20
11.1208338043449704
 30
0.0
 11
4896.9971807551282836
 21
11.0311613196765599
 31
0.0
  0
LINE
  5
259C7
  8
0
 10
4896.3010307902713976
 20
11.7434166115819192
 30
0.0
 11
4896.3153976840785617
 21
11.7588232188836095
 31
0.0
  0
LINE
  5
259C8
  8
0
 10
4896.4073808293233014
 20
11.6370665724482105
 30
0.0
 11
4896.4308691959186035
 21
11.6589698285437002
 31
0.0
  0
LINE
  5
259C9
  8
0
 10
4896.4210944248579835
 20
11.6233529769672597
 30
0.0
 11
4896.4472311284880561
 21
11.65138116007655
 31
0.0
  0
LINE
  5
259CA
  8
0
 10
4896.5274444639198919
 20
11.5170029378448007
 30
0.0
 11
4896.5392782978524338
 21
11.5280381664525802
 31
0.0
  0
LINE
  5
259CB
  8
0
 10
4896.6374464631389856
 20
11.40695747744698
 30
0.0
 11
4896.6633240732026024
 21
11.4348532165505308
 31
0.0
  0
LINE
  5
259CC
  8
0
 10
4896.7437916578528529
 20
11.3006557439759394
 30
0.0
 11
4896.7697630996872249
 21
11.3248745053467292
 31
0.0
  0
LINE
  5
259CD
  8
0
 10
4896.9072221567930683
 20
11.1372252450052507
 30
0.0
 11
4896.932468225507364
 21
11.1642983391864501
 31
0.0
  0
ARC
  5
259CE
  8
0
 10
4896.3096607639299691
 20
11.7353690309112402
 30
0.0
 40
0.0118
 50
136.9999998544072071
 51
224.9999999999967031
  0
ARC
  5
259CF
  8
0
 10
4896.3993332486952568
 20
11.6456965461463096
 30
0.0
 40
0.0118
 50
224.9999999999951115
 51
312.9999998647767256
  0
ARC
  5
259D0
  8
0
 10
4896.429724398529288
 20
11.6153053963112303
 30
0.0
 40
0.0118
 50
136.9999999516172124
 51
224.9999999999936051
  0
ARC
  5
259D1
  8
0
 10
4896.5193968832945757
 20
11.5256329115463192
 30
0.0
 40
0.0118
 50
224.9999999999944009
 51
312.9999998404051098
  0
ARC
  5
259D2
  8
0
 10
4896.6460973802295484
 20
11.3989324146119699
 30
0.0
 40
0.0118
 50
137.1493181083397133
 51
224.9999999999974136
  0
ARC
  5
259D3
  8
0
 10
4896.735744077194795
 20
11.30928571764629
 30
0.0
 40
0.0118
 50
224.9999999999936051
 51
313.0000000623501251
  0
ARC
  5
259D4
  8
0
 10
4896.9158521304780152
 20
11.1291776643629703
 30
0.0
 40
0.0118
 50
137.000000042848086
 51
224.9999999999967031
  0
ARC
  5
259D5
  8
0
 10
4897.692338143167035
 20
12.3320907110934801
 30
0.0
 40
1.3697852173000009
 50
220.387114896035996
 51
221.1065950764115087
  0
ARC
  5
259D6
  8
0
 10
4896.6908159626200359
 20
11.4801168177713606
 30
0.0
 40
0.0549064422673081
 50
214.7636389043331064
 51
220.387114896035996
  0
ARC
  5
259D7
  8
0
 10
4896.6564199374033706
 20
11.4562433158828707
 30
0.0
 40
0.0130372334960639
 50
206.5333475343446992
 51
214.7636389043327085
  0
ARC
  5
259D8
  8
0
 10
4896.6453549598591053
 20
11.4507184782656708
 30
0.0
 40
0.0006696323242402
 50
172.3591913071360864
 51
206.5333475343360021
  0
ARC
  5
259D9
  8
0
 10
4896.6449035440018633
 20
11.4506384849154408
 30
0.0
 40
0.0002713481177424
 50
55.7985959553108586
 51
141.4700290889184089
  0
ARC
  5
259DA
  8
0
 10
4896.5685529315005624
 20
11.3475759637001801
 30
0.0
 40
0.1285337427056831
 50
46.0076101581321595
 51
53.473189694073902
  0
ARC
  5
259DB
  8
0
 10
4895.8509011634787385
 20
10.5806450967915495
 30
0.0
 40
1.1788564357485189
 50
44.5444207715100902
 51
46.8037492379309796
  0
ARC
  5
259DC
  8
0
 10
4894.909502214442
 20
9.6330185106064565
 30
0.0
 40
2.514566846856451
 50
42.4315724391287787
 51
44.8867601861889867
  0
ARC
  5
259DD
  8
0
 10
4896.5105909339990831
 20
11.0943392309407098
 30
0.0
 40
0.3468670122858479
 50
38.6344064044648192
 51
42.7111180385193592
  0
ARC
  5
259DE
  8
0
 10
4896.7666686007451062
 20
11.29672117837241
 30
0.0
 40
0.0205543876225281
 50
27.9229185724190287
 51
43.6359819311127808
  0
ARC
  5
259DF
  8
0
 10
4896.7846142840617176
 20
11.3061548630622095
 30
0.0
 40
0.0002885245947709
 50
209.1219532009747866
 51
41.6086228192247773
  0
ARC
  5
259E0
  8
0
 10
4896.8850485092207236
 20
11.4386808881656901
 30
0.0
 40
0.1665476234626383
 50
224.5855374822401131
 51
232.8035715361197902
  0
ARC
  5
259E1
  8
0
 10
4897.7667200776068057
 20
12.80773844078373
 30
0.0
 40
1.7575987004125631
 50
220.6163975375067992
 51
221.2405327966849029
  0
ARC
  5
259E2
  8
0
 10
4896.4685327553697789
 20
11.6944127109170992
 30
0.0
 40
0.0473985646388234
 50
214.8473449042126049
 51
220.6163975375067992
  0
ARC
  5
259E3
  8
0
 10
4896.4336276239309882
 20
11.6701102124384093
 30
0.0
 40
0.0048664634317848
 50
203.5570032843480135
 51
214.847344904213287
  0
ARC
  5
259E4
  8
0
 10
4896.4292880305547442
 20
11.6682181676100605
 30
0.0
 40
0.0001323421509052
 50
110.9315488089652035
 51
203.5570032840169006
  0
ARC
  5
259E5
  8
0
 10
4896.4161024826998982
 20
11.6484154304182397
 30
0.0
 40
0.0238678308897969
 50
44.2795716169321025
 51
56.6014748012834374
  0
ARC
  5
259E6
  8
0
 10
4895.6478158579748197
 20
10.8460028453462201
 30
0.0
 40
1.1347682602930009
 50
43.6735189355187572
 51
46.2033231531882791
  0
ARC
  5
259E7
  8
0
 10
4893.462866117932208
 20
8.7373620891226871
 30
0.0
 40
4.1712627173593839
 50
42.5281557217515527
 51
43.8979361989467307
  0
ARC
  5
259E8
  8
0
 10
4888.1017891562205477
 20
4.0365149331469761
 30
0.0
 40
11.2905783560008395
 50
42.6144497446499173
 51
43.2239714149565728
  0
ARC
  5
259E9
  8
0
 10
4893.6394128859756165
 20
9.1311990357476702
 30
0.0
 40
3.7658801774926118
 50
41.9002609136255728
 51
42.6144497446500168
  0
LINE
  5
259EA
  8
0
 10
4896.9450907175123575
 20
11.1584162513932306
 30
0.0
 11
4897.0347632021766913
 21
11.0687437667282893
 31
0.0
  0
LINE
  5
259EB
  8
0
 10
4896.9448046038523898
 20
11.1748076920616199
 30
0.0
 11
4896.9670827197342078
 21
11.1986980464421304
 31
0.0
  0
ARC
  5
259EC
  8
0
 10
4896.9534345775300608
 20
11.1667601114112305
 30
0.0
 40
0.0118
 50
136.9999999889874971
 51
224.9999999999980957
  0
ARC
  5
259ED
  8
0
 10
4897.1543192993667617
 20
11.3546131530081595
 30
0.0
 40
0.2537240514323317
 50
217.2593917921732896
 51
220.0725409808487996
  0
ARC
  5
259EE
  8
0
 10
4897.0189207287658064
 20
11.2516186553715904
 30
0.0
 40
0.0836045655867722
 50
211.6220770514730987
 51
217.2593917921732043
  0
ARC
  5
259EF
  8
0
 10
4896.9622062258058577
 20
11.2166975292683997
 30
0.0
 40
0.01700111301648
 50
200.2679576123796039
 51
211.6220770514738092
  0
ARC
  5
259F0
  8
0
 10
4896.948817771438371
 20
11.2117534998204302
 30
0.0
 40
0.0027289675037546
 50
171.0751012011365901
 51
200.2679576123825882
  0
ARC
  5
259F1
  8
0
 10
4896.9468608112711081
 20
11.2118956404370707
 30
0.0
 40
0.0007906719275589
 50
79.2066697349013111
 51
159.1645325512419049
  0
ARC
  5
259F2
  8
0
 10
4896.9252919468435721
 20
11.1625866532158309
 30
0.0
 40
0.0545912042390464
 50
46.8968716565751791
 51
66.5586529894018213
  0
ARC
  5
259F3
  8
0
 10
4896.442695132098379
 20
10.5751907716892894
 30
0.0
 40
0.8147046481621892
 50
44.5602648205204872
 51
50.3463616365620794
  0
ARC
  5
259F4
  8
0
 10
4897.8171879210804036
 20
11.9172736157873302
 30
0.0
 40
1.1487625166649129
 50
219.5756074961419131
 51
220.3739995244341969
  0
ARC
  5
259F5
  8
0
 10
4896.9594597931018143
 20
11.2083140498080098
 30
0.0
 40
0.0359636993952176
 50
211.4349613620034916
 51
219.5756074961298054
  0
ARC
  5
259F6
  8
0
 10
4896.9376739950657793
 20
11.1966282119657201
 30
0.0
 40
0.0113662869852367
 50
203.3002864590621073
 51
218.465505709827795
  0
ARC
  5
259F7
  8
0
 10
4896.9289442515837436
 20
11.1929808083949496
 30
0.0
 40
0.0019085595948353
 50
175.481287685947791
 51
206.397304783844902
  0
ARC
  5
259F8
  8
0
 10
4896.927482508032881
 20
11.1929369370462002
 30
0.0
 40
0.0004817740044076
 50
66.9732671673168909
 51
156.2235288212606008
  0
ARC
  5
259F9
  8
0
 10
4896.8775269422094425
 20
11.1086927661328492
 30
0.0
 40
0.0984195354644256
 50
44.6045952556984417
 51
59.3699675523382808
  0
ARC
  5
259FA
  8
0
 10
4900.5572844494863602
 20
14.3756454938085394
 30
0.0
 40
4.8478046412734894
 50
221.3607410025907996
 51
221.5445505340888133
  0
ARC
  5
259FB
  8
0
 10
4896.9650751344988748
 20
11.2130588200480705
 30
0.0
 40
0.0617914536902243
 50
215.1610815332138884
 51
221.3607410025911122
  0
ARC
  5
259FC
  8
0
 10
4896.9254613391840394
 20
11.1851546399552593
 30
0.0
 40
0.0133363606052292
 50
207.8318340005818072
 51
215.1610815332132916
  0
ARC
  5
259FD
  8
0
 10
4896.9152095039517008
 20
11.1797421788883202
 30
0.0
 40
0.0017434808757901
 50
186.3217287124788015
 51
207.831834000582802
  0
ARC
  5
259FE
  8
0
 10
4896.9136798992303738
 20
11.1795361086979099
 30
0.0
 40
0.0002037624848041
 50
67.5721310659874064
 51
176.0339431987137004
  0
ARC
  5
259FF
  8
0
 10
4896.8815592560886216
 20
11.1273159834757696
 30
0.0
 40
0.0615092197857235
 50
46.0843857557391772
 51
58.4345331554953518
  0
ARC
  5
25A00
  8
0
 10
4896.4383656518048156
 20
10.6164731620415704
 30
0.0
 40
0.7377328636121954
 50
47.876893909186748
 51
48.8083164930067284
  0
LINE
  5
25A01
  8
0
 10
4896.8991566155118562
 20
11.1124821494932302
 30
0.0
 11
4896.9888291002771439
 21
11.0228096647282907
 31
0.0
  0
LINE
  5
25A02
  8
0
 10
4896.6995192881759067
 20
11.3121194768280908
 30
0.0
 11
4896.609846803412438
 21
11.4017919615932204
 31
0.0
  0
LINE
  5
25A03
  8
0
 10
4896.9229146702436992
 20
11.1546578039567095
 30
0.0
 11
4896.898870501858255
 21
11.1288735901676592
 31
0.0
  0
ARC
  5
25A04
  8
0
 10
4897.4211746935061456
 20
11.6284853951536498
 30
0.0
 40
0.690549570308865
 50
222.3378168737586975
 51
223.5750077617682905
  0
ARC
  5
25A05
  8
0
 10
4897.0514643710839664
 20
11.2916285567299308
 30
0.0
 40
0.1903913432462614
 50
220.5318987904499863
 51
222.3378168737586122
  0
ARC
  5
25A06
  8
0
 10
4896.9346766768057932
 20
11.1917699397130992
 30
0.0
 40
0.0367322760646731
 50
216.2218955053147909
 51
220.5318987904499863
  0
ARC
  5
25A07
  8
0
 10
4896.9076220600909437
 20
11.1719530720821307
 30
0.0
 40
0.003196317328405
 50
203.9452730815785912
 51
216.2218955053209015
  0
ARC
  5
25A08
  8
0
 10
4896.9049065137223806
 20
11.1707471395811293
 30
0.0
 40
0.000225043985594
 50
169.6517864388243026
 51
203.9452730815403925
  0
ARC
  5
25A09
  8
0
 10
4896.9047647653424065
 20
11.1707354428203498
 30
0.0
 40
0.0000951755818199
 50
62.5305833048520086
 51
146.7951215120565109
  0
ARC
  5
25A0A
  8
0
 10
4896.8851194887229212
 20
11.1412283141201094
 30
0.0
 40
0.0355432835642718
 50
45.4594350685012714
 51
56.3616210912642401
  0
ARC
  5
25A0B
  8
0
 10
4896.5441310647420323
 20
10.7582151266431296
 30
0.0
 40
0.5483099636081957
 50
46.2618529185153236
 51
48.1365280978016514
  0
LINE
  5
25A0C
  8
0
 10
4896.6095606897433754
 20
11.4181834022519393
 30
0.0
 11
4896.6319428786164281
 21
11.4421853613047002
 31
0.0
  0
LINE
  5
25A0D
  8
0
 10
4896.7159107290781321
 20
11.3118333633856292
 30
0.0
 11
4896.7162201612427452
 21
11.3121219135626401
 31
0.0
  0
ARC
  5
25A0E
  8
0
 10
4896.9075004755295595
 20
11.1208260095112301
 30
0.0
 40
0.0118
 50
136.9999999489363915
 51
224.9999999999974136
  0
ARC
  5
25A0F
  8
0
 10
4896.7078631481954289
 20
11.3204633368460907
 30
0.0
 40
0.0118
 50
224.9999999999974136
 51
313.0000015566421894
  0
ARC
  5
25A10
  8
0
 10
4896.6181906634301413
 20
11.4101358216112203
 30
0.0
 40
0.0118
 50
137.000000053221612
 51
224.9999999999951115
  0
ARC
  5
25A11
  8
0
 10
4904.8853015110762499
 20
20.1073375201415203
 30
0.0
 40
11.9388716016841805
 50
218.9442920550542055
 51
220.435824678347899
  0
LINE
  5
25A12
  8
0
 10
4895.8975946502114311
 20
12.2481017386495097
 30
0.0
 11
4896.0135454416649736
 21
12.1156997812147207
 31
0.0
  0
LINE
  5
25A13
  8
0
 10
4896.1605211808919194
 20
11.95130255632521
 30
0.0
 11
4896.2256570795052539
 21
11.8794313856217304
 31
0.0
  0
LINE
  5
25A14
  8
0
 10
4896.4298345612733101
 20
11.6580050161329805
 30
0.0
 11
4896.4416398905896131
 21
11.6453852915148595
 31
0.0
  0
LINE
  5
25A15
  8
0
 10
4896.6353668967813064
 20
11.4432625119344404
 30
0.0
 11
4896.6537269789851052
 21
11.4245076693450809
 31
0.0
  0
LINE
  5
25A16
  8
0
 10
4896.7572356939608653
 20
11.3131925104925806
 30
0.0
 11
4896.9179758717382356
 21
11.1493615909840091
 31
0.0
  0
LINE
  5
25A17
  8
0
 10
4898.6496775076411723
 20
9.6160375527930864
 30
0.0
 11
4899.0245135584264062
 21
10.0627497629588607
 31
0.0
  0
ARC
  5
25A18
  8
0
 10
4898.6213338632451268
 20
9.6398206943512221
 30
0.0
 40
0.037
 50
224.9953345972247973
 51
262.3378205198799265
  0
ARC
  5
25A19
  8
0
 10
4898.6213338632451268
 20
9.6398206943512221
 30
0.0
 40
0.037
 50
277.6621794801200735
 51
320.0000000005297807
  0
LINE
  5
25A1A
  8
0
 10
4898.5951687820670486
 20
9.6136598738952195
 30
0.0
 11
4898.5607597142397935
 21
9.6419735370202222
 31
0.0
  0
ARC
  5
25A1B
  8
0
 10
4898.994331407367099
 20
10.0880755947802303
 30
0.0
 40
0.0394
 50
320.0000000005272227
 51
44.999999999996497
  0
LINE
  5
25A1C
  8
0
 10
4898.2910671321023983
 20
11.0645924314213406
 30
0.0
 11
4899.0221914145449773
 21
10.1159356019589808
 31
0.0
  0
LINE
  5
25A1D
  8
0
 10
4898.2993333845406596
 20
11.4627424340110906
 30
0.0
 11
4898.5813950631672924
 21
11.7988904527614906
 31
0.0
  0
ARC
  5
25A1E
  8
0
 10
4898.5427057040951695
 20
11.2585288103838295
 30
0.0
 40
0.3177
 50
139.9999999929796957
 51
217.6212314987346872
  0
ARC
  5
25A1F
  8
0
 10
4898.5530514187739755
 20
11.8226735943233692
 30
0.0
 40
0.037
 50
319.9999999929813725
 51
44.999999999993733
  0
LINE
  5
25A20
  8
0
 10
4899.0277584985824433
 20
12.5141802792977597
 30
0.0
 11
4898.7250778574007199
 21
12.2114996382172194
 31
0.0
  0
ARC
  5
25A21
  8
0
 10
4899.0206874307714315
 20
12.5212513471107894
 30
0.0
 40
0.01
 50
314.9999999905213031
 51
44.9999999954094392
  0
LINE
  5
25A22
  8
0
 10
4898.5964455901121255
 20
12.1859357959977697
 30
0.0
 11
4898.5709630465125883
 21
12.19650115184991
 31
0.0
  0
ARC
  5
25A23
  8
0
 10
4898.6416392572346012
 20
12.2949382384110102
 30
0.0
 40
0.118
 50
247.4805411611633019
 51
314.9999999905201093
  0
LINE
  5
25A24
  8
0
 10
4898.4423307791430489
 20
12.1709373095483606
 30
0.0
 11
4898.394497746306115
 21
12.1231042766331996
 31
0.0
  0
ARC
  5
25A25
  8
0
 10
4898.5257693793910221
 20
12.0874987094366606
 30
0.0
 40
0.118
 50
67.4805411611632735
 51
135.0000000468961048
  0
ARC
  5
25A26
  8
0
 10
4897.9694298986732974
 20
12.0932400337556505
 30
0.0
 40
0.4135322892505354
 50
353.6654503810178767
 51
0.2535359599757216
  0
ARC
  5
25A27
  8
0
 10
4898.4223577535067307
 20
12.0952442694772593
 30
0.0
 40
0.0394
 50
135.0000000468949963
 51
180.2535359599802973
  0
LINE
  5
25A28
  8
0
 10
4898.8001816790838348
 20
12.7430973352007406
 30
0.0
 11
4898.495453729381552
 21
12.43836938539825
 31
0.0
  0
ARC
  5
25A29
  8
0
 10
4898.793071131139186
 20
12.7455055310316006
 30
0.0
 40
0.0075072830798212
 50
341.2898204005837783
 51
14.70836561700742
  0
ARC
  5
25A2A
  8
0
 10
4898.7718088851570428
 20
12.7395640519191193
 30
0.0
 40
0.0295833671838691
 50
15.3829812759316393
 51
32.5115363658961911
  0
ARC
  5
25A2B
  8
0
 10
4898.7023605195081473
 20
12.6961978997499596
 30
0.0
 40
0.1114585574228666
 50
32.1226908153729269
 51
42.9214713575004581
  0
ARC
  5
25A2C
  8
0
 10
4898.4701677954662955
 20
12.4683311429435193
 30
0.0
 40
0.0392056803189542
 50
281.0639052571730758
 51
310.1623673282697951
  0
ARC
  5
25A2D
  8
0
 10
4898.4661267685823987
 20
12.4903134412503896
 30
0.0
 40
0.0615554165211242
 50
261.5960193339250281
 51
280.8288162375151842
  0
ARC
  5
25A2E
  8
0
 10
4898.4753736403517905
 20
12.5458968558268698
 30
0.0
 40
0.1178978798050943
 50
242.7264384928419929
 51
261.0983877338969137
  0
ARC
  5
25A2F
  8
0
 10
4898.5182199183682314
 20
12.6319667029663893
 30
0.0
 40
0.2140373977101305
 50
230.3068837161671922
 51
243.0898564055044062
  0
ARC
  5
25A30
  8
0
 10
4898.5524380007636864
 20
12.6759107680590297
 30
0.0
 40
0.2697111475035665
 50
224.9729192348046922
 51
230.6756691080884139
  0
LINE
  5
25A31
  8
0
 10
4898.2182121203513816
 20
9.9014001755734551
 30
0.0
 11
4898.2435389448955902
 21
9.9250178215829337
 31
0.0
  0
LINE
  5
25A32
  8
0
 10
4898.1118620812067093
 20
10.0077502146122796
 30
0.0
 11
4898.1274632907616251
 21
10.0244804635627407
 31
0.0
  0
LINE
  5
25A33
  8
0
 10
4898.1121481948694054
 20
9.9913587739368204
 30
0.0
 11
4898.2018206796801678
 21
9.9016862892236421
 31
0.0
  0
LINE
  5
25A34
  8
0
 10
4897.9706706330998713
 20
10.1328363355474895
 30
0.0
 11
4897.8809981482909279
 21
10.2225088202551309
 31
0.0
  0
LINE
  5
25A35
  8
0
 10
4897.5541526415590852
 20
10.5493543266232699
 30
0.0
 11
4897.4644801567683317
 21
10.6390268113146806
 31
0.0
  0
LINE
  5
25A36
  8
0
 10
4897.9870620737474383
 20
10.1325502218780095
 30
0.0
 11
4898.0131083701407988
 21
10.1568387861244194
 31
0.0
  0
LINE
  5
25A37
  8
0
 10
4897.8807120346309603
 20
10.2389002609317092
 30
0.0
 11
4897.8984384162058632
 21
10.2579094778509905
 31
0.0
  0
LINE
  5
25A38
  8
0
 10
4897.5705440822202945
 20
10.5490682129648707
 30
0.0
 11
4897.5962977238359599
 21
10.5730838722833695
 31
0.0
  0
LINE
  5
25A39
  8
0
 10
4897.4641940430919931
 20
10.6554182519740301
 30
0.0
 11
4897.4844536697473814
 21
10.6771440417377192
 31
0.0
  0
ARC
  5
25A3A
  8
0
 10
4898.2101645396951426
 20
9.9100301492462979
 30
0.0
 40
0.0118
 50
225.0000000319676872
 51
313.0000000446055992
  0
ARC
  5
25A3B
  8
0
 10
4898.1204920548816517
 20
9.9997026339594743
 30
0.0
 40
0.0118
 50
136.999999973000314
 51
225.0000000319676872
  0
ARC
  5
25A3C
  8
0
 10
4897.9790144931130271
 20
10.1411801955701399
 30
0.0
 40
0.0118
 50
225.0000000319616902
 51
312.9999999073065737
  0
ARC
  5
25A3D
  8
0
 10
4897.8893420083049932
 20
10.2308526802777902
 30
0.0
 40
0.0118
 50
136.999999965583612
 51
225.0000000319662092
  0
ARC
  5
25A3E
  8
0
 10
4897.562496501572241
 20
10.5576981866459203
 30
0.0
 40
0.0118
 50
225.0000000319631113
 51
312.9999999861788069
  0
ARC
  5
25A3F
  8
0
 10
4897.4728240167805779
 20
10.6473706713373399
 30
0.0
 40
0.0118
 50
137.0000000799792872
 51
225.0000000319647029
  0
ARC
  5
25A40
  8
0
 10
4898.5534051209397148
 20
10.2951523494950798
 30
0.0
 40
0.4850067783426218
 50
230.0313721207537867
 51
232.9181273444837927
  0
ARC
  5
25A41
  8
0
 10
4898.2657654494460076
 20
9.9145743171475722
 30
0.0
 40
0.007957284765407
 50
232.9181273444849012
 51
242.6879535487589976
  0
ARC
  5
25A42
  8
0
 10
4898.2624923910398138
 20
9.9082361526854452
 30
0.0
 40
0.0008238956633307
 50
242.6879535487616124
 51
255.1840984872085016
  0
ARC
  5
25A43
  8
0
 10
4898.2622991459411423
 20
9.9075055703945161
 30
0.0
 40
0.0000681879472768
 50
255.1840984876425011
 51
25.8158755067112793
  0
ARC
  5
25A44
  8
0
 10
4898.1901138548455492
 20
9.8416444239917951
 30
0.0
 40
0.0977813110327939
 50
42.3656269582608616
 51
48.6289903151713503
  0
ARC
  5
25A45
  8
0
 10
4895.7100617980522657
 20
7.0740622265926758
 30
0.0
 40
3.8139814181753251
 50
48.1488665339144717
 51
49.5787883337055533
  0
ARC
  5
25A46
  8
0
 10
4895.7652092009484477
 20
7.1645272685237531
 30
0.0
 40
3.709390335709581
 50
49.3212373669837092
 51
50.5901100082395985
  0
ARC
  5
25A47
  8
0
 10
4897.9540152057015803
 20
9.8294047468901944
 30
0.0
 40
0.2608491189055718
 50
50.4340638624536197
 51
53.1108023508178206
  0
ARC
  5
25A48
  8
0
 10
4898.0992500673255563
 20
10.0226623006976094
 30
0.0
 40
0.0191026981385692
 50
53.5664838411866171
 51
58.2358818033086507
  0
ARC
  5
25A49
  8
0
 10
4898.1079691480153997
 20
10.0366693760844097
 30
0.0
 40
0.0026039382246889
 50
59.105186927439803
 51
66.0456716422483652
  0
ARC
  5
25A4A
  8
0
 10
4898.1088606525509022
 20
10.0386760313306809
 30
0.0
 40
0.0004081591800026
 50
66.0456716423077523
 51
82.1570623391028363
  0
ARC
  5
25A4B
  8
0
 10
4898.1089093326181683
 20
10.0390294346149602
 30
0.0
 40
0.0000514188959295
 50
82.1570623391030068
 51
228.3472883236275948
  0
ARC
  5
25A4C
  8
0
 10
4898.2939570541293506
 20
10.2194104758427002
 30
0.0
 40
0.2584695141777973
 50
224.269159130357906
 51
229.4782192722053935
  0
ARC
  5
25A4D
  8
0
 10
4898.2000019231927581
 20
10.3914088225161692
 30
0.0
 40
0.3064422207431646
 50
231.2727416740455908
 51
234.6239112824561914
  0
ARC
  5
25A4E
  8
0
 10
4898.0545977443944139
 20
10.1866243270491594
 30
0.0
 40
0.0552867613242125
 50
234.6239112824561914
 51
241.3772942312089071
  0
ARC
  5
25A4F
  8
0
 10
4898.0303220914820486
 20
10.1421415823682608
 30
0.0
 40
0.0046111074200643
 50
241.3772942312089924
 51
260.7591598534564241
  0
ARC
  5
25A50
  8
0
 10
4898.0296404045411691
 20
10.1379516456063694
 30
0.0
 40
0.0003660788978942
 50
260.7591598533513775
 51
24.8075061463015416
  0
ARC
  5
25A51
  8
0
 10
4897.9303410814682138
 20
10.0647937749291501
 30
0.0
 40
0.1236973366293718
 50
36.3465749016358828
 51
46.4448708740055096
  0
ARC
  5
25A52
  8
0
 10
4896.9168153472292033
 20
9.0276890373643273
 30
0.0
 40
1.5737971747373889
 50
45.7205648295014768
 51
49.5078746999302268
  0
ARC
  5
25A53
  8
0
 10
4897.3288126952438688
 20
9.5284423078927887
 30
0.0
 40
0.9255246155710088
 50
48.7749534969856526
 51
52.7169813374021601
  0
ARC
  5
25A54
  8
0
 10
4897.8441572324682056
 20
10.2084446917675304
 30
0.0
 40
0.0723317245655413
 50
51.2293875085557104
 51
59.3815364800500731
  0
ARC
  5
25A55
  8
0
 10
4897.8771730746648245
 20
10.2644409999231794
 30
0.0
 40
0.00732773403906
 50
58.5427998255797917
 51
75.6184932864853607
  0
ARC
  5
25A56
  8
0
 10
4897.8789762809738022
 20
10.27110128920555
 30
0.0
 40
0.0004381419317798
 50
87.7978040576840755
 51
181.5062909876498907
  0
ARC
  5
25A57
  8
0
 10
4897.9034166847541201
 20
10.2849250469602698
 30
0.0
 40
0.0284666355485722
 50
209.0791393930304025
 51
224.555415792065503
  0
ARC
  5
25A58
  8
0
 10
4898.3435126879858217
 20
10.6984146139206793
 30
0.0
 40
0.6323284782478559
 50
223.2750107086677076
 51
224.7266190447062968
  0
ARC
  5
25A59
  8
0
 10
4897.6889691216902065
 20
10.6859861032426906
 30
0.0
 40
0.1556298512480631
 50
230.1495843712557985
 51
237.2506894607332981
  0
ARC
  5
25A5A
  8
0
 10
4897.6212150139763253
 20
10.5806477591354806
 30
0.0
 40
0.0303829516794618
 50
237.250689460733696
 51
248.0391707830829091
  0
ARC
  5
25A5B
  8
0
 10
4897.6103797588129964
 20
10.5537766849364303
 30
0.0
 40
0.0014095607316913
 50
248.039170783083307
 51
294.9747682017242028
  0
ARC
  5
25A5C
  8
0
 10
4897.6103808205880341
 20
10.5531372951530606
 30
0.0
 40
0.000872036203272
 50
312.9420307991817936
 51
19.8539062773202808
  0
ARC
  5
25A5D
  8
0
 10
4897.4731504651599607
 20
10.4642096156979303
 30
0.0
 40
0.1643741192113238
 50
32.8751032207640108
 51
46.4515920089576824
  0
ARC
  5
25A5E
  8
0
 10
4896.7357759218921274
 20
9.7611843208836149
 30
0.0
 40
1.1830090480618589
 50
44.0252733179292974
 51
50.3074106916531534
  0
ARC
  5
25A5F
  8
0
 10
4897.3475066728287857
 20
10.5037166122243502
 30
0.0
 40
0.2209786262792202
 50
49.3957548575933814
 51
56.6622096332740028
  0
ARC
  5
25A60
  8
0
 10
4897.458347172692811
 20
10.6717754804185905
 30
0.0
 40
0.0196610905735722
 50
57.3627038650667984
 51
70.2598803159834944
  0
ARC
  5
25A61
  8
0
 10
4897.4642559216063091
 20
10.6880960935805795
 30
0.0
 40
0.0023043884743503
 50
71.4822229690909836
 51
96.6279798760869397
  0
ARC
  5
25A62
  8
0
 10
4897.4641350977053662
 20
10.6897504766250009
 30
0.0
 40
0.0006509930679933
 50
102.8837032152282944
 51
198.638983110371413
  0
ARC
  5
25A63
  8
0
 10
4897.5367468869926597
 20
10.7309536863989194
 30
0.0
 40
0.0841268492782247
 50
209.4884407553261099
 51
225.9465056651968951
  0
LINE
  5
25A64
  8
0
 10
4897.8142305567107542
 20
10.2530859075932295
 30
0.0
 11
4897.9039030414769513
 21
10.1634134228283095
 31
0.0
  0
LINE
  5
25A65
  8
0
 10
4897.7281752503768075
 20
10.3391412139282899
 30
0.0
 11
4897.6384775251299288
 21
10.4288389391748204
 31
0.0
  0
LINE
  5
25A66
  8
0
 10
4897.4115247123763766
 20
10.6557917519282803
 30
0.0
 11
4897.3218522276119984
 21
10.7454642366932092
 31
0.0
  0
LINE
  5
25A67
  8
0
 10
4897.9202944821299752
 20
10.1631273091548096
 30
0.0
 11
4897.9306877657281802
 21
10.1728192028744697
 31
0.0
  0
LINE
  5
25A68
  8
0
 10
4897.813944443055334
 20
10.2694773482648394
 30
0.0
 11
4897.8294705468106258
 21
10.2861270561031901
 31
0.0
  0
LINE
  5
25A69
  8
0
 10
4897.7445666910489308
 20
10.3388551002726903
 30
0.0
 11
4897.7677277182110629
 21
10.3604531075401098
 31
0.0
  0
LINE
  5
25A6A
  8
0
 10
4897.6382458753114406
 20
10.4452883917704504
 30
0.0
 11
4897.6554337765837772
 21
10.46347275214133
 31
0.0
  0
LINE
  5
25A6B
  8
0
 10
4897.4279161530639612
 20
10.6555056382862094
 30
0.0
 11
4897.4508769824478804
 21
10.6769169581788592
 31
0.0
  0
LINE
  5
25A6C
  8
0
 10
4897.3215661139383883
 20
10.7618556773463503
 30
0.0
 11
4897.3403566689048603
 21
10.7820060806008708
 31
0.0
  0
LINE
  5
25A6D
  8
0
 10
4897.0330593905327987
 20
11.0503624007569297
 30
0.0
 11
4897.054784358500001
 21
11.0706212610809995
 31
0.0
  0
ARC
  5
25A6E
  8
0
 10
4897.0250118098938401
 20
11.0589923744463103
 30
0.0
 40
0.0118
 50
224.9999999999920988
 51
312.9999999269044793
  0
ARC
  5
25A6F
  8
0
 10
4897.3301960876287922
 20
10.7538080967112197
 30
0.0
 40
0.0118
 50
137.0000000902994941
 51
224.9999999999967031
  0
ARC
  5
25A70
  8
0
 10
4897.4198685723949893
 20
10.6641356119462802
 30
0.0
 40
0.0118
 50
224.9999999999944009
 51
313.0000001355422228
  0
ARC
  5
25A71
  8
0
 10
4897.6468213851494511
 20
10.4371827991928292
 30
0.0
 40
0.0118
 50
136.6136317717667055
 51
224.9999999999920988
  0
ARC
  5
25A72
  8
0
 10
4897.7365191103954203
 20
10.3474850739462898
 30
0.0
 40
0.0118
 50
224.9999999999951115
 51
313.0000000391419803
  0
ARC
  5
25A73
  8
0
 10
4897.8225744167302764
 20
10.2614297676112294
 30
0.0
 40
0.0118
 50
136.9999999676417985
 51
224.9999999999982094
  0
ARC
  5
25A74
  8
0
 10
4897.9122469014937451
 20
10.1717572828463094
 30
0.0
 40
0.0118
 50
224.9999999999951115
 51
312.9999999117940774
  0
ARC
  5
25A75
  8
0
 10
4893.6436176600309409
 20
5.5068701409255558
 30
0.0
 40
6.3531917730340259
 50
48.1582441215899166
 51
48.6665979429744482
  0
ARC
  5
25A76
  8
0
 10
4896.5123099314241699
 20
8.7683973428752893
 30
0.0
 40
2.009580943666144
 50
48.6665979429744482
 51
49.4971984858549519
  0
ARC
  5
25A77
  8
0
 10
4897.6731269949814305
 20
10.1274049367476007
 30
0.0
 40
0.2222930834571589
 50
49.4971984858549519
 51
51.038876560619812
  0
ARC
  5
25A78
  8
0
 10
4897.8032332528619008
 20
10.2882958766023194
 30
0.0
 40
0.0153787705951903
 50
51.038876560620217
 51
59.0133427028263498
  0
ARC
  5
25A79
  8
0
 10
4898.0853037694987506
 20
10.5702010366378598
 30
0.0
 40
0.3838891514564472
 50
224.4267387014180883
 51
227.9900919741313885
  0
ARC
  5
25A7A
  8
0
 10
4897.9894569312591557
 20
10.6190275899617408
 30
0.0
 40
0.3450977338679479
 50
229.3035717696126028
 51
232.9231779310566992
  0
ARC
  5
25A7B
  8
0
 10
4897.7919528483580507
 20
10.3576606829233704
 30
0.0
 40
0.0174996220632337
 50
232.9231779310561876
 51
244.4180050435793987
  0
ARC
  5
25A7C
  8
0
 10
4897.7845445750899671
 20
10.3421859461618695
 30
0.0
 40
0.0003429909652955
 50
244.4180050436343095
 51
334.1504836009725068
  0
ARC
  5
25A7D
  8
0
 10
4897.7740474501697463
 20
10.3365761303844401
 30
0.0
 40
0.0121070137617561
 50
26.8078897604520883
 51
49.3797832786666788
  0
ARC
  5
25A7E
  8
0
 10
4897.0599535558603748
 20
9.6618575137324179
 30
0.0
 40
0.9944747702073113
 50
43.4489569913871208
 51
47.6984444250437676
  0
ARC
  5
25A7F
  8
0
 10
4896.1691691995010842
 20
8.7280133730396781
 30
0.0
 40
2.2848860622385332
 50
46.937917789017142
 51
49.3495407357742621
  0
ARC
  5
25A80
  8
0
 10
4897.4856792017471889
 20
10.2661751264165702
 30
0.0
 40
0.2602747947746935
 50
48.6471153936437304
 51
54.3126423858502534
  0
ARC
  5
25A81
  8
0
 10
4897.6347932611897704
 20
10.4734076379800598
 30
0.0
 40
0.0049754265372476
 50
56.8549303094852405
 51
72.220749961149437
  0
ARC
  5
25A82
  8
0
 10
4897.6362064033846764
 20
10.4779872858142795
 30
0.0
 40
0.0001904490390192
 50
56.1418182270648387
 51
193.4036811285201054
  0
ARC
  5
25A83
  8
0
 10
4897.7429656686163071
 20
10.5601218041157008
 30
0.0
 40
0.1348720318727557
 50
217.5395149359405877
 51
227.7933797383007004
  0
ARC
  5
25A84
  8
0
 10
4897.5534977932029506
 20
10.7924173355765305
 30
0.0
 40
0.1611988282723068
 50
228.1552237238616954
 51
237.0464316629831956
  0
ARC
  5
25A85
  8
0
 10
4897.2114797735575848
 20
10.4589106070071907
 30
0.0
 40
0.3237866470006488
 50
37.9723662156996014
 51
45.1318523943446621
  0
ARC
  5
25A86
  8
0
 10
4895.4262130709121266
 20
8.6654082173593956
 30
0.0
 40
2.8543652411654259
 50
45.1318523943447687
 51
47.2934667485192008
  0
ARC
  5
25A87
  8
0
 10
4896.984499523931845
 20
10.3537207615156195
 30
0.0
 40
0.5568326698142969
 50
47.2934667485192008
 51
51.6926036363215289
  0
ARC
  5
25A88
  8
0
 10
4897.2768127447006918
 20
10.7237552771631695
 30
0.0
 40
0.0852687167745575
 50
51.6926036363215502
 51
58.1903967175698682
  0
ARC
  5
25A89
  8
0
 10
4897.3208697259224209
 20
10.7947853280947204
 30
0.0
 40
0.0016847127443722
 50
58.1903967175713177
 51
96.8311327183023849
  0
ARC
  5
25A8A
  8
0
 10
4897.3211081853305586
 20
10.7959866986173498
 30
0.0
 40
0.000644039140132
 50
132.9527478530980034
 51
216.9074001100721034
  0
ARC
  5
25A8B
  8
0
 10
4897.4295896745779828
 20
10.8710696004155398
 30
0.0
 40
0.132574129754002
 50
214.6989092529724132
 51
225.0462948702005122
  0
LINE
  5
25A8C
  8
0
 10
4897.1772888084105944
 20
10.8510532663932402
 30
0.0
 11
4897.2669355053776599
 21
10.7614065694275602
 31
0.0
  0
LINE
  5
25A8D
  8
0
 10
4897.3936360023117231
 20
10.6347060724932092
 30
0.0
 11
4897.4833084870770108
 21
10.5450335877282892
 31
0.0
  0
LINE
  5
25A8E
  8
0
 10
4897.5136996369119515
 20
10.51464243789321
 30
0.0
 11
4897.6033721216772392
 21
10.4249699531282793
 31
0.0
  0
LINE
  5
25A8F
  8
0
 10
4897.6197635623648239
 20
10.4246838394876207
 30
0.0
 11
4897.6351701696667078
 21
10.4390507332958506
 31
0.0
  0
LINE
  5
25A90
  8
0
 10
4897.513413523231975
 20
10.5310338785395796
 30
0.0
 11
4897.5353167793273315
 21
10.5545222451351695
 31
0.0
  0
LINE
  5
25A91
  8
0
 10
4897.4996999277509531
 20
10.5447474740739793
 30
0.0
 11
4897.5277281108601528
 21
10.57088417770467
 31
0.0
  0
LINE
  5
25A92
  8
0
 10
4897.3933498886281086
 20
10.6510975131359107
 30
0.0
 11
4897.4043851172373252
 21
10.66293134706895
 31
0.0
  0
LINE
  5
25A93
  8
0
 10
4897.2833044282306219
 20
10.7610995123557895
 30
0.0
 11
4897.3112001673343912
 21
10.7869771224186408
 31
0.0
  0
LINE
  5
25A94
  8
0
 10
4897.1770026947597216
 20
10.8674447070693603
 30
0.0
 11
4897.2012214561300425
 21
10.8934161489023005
 31
0.0
  0
LINE
  5
25A95
  8
0
 10
4897.013572195787674
 20
11.0308752060094406
 30
0.0
 11
4897.0406452899687793
 21
11.0561212747239601
 31
0.0
  0
ARC
  5
25A96
  8
0
 10
4897.6117159816949425
 20
10.4333138131462793
 30
0.0
 40
0.0118
 50
224.9999999999936051
 51
313.0000001455886718
  0
ARC
  5
25A97
  8
0
 10
4897.5220434969287453
 20
10.5229862979112099
 30
0.0
 40
0.0118
 50
137.0000001352192101
 51
224.9999999999951115
  0
ARC
  5
25A98
  8
0
 10
4897.4916523470947141
 20
10.5533774477462892
 30
0.0
 40
0.0118
 50
224.9999999999967031
 51
313.0000000483832991
  0
ARC
  5
25A99
  8
0
 10
4897.4019798623303359
 20
10.6430499325112091
 30
0.0
 40
0.0118
 50
137.0000001595942081
 51
224.9999999999959073
  0
ARC
  5
25A9A
  8
0
 10
4897.2752793653953631
 20
10.7697504294455602
 30
0.0
 40
0.0118
 50
224.9999999999928093
 51
312.8506818916661132
  0
ARC
  5
25A9B
  8
0
 10
4897.1856326684301166
 20
10.8593971264112401
 30
0.0
 40
0.0118
 50
136.9999999376420021
 51
224.9999999999967031
  0
ARC
  5
25A9C
  8
0
 10
4897.0055246151459869
 20
11.0395051796945598
 30
0.0
 40
0.0118
 50
224.9999999999936051
 51
312.9999999571297167
  0
ARC
  5
25A9D
  8
0
 10
4898.2084376618768147
 20
11.8159911923837608
 30
0.0
 40
1.3697852173000009
 50
228.8934049235905093
 51
229.6128851039682957
  0
ARC
  5
25A9E
  8
0
 10
4897.3564637685549314
 20
10.81446901183606
 30
0.0
 40
0.0549064422673081
 50
229.6128851039682957
 51
235.2363610956550986
  0
ARC
  5
25A9F
  8
0
 10
4897.332590266666557
 20
10.7800729866193201
 30
0.0
 40
0.0130372334960639
 50
235.2363610956979869
 51
243.466652465660701
  0
ARC
  5
25AA0
  8
0
 10
4897.3270654290490711
 20
10.7690080090753408
 30
0.0
 40
0.0006696323242402
 50
243.4666524656628042
 51
277.640808692849987
  0
ARC
  5
25AA1
  8
0
 10
4897.3269854356976793
 20
10.7685565932180598
 30
0.0
 40
0.0002713481177424
 50
308.5299709110855133
 51
34.2014040447090508
  0
ARC
  5
25AA2
  8
0
 10
4897.2239229144834098
 20
10.6922059807179508
 30
0.0
 40
0.1285337427056831
 50
36.526810305929331
 51
43.9923898418662986
  0
ARC
  5
25AA3
  8
0
 10
4896.4569920475751132
 20
9.9745542126951818
 30
0.0
 40
1.1788564357485189
 50
43.1962507621014282
 51
45.4555792285065721
  0
ARC
  5
25AA4
  8
0
 10
4895.509365461390189
 20
9.0331552636585641
 30
0.0
 40
2.514566846856451
 50
45.1132398138190496
 51
47.5684275608590426
  0
ARC
  5
25AA5
  8
0
 10
4896.9706861817239769
 20
10.6342439832157503
 30
0.0
 40
0.3468670122858479
 50
47.2888819614799019
 51
51.3655935955211618
  0
ARC
  5
25AA6
  8
0
 10
4897.1730681291555811
 20
10.8903216499612494
 30
0.0
 40
0.0205543876225281
 50
46.3640180688975931
 51
62.0770814275928089
  0
ARC
  5
25AA7
  8
0
 10
4897.1825018138461019
 20
10.9082673332787401
 30
0.0
 40
0.0002885245947709
 50
48.3913771807756632
 51
240.8780467990156069
  0
ARC
  5
25AA8
  8
0
 10
4897.3150278389493906
 20
11.0087015584373304
 30
0.0
 40
0.1665476234626383
 50
217.1964284638875995
 51
225.4144625177374053
  0
ARC
  5
25AA9
  8
0
 10
4898.6840853915673506
 20
11.8903731268235298
 30
0.0
 40
1.7575987004125631
 50
228.7594672033280858
 51
229.3836024625198888
  0
ARC
  5
25AAA
  8
0
 10
4897.5707596617003219
 20
10.5921858045863004
 30
0.0
 40
0.0473985646388234
 50
229.3836024625198888
 51
235.1526550957912889
  0
ARC
  5
25AAB
  8
0
 10
4897.5464571632228399
 20
10.5572806731472308
 30
0.0
 40
0.0048664634317848
 50
235.1526550957910047
 51
246.4429967156272028
  0
ARC
  5
25AAC
  8
0
 10
4897.5445651183936207
 20
10.5529410797711591
 30
0.0
 40
0.0001323421509052
 50
246.4429967159688886
 51
339.0684511910579886
  0
ARC
  5
25AAD
  8
0
 10
4897.524762381201981
 20
10.5397555319172795
 30
0.0
 40
0.0238678308897969
 50
33.3985251987314626
 51
45.7204283830939033
  0
ARC
  5
25AAE
  8
0
 10
4896.722349796130402
 20
9.7714689071909433
 30
0.0
 40
1.1347682602930009
 50
43.7966768468075216
 51
46.3264810644895775
  0
ARC
  5
25AAF
  8
0
 10
4894.613709039906098
 20
7.5865191671487544
 30
0.0
 40
4.1712627173593839
 50
46.1020638010636432
 51
47.4718442782535917
  0
ARC
  5
25AB0
  8
0
 10
4889.9128618839313276
 20
2.2254422054367931
 30
0.0
 40
11.2905783560008395
 50
46.7760285850503621
 51
47.3855502553671784
  0
ARC
  5
25AB1
  8
0
 10
4895.0075459865311132
 20
7.76306593519244
 30
0.0
 40
3.7658801774926118
 50
47.3855502553671784
 51
48.0997390863691265
  0
LINE
  5
25AB2
  8
0
 10
4897.0511546428451766
 20
11.0684576530687302
 30
0.0
 11
4897.075044997225632
 21
11.0907357689502994
 31
0.0
  0
ARC
  5
25AB3
  8
0
 10
4897.0431070621943945
 20
11.0770876267462892
 30
0.0
 40
0.0118
 50
224.9999999999920988
 51
313.0000000109906182
  0
ARC
  5
25AB4
  8
0
 10
4897.2309601037914035
 20
11.2779723485839298
 30
0.0
 40
0.2537240514323317
 50
229.9274590191556058
 51
232.7406082078267957
  0
ARC
  5
25AB5
  8
0
 10
4897.1279656061560672
 20
11.1425737779823599
 30
0.0
 40
0.0836045655867722
 50
232.7406082078267957
 51
238.3779229485220128
  0
ARC
  5
25AB6
  8
0
 10
4897.0930444800524128
 20
11.0858592750226403
 30
0.0
 40
0.01700111301648
 50
238.3779229485218139
 51
249.7320423876140012
  0
ARC
  5
25AB7
  8
0
 10
4897.0881004506036334
 20
11.0724708206550204
 30
0.0
 40
0.0027289675037546
 50
249.7320423876136033
 51
278.9248987988734143
  0
ARC
  5
25AB8
  8
0
 10
4897.0882425912195686
 20
11.07051386048715
 30
0.0
 40
0.0007906719275589
 50
290.8354674487633815
 51
10.7933302651107699
  0
ARC
  5
25AB9
  8
0
 10
4897.0389336039997943
 20
11.0489449960605199
 30
0.0
 40
0.0545912042390464
 50
23.4413470106026907
 51
43.1031283434441335
  0
ARC
  5
25ABA
  8
0
 10
4896.4515377224734038
 20
10.5663481813136801
 30
0.0
 40
0.8147046481621892
 50
39.6536383634527709
 51
45.4397351794742121
  0
ARC
  5
25ABB
  8
0
 10
4897.7936205665710077
 20
11.9408409702959606
 30
0.0
 40
1.1487625166649129
 50
229.6260004755700947
 51
230.4243925038393002
  0
ARC
  5
25ABC
  8
0
 10
4897.0846610005919501
 20
11.0831128423187799
 30
0.0
 40
0.0359636993952176
 50
230.4243925038475993
 51
238.5650386379928136
  0
ARC
  5
25ABD
  8
0
 10
4897.0729751627495716
 20
11.0613270442825193
 30
0.0
 40
0.0113662869852367
 50
231.5344942901816978
 51
246.6997135409295936
  0
ARC
  5
25ABE
  8
0
 10
4897.069327759179032
 20
11.0525973008010201
 30
0.0
 40
0.0019085595948353
 50
243.6026952161616066
 51
274.5187123140465815
  0
ARC
  5
25ABF
  8
0
 10
4897.0692838878294424
 20
11.0511355572495393
 30
0.0
 40
0.0004817740044076
 50
293.776471178734198
 51
23.0267328326717298
  0
ARC
  5
25AC0
  8
0
 10
4896.9850397169157077
 20
11.0011799914255697
 30
0.0
 40
0.0984195354644256
 50
30.6300324476906098
 51
45.3954047442769522
  0
ARC
  5
25AC1
  8
0
 10
4900.2519924445932702
 20
14.6809374987016401
 30
0.0
 40
4.8478046412734894
 50
228.455449465904195
 51
228.6392589974298062
  0
ARC
  5
25AC2
  8
0
 10
4897.0894057708319451
 20
11.0887281837154408
 30
0.0
 40
0.0617914536902243
 50
228.6392589974294935
 51
234.8389184667859126
  0
ARC
  5
25AC3
  8
0
 10
4897.0615015907387715
 20
11.0491143884008807
 30
0.0
 40
0.0133363606052292
 50
234.8389184667861969
 51
242.168165999396706
  0
ARC
  5
25AC4
  8
0
 10
4897.0560891296718182
 20
11.0388625531690803
 30
0.0
 40
0.0017434808757901
 50
242.1681659993963933
 51
263.6782712875389052
  0
ARC
  5
25AC5
  8
0
 10
4897.0558830594818573
 20
11.0373329484466698
 30
0.0
 40
0.0002037624848041
 50
273.9660568012947124
 51
22.4278689340081598
  0
ARC
  5
25AC6
  8
0
 10
4897.0036629342603192
 20
11.0052123053046103
 30
0.0
 40
0.0615092197857235
 50
31.5654668444880713
 51
43.9156142442822528
  0
ARC
  5
25AC7
  8
0
 10
4896.4928201128250294
 20
10.5620187010212696
 30
0.0
 40
0.7377328636121954
 50
41.1916835069862088
 51
42.1231060908198671
  0
LINE
  5
25AC8
  8
0
 10
4897.1884664276112744
 20
10.8231723373934301
 30
0.0
 11
4897.2781389123756526
 21
10.7334998526283005
 31
0.0
  0
LINE
  5
25AC9
  8
0
 10
4897.0310047547400245
 20
11.0465677194597998
 30
0.0
 11
4897.0052205409501767
 21
11.0225235510743502
 31
0.0
  0
ARC
  5
25ACA
  8
0
 10
4897.5048323459368476
 20
11.5448277427227097
 30
0.0
 40
0.690549570308865
 50
226.4249922382284979
 51
227.6621831262363003
  0
ARC
  5
25ACB
  8
0
 10
4897.1679755075138019
 20
11.17511742030044
 30
0.0
 40
0.1903913432462614
 50
227.6621831262363003
 51
229.4681012095367123
  0
ARC
  5
25ACC
  8
0
 10
4897.0681168904966398
 20
11.0583297260231692
 30
0.0
 40
0.0367322760646731
 50
229.4681012095367976
 51
233.7781044946931956
  0
ARC
  5
25ACD
  8
0
 10
4897.0483000228659876
 20
11.0312751093070194
 30
0.0
 40
0.003196317328405
 50
233.7781044946898987
 51
246.0547269184002914
  0
ARC
  5
25ACE
  8
0
 10
4897.0470940903651353
 20
11.0285595629382893
 30
0.0
 40
0.000225043985594
 50
246.0547269184554011
 51
280.3482135611749868
  0
ARC
  5
25ACF
  8
0
 10
4897.0470823936038869
 20
11.0284178145591305
 30
0.0
 40
0.0000951755818199
 50
303.2048784879639811
 51
27.4694166951355214
  0
ARC
  5
25AD0
  8
0
 10
4897.0175752649038259
 20
11.0087725379405601
 30
0.0
 40
0.0355432835642718
 50
33.6383789087260183
 51
44.5405649314761973
  0
ARC
  5
25AD1
  8
0
 10
4896.6345620774263807
 20
10.6677841139586391
 30
0.0
 40
0.5483099636081957
 50
41.8634719021982207
 51
43.7381470814702098
  0
LINE
  5
25AD2
  8
0
 10
4897.2945303530359524
 20
10.7332137389597193
 30
0.0
 11
4897.318532312087882
 21
10.7555959278316102
 31
0.0
  0
LINE
  5
25AD3
  8
0
 10
4897.1881803141695855
 20
10.8395637782946306
 30
0.0
 11
4897.1884688643458503
 21
10.8398732104588902
 31
0.0
  0
ARC
  5
25AD4
  8
0
 10
4896.9971729602939376
 20
11.0311535247462906
 30
0.0
 40
0.0118
 50
224.9999999999928093
 51
313.0000000510809741
  0
ARC
  5
25AD5
  8
0
 10
4897.1968102876298872
 20
10.83151619741143
 30
0.0
 40
0.0118
 50
136.9999984433750058
 51
224.9999999999928093
  0
ARC
  5
25AD6
  8
0
 10
4897.2864827723951748
 20
10.7418437126463004
 30
0.0
 40
0.0118
 50
224.9999999999951115
 51
312.9999999467860903
  0
ARC
  5
25AD7
  8
0
 10
4905.9836844709252546
 20
19.0089545602927714
 30
0.0
 40
11.9388716016841805
 50
229.5641753216548011
 51
231.0554425839644068
  0
LINE
  5
25AD8
  8
0
 10
4898.1244486894329384
 20
10.0212476994272794
 30
0.0
 11
4897.9920467319980162
 21
10.1371984908806798
 31
0.0
  0
LINE
  5
25AD9
  8
0
 10
4897.8276495071077079
 20
10.2841742301080394
 30
0.0
 11
4897.7557783364063653
 21
10.3493101287217701
 31
0.0
  0
LINE
  5
25ADA
  8
0
 10
4897.5343519669168018
 20
10.5534876104899809
 30
0.0
 11
4897.5217322422986399
 21
10.5652929398069304
 31
0.0
  0
LINE
  5
25ADB
  8
0
 10
4897.3196094627182902
 20
10.7590199459967799
 30
0.0
 11
4897.3008546201290301
 21
10.7773800282002092
 31
0.0
  0
LINE
  5
25ADC
  8
0
 10
4897.1895394612756718
 20
10.8808887431773709
 30
0.0
 11
4897.0257085417679264
 21
11.0416289209545404
 31
0.0
  0
LINE
  5
25ADD
  8
0
 10
4896.9409393822052152
 20
12.4147201813185308
 30
0.0
 11
4898.2910671321023983
 21
11.0645924314213406
 31
0.0
  0
LINE
  5
25ADE
  8
0
 10
4897.9715912202609616
 20
12.5066108027238698
 30
0.0
 11
4898.3829577535070712
 21
12.0952442694772593
 31
0.0
  0
LINE
  5
25ADF
  8
0
 10
4898.0472842603321624
 20
12.5659838283591405
 30
0.0
 11
4898.4423307794659195
 21
12.1709373098718103
 31
0.0
  0
LINE
  5
25AE0
  8
0
 10
4898.0728481026344525
 20
12.6946160957296197
 30
0.0
 11
4898.5709630465125883
 21
12.19650115184991
 31
0.0
  0
LINE
  5
25AE1
  8
0
 10
4898.4387715620177914
 20
13.1173093514931107
 30
0.0
 11
4898.4368316875488745
 21
13.1242789376654798
 31
0.0
  0
LINE
  5
25AE2
  8
0
 10
4898.4368316875488745
 20
13.1242789376654798
 30
0.0
 11
4899.314856906940804
 21
14.0023030523488607
 31
0.0
  0
ARC
  5
25AE3
  8
0
 10
4900.7946888160804519
 20
12.4647904004717507
 30
0.0
 40
2.1339746094994978
 50
91.29402075914102
 51
133.9048447842050109
  0
LINE
  5
25AE4
  8
0
 10
4900.7464972613488499
 20
14.5982207855654806
 30
0.0
 11
4903.1964976625476993
 21
14.5982207855654806
 31
0.0
  0
LINE
  5
25AE5
  8
0
 10
4903.1964976625476993
 20
14.5982207855654806
 30
0.0
 11
4903.2154976625488416
 21
14.5974482730654795
 31
0.0
  0
LINE
  5
25AE6
  8
0
 10
4903.5581337054381947
 20
15.3775385842135197
 30
0.0
 11
4903.458853127396651
 21
15.3758112645645895
 31
0.0
  0
ARC
  5
25AE7
  8
0
 10
4903.4602271927878974
 20
15.2970833275210296
 30
0.0
 40
0.0787399271451717
 50
90.9999011526498549
 51
152.0653502905722121
  0
ARC
  5
25AE8
  8
0
 10
4904.7188268995378166
 20
14.6297142542987508
 30
0.0
 40
1.5033292369905951
 50
152.0653502905720131
 51
179.9999011257606867
  0
LINE
  5
25AE9
  8
0
 10
4903.2154976625488416
 20
14.6297168485654794
 30
0.0
 11
4903.2154961678643303
 21
13.7635751162641409
 31
0.0
  0
ARC
  5
25AEA
  8
0
 10
4904.7187932113884017
 20
13.7635725220529697
 30
0.0
 40
1.5032970435257511
 50
179.9999011257606867
 51
207.9350764976350092
  0
ARC
  5
25AEB
  8
0
 10
4903.4602277964786481
 20
13.0962096212013996
 30
0.0
 40
0.078740921417036
 50
207.9350764976354924
 51
268.9996721683237979
  0
LINE
  5
25AEC
  8
0
 10
4903.4588531274503111
 20
13.0174807002722996
 30
0.0
 11
4903.5580173063635812
 21
13.0157492155259806
 31
0.0
  0
ARC
  5
25AED
  8
0
 10
4903.5582199984055478
 20
13.02735762848463
 30
0.0
 40
0.0116101824052318
 50
268.9996721683237979
 51
1.01160416731447
  0
LINE
  5
25AEE
  8
0
 10
4903.5698283712490593
 20
13.02756260516548
 30
0.0
 11
4903.5698283712490593
 21
15.3657291906654798
 31
0.0
  0
ARC
  5
25AEF
  8
0
 10
4903.5580194922285955
 20
15.3657302574814896
 30
0.0
 40
0.0118088790690712
 50
359.9948238901847049
 51
89.4458375844673839
  0
LINE
  5
25AF0
  8
0
 10
4903.2154976625488416
 20
13.7958436917654801
 30
0.0
 11
4903.1964976625476993
 21
13.7950711792654808
 31
0.0
  0
LINE
  5
25AF1
  8
0
 10
4903.1964976625476993
 20
13.7950711792654808
 30
0.0
 11
4900.7464977555491714
 21
13.7950711792654808
 31
0.0
  0
ARC
  5
25AF2
  8
0
 10
4900.7015624268296961
 20
12.6791449859578105
 30
0.0
 40
1.116830538925782
 50
87.6940997360901662
 51
137.3059002591423052
  0
LINE
  5
25AF3
  8
0
 10
4899.8807093726491075
 20
13.4364498889654804
 30
0.0
 11
4899.0541016111492354
 21
12.6098421274654804
 31
0.0
  0
LINE
  5
25AF4
  8
0
 10
4899.0268901132003521
 20
12.5851974091154801
 30
0.0
 11
4898.9964456364477883
 21
12.5946494867654799
 31
0.0
  0
ARC
  5
25AF5
  8
0
 10
4897.2597891902869378
 20
14.5636893655018405
 30
0.0
 40
2.6527487806504428
 50
311.7698093258346717
 51
312.5627618278007276
  0
ARC
  5
25AF6
  8
0
 10
4898.9938941029749913
 20
12.5856679524278707
 30
0.0
 40
0.0093369310872982
 50
74.1408626505346433
 51
197.0314107663245977
  0
LINE
  5
25AF7
  8
0
 10
4898.98496664927643
 20
12.5829332033380705
 30
0.0
 11
4898.9903920082133482
 21
12.5656889053856204
 31
0.0
  0
LINE
  5
25AF8
  8
0
 10
4899.0268901132003521
 20
12.5851974091154801
 30
0.0
 11
4898.4368316875488745
 21
13.1242789376654798
 31
0.0
  0
LINE
  5
25AF9
  8
0
 10
4898.9887770887489751
 20
12.5935686854654794
 30
0.0
 11
4898.5866622892399391
 21
12.9694186242946792
 31
0.0
  0
LINE
  5
25AFA
  8
0
 10
4903.3906618461487597
 20
15.3339701635736496
 30
0.0
 11
4903.3906618461487597
 21
13.05932180125731
 31
0.0
  0
LINE
  5
25AFB
  8
0
 10
4898.6164005786667985
 20
9.6031510515484957
 30
0.0
 11
4898.6262671478225457
 21
9.6031510515484957
 31
0.0
  0
ENDSEC
  0
EOF
