  0
SECTION
  2
HEADER
  9
$ACADVER
  1
AC1009
  9
$INSBASE
 10
6666.1116540943594373
 20
244.1769261249382907
 30
0.0
  9
$EXTMIN
 10
6658.0209255396412118
 20
234.8019406956665023
 30
0.0
  9
$EXTMAX
 10
6666.1242606069381509
 20
257.3551942582009815
 30
0.0
  9
$LIMMIN
 10
0.0
 20
0.0
  9
$LIMMAX
 10
11.6929133858000007
 20
8.2677165353999982
  9
$ORTHOMODE
 70
     0
  9
$REGENMODE
 70
     1
  9
$FILLMODE
 70
     1
  9
$QTEXTMODE
 70
     0
  9
$MIRRTEXT
 70
     0
  9
$DRAGMODE
 70
     2
  9
$LTSCALE
 40
0.6431102362
  9
$OSMODE
 70
  4095
  9
$ATTMODE
 70
     1
  9
$TEXTSIZE
 40
0.2
  9
$TRACEWID
 40
0.05
  9
$TEXTSTYLE
  7
STANDARD
  9
$CLAYER
  8
0
  9
$CELTYPE
  6
BYLAYER
  9
$CECOLOR
 62
   256
  9
$DIMSCALE
 40
1.0
  9
$DIMASZ
 40
0.1875
  9
$DIMEXO
 40
0.0625
  9
$DIMDLI
 40
0.4443307087
  9
$DIMRND
 40
0.0
  9
$DIMDLE
 40
0.0
  9
$DIMEXE
 40
0.125
  9
$DIMTP
 40
0.01
  9
$DIMTM
 40
0.01
  9
$DIMTXT
 40
2.0
  9
$DIMCEN
 40
0.1052362205
  9
$DIMTSZ
 40
0.0
  9
$DIMTOL
 70
     1
  9
$DIMLIM
 70
     0
  9
$DIMTIH
 70
     1
  9
$DIMTOH
 70
     1
  9
$DIMSE1
 70
     0
  9
$DIMSE2
 70
     0
  9
$DIMTAD
 70
     0
  9
$DIMZIN
 70
     0
  9
$DIMBLK
  1

  9
$DIMASO
 70
     1
  9
$DIMSHO
 70
     1
  9
$DIMPOST
  1
\X
  9
$DIMAPOST
  1

  9
$DIMALT
 70
     1
  9
$DIMALTD
 70
     2
  9
$DIMALTF
 40
25.3999999999999986
  9
$DIMLFAC
 40
1.0
  9
$DIMTOFL
 70
     0
  9
$DIMTVP
 40
0.0
  9
$DIMTIX
 70
     0
  9
$DIMSOXD
 70
     0
  9
$DIMSAH
 70
     0
  9
$DIMBLK1
  1

  9
$DIMBLK2
  1

  9
$DIMSTYLE
  2
STANDARD
  9
$DIMCLRD
 70
     0
  9
$DIMCLRE
 70
     0
  9
$DIMCLRT
 70
     0
  9
$DIMTFAC
 40
1.0
  9
$DIMGAP
 40
0.09
  9
$LUNITS
 70
     2
  9
$LUPREC
 70
     4
  9
$SKETCHINC
 40
0.1
  9
$FILLETRAD
 40
0.0
  9
$AUNITS
 70
     0
  9
$AUPREC
 70
     0
  9
$MENU
  1
.
  9
$ELEVATION
 40
0.0
  9
$PELEVATION
 40
0.0
  9
$THICKNESS
 40
0.0
  9
$LIMCHECK
 70
     0
  9
$BLIPMODE
 70
     0
  9
$CHAMFERA
 40
0.0
  9
$CHAMFERB
 40
0.0
  9
$SKPOLY
 70
     0
  9
$TDCREATE
 40
2458060.468368056230247
  9
$TDUPDATE
 40
2460532.6258564810268581
  9
$TDINDWG
 40
0.9683519676
  9
$TDUSRTIMER
 40
0.9683519676
  9
$USRTIMER
 70
     1
  9
$ANGBASE
 50
0.0
  9
$ANGDIR
 70
     0
  9
$PDMODE
 70
     0
  9
$PDSIZE
 40
0.3125
  9
$PLINEWID
 40
0.0
  9
$COORDS
 70
     0
  9
$SPLFRAME
 70
     0
  9
$SPLINETYPE
 70
     6
  9
$SPLINESEGS
 70
     8
  9
$ATTDIA
 70
     1
  9
$ATTREQ
 70
     1
  9
$HANDLING
 70
     1
  9
$HANDSEED
  5
302E2
  9
$SURFTAB1
 70
     6
  9
$SURFTAB2
 70
     6
  9
$SURFTYPE
 70
     6
  9
$SURFU
 70
     6
  9
$SURFV
 70
     6
  9
$UCSNAME
  2

  9
$UCSORG
 10
0.0
 20
0.0
 30
0.0
  9
$UCSXDIR
 10
1.0
 20
0.0
 30
0.0
  9
$UCSYDIR
 10
0.0
 20
1.0
 30
0.0
  9
$PUCSNAME
  2

  9
$PUCSORG
 10
0.0
 20
0.0
 30
0.0
  9
$PUCSXDIR
 10
1.0
 20
0.0
 30
0.0
  9
$PUCSYDIR
 10
0.0
 20
1.0
 30
0.0
  9
$USERI1
 70
     0
  9
$USERI2
 70
     0
  9
$USERI3
 70
     0
  9
$USERI4
 70
     0
  9
$USERI5
 70
     0
  9
$USERR1
 40
0.0
  9
$USERR2
 40
0.0
  9
$USERR3
 40
0.0
  9
$USERR4
 40
0.0
  9
$USERR5
 40
0.0
  9
$WORLDVIEW
 70
     1
  9
$SHADEDGE
 70
     3
  9
$SHADEDIF
 70
    70
  9
$TILEMODE
 70
     1
  9
$MAXACTVP
 70
    64
  9
$PLIMCHECK
 70
     0
  9
$PEXTMIN
 10
1.0000000000000000E+20
 20
1.0000000000000000E+20
 30
1.0000000000000000E+20
  9
$PEXTMAX
 10
-1.0000000000000000E+20
 20
-1.0000000000000000E+20
 30
-1.0000000000000000E+20
  9
$PLIMMIN
 10
0.0
 20
0.0
  9
$PLIMMAX
 10
12.0
 20
9.0
  9
$UNITMODE
 70
     0
  9
$VISRETAIN
 70
     1
  9
$PLINEGEN
 70
     0
  9
$PSLTSCALE
 70
     1
  0
ENDSEC
  0
SECTION
  2
TABLES
  0
TABLE
  2
VPORT
 70
     1
  0
VPORT
  2
*ACTIVE
 70
     0
 10
0.0
 20
0.0
 11
1.0
 21
1.0
 12
2750.7072366279771813
 22
113.4989623743946936
 13
0.0
 23
0.0
 14
1.0
 24
1.0
 15
0.0
 25
0.0
 16
0.0
 26
0.0
 36
60.4960186965801583
 17
3911.3653564453120453
 27
132.5796051025390057
 37
0.0
 40
22.7111526539874191
 41
2.218457943925233
 42
50.0
 43
0.0
 44
0.0
 50
0.0
 51
0.0
 71
     0
 72
   100
 73
     1
 74
     1
 75
     0
 76
     0
 77
     0
 78
     0
  0
ENDTAB
  0
TABLE
  2
LTYPE
 70
     2
  0
LTYPE
  2
CONTINUOUS
 70
     0
  3
Solid line
 72
    65
 73
     0
 40
0.0
  0
LTYPE
  2
PHANTOM2
 70
     0
  3
___ _ _ ___ _ _ ___ _ _ ___ _ _
 72
    65
 73
     6
 40
1.25
 49
0.625
 49
-0.125
 49
0.125
 49
-0.125
 49
0.125
 49
-0.125
  0
ENDTAB
  0
TABLE
  2
LAYER
 70
     2
  0
LAYER
  2
0
 70
     0
 62
   255
  6
CONTINUOUS
  0
LAYER
  2
DEFPOINTS
 70
     0
 62
     7
  6
CONTINUOUS
  0
ENDTAB
  0
TABLE
  2
STYLE
 70
     1
  0
STYLE
  2
STANDARD
 70
     0
 40
0.0
 41
0.8
 50
0.0
 71
     0
 42
0.2
  3
txt
  4

  0
ENDTAB
  0
TABLE
  2
VIEW
 70
     0
  0
ENDTAB
  0
TABLE
  2
UCS
 70
     0
  0
ENDTAB
  0
TABLE
  2
APPID
 70
    11
  0
APPID
  2
ACAD
 70
     0
  0
APPID
  2
ACAD_MLEADERVER
 70
     0
  0
APPID
  2
ACAD_EXEMPT_FROM_CAD_STANDARDS
 70
     0
  0
APPID
  2
ACAD_NAV_VCDISPLAY
 70
     0
  0
APPID
  2
ACAECLAYERSTANDARD
 70
     0
  0
APPID
  2
ACCMTRANSPARENCY
 70
     0
  0
APPID
  2
ACAD_DSTYLE_DIMJAG
 70
     0
  0
APPID
  2
ACAD_DSTYLE_DIMTALN
 70
     0
  0
APPID
  2
ACDBATTR
 70
     0
  0
APPID
  2
ACADANNOTATIVE
 70
     0
  0
APPID
  2
DCO15
 70
     0
  0
ENDTAB
  0
TABLE
  2
DIMSTYLE
 70
     1
  0
DIMSTYLE
  2
STANDARD
 70
     0
  3

  4

  5

  6

  7

 40
1.0
 41
0.1875
 42
0.0625
 43
0.38
 44
0.125
 45
0.0
 46
0.0
 47
0.01
 48
0.01
140
0.15625
141
0.09
142
0.0
143
25.3999999999999986
144
1.0
145
0.0
146
1.0
147
0.09
 71
     1
 72
     0
 73
     1
 74
     1
 75
     0
 76
     0
 77
     0
 78
     4
170
     0
171
     2
172
     0
173
     0
174
     0
175
     0
176
     0
177
     0
178
     0
  0
ENDTAB
  0
ENDSEC
  0
SECTION
  2
BLOCKS
  0
BLOCK
  8
0
  2
$MODEL_SPACE
 70
     0
 10
0.0
 20
0.0
 30
0.0
  3
$MODEL_SPACE
  1

  0
ENDBLK
  5
21
  8
0
  0
BLOCK
 67
     1
  8
0
  2
$PAPER_SPACE
 70
     0
 10
0.0
 20
0.0
 30
0.0
  3
$PAPER_SPACE
  1

  0
ENDBLK
  5
1D
 67
     1
  8
0
  0
BLOCK
  8
0
  2
_FILLED
 70
     0
 10
0.0
 20
0.0
 30
0.0
  3
_FILLED
  1

  0
SOLID
  5
26C2A
  8
0
  6
BYBLOCK
 62
     0
 10
0.0
 20
0.0
 30
0.0
 11
-1.0
 21
0.1666666667
 31
0.0
 12
-1.0
 22
-0.1666666667
 32
0.0
 13
-1.0
 23
-0.1666666667
 33
0.0
  0
ENDBLK
  5
26C2B
  8
0
  6
BYBLOCK
 62
     0
  0
ENDSEC
  0
SECTION
  2
ENTITIES
  0
ATTDEF
  5
26A5B
  8
DEFPOINTS
 10
6666.1135939402702206
 20
244.1804603699341101
 30
0.0
 40
0.001
  1
K-T35327-4G
  3

  2
MODELNUMBER
 70
     0
1001
ACDBATTR
1070
     0
1070
     1
  0
ATTDEF
  5
26A5C
  8
DEFPOINTS
 10
6666.113468130612091
 20
244.1787935295548948
 30
0.0
 40
0.001
  1
ELATE/ RITE TEMP
  3

  2
TRADENAME
 70
     0
1001
ACDBATTR
1070
     0
1070
     1
  0
ATTDEF
  5
26A5D
  8
DEFPOINTS
 10
6666.1135939402702206
 20
244.1771270366006945
 30
0.0
 40
0.001
  1
BATH AND SHOWER TRIM
  3

  2
PRODUCT
 70
     0
1001
ACDBATTR
1070
     0
1070
     1
  0
LINE
  5
2FF9B
  8
0
 10
6666.1116540943594373
 20
237.5372920783397888
 30
0.0
 11
6666.1116540943594373
 21
234.819563922983491
 31
0.0
  0
LINE
  5
2FF9C
  8
0
 10
6665.8454410953645493
 20
235.4628245029529978
 30
0.0
 11
6665.8454410953645493
 21
236.8857751649800889
 31
0.0
  0
LINE
  5
2FF9D
  8
0
 10
6666.0996481559623135
 20
237.549090281142611
 30
0.0
 11
6665.892652890996942
 21
237.5454771653280943
 31
0.0
  0
ARC
  5
2FF9E
  8
0
 10
6666.0998540943592161
 20
237.5372920783397888
 30
0.0
 40
0.0118
 50
0.0000000000048853
 51
91.0000000068032193
  0
LINE
  5
2FF9F
  8
0
 10
6665.8533509872586365
 20
237.5054832575218882
 30
0.0
 11
6665.8533509872586365
 21
234.8431164167897975
 31
0.0
  0
ARC
  5
2FFA0
  8
0
 10
6665.8933509872604191
 20
237.5054832575218882
 30
0.0
 40
0.04
 50
91.0000000068553163
 51
180.0000000000032117
  0
LINE
  5
2FFA1
  8
0
 10
6665.8388773078595477
 20
236.8892998339665894
 30
0.0
 11
6660.1246564268585644
 21
236.8892998339665894
 31
0.0
  0
LINE
  5
2FFA2
  8
0
 10
6665.8388773078595477
 20
235.4592998339664973
 30
0.0
 11
6663.2255006232498999
 21
235.4592998339664973
 31
0.0
  0
LINE
  5
2FFA3
  8
0
 10
6662.981523522518728
 20
235.4592998339664973
 30
0.0
 11
6661.8630341518601199
 21
235.4592998339664973
 31
0.0
  0
LINE
  5
2FFA4
  8
0
 10
6660.3469208613605588
 20
235.4592998339664973
 30
0.0
 11
6660.1246564268585644
 21
235.4592998339664973
 31
0.0
  0
ARC
  5
2FFA5
  8
0
 10
6665.8388773078595477
 20
235.467173849666608
 30
0.0
 40
0.007874015699998
 50
270.0
 51
326.47044643773188
  0
ARC
  5
2FFA6
  8
0
 10
6665.8388773078595477
 20
236.8814258182665071
 30
0.0
 40
0.0078740157000082
 50
33.5295535622817127
 51
90.0
  0
LINE
  5
2FFA7
  8
0
 10
6665.8454410953645493
 20
236.8857751649800889
 30
0.0
 11
6665.8533509872586365
 21
237.5054832575218882
 31
0.0
  0
LINE
  5
2FFA8
  8
0
 10
6665.8926706194479266
 20
234.8031222034628911
 30
0.0
 11
6665.9621234565593113
 21
234.8019406956665023
 31
0.0
  0
ARC
  5
2FFA9
  8
0
 10
6666.0982577905169819
 20
233.2866580668290055
 30
0.0
 40
1.5213855534146521
 50
92.990675437089763
 51
95.1337211212124885
  0
ARC
  5
2FFAA
  8
0
 10
6666.0910805121311569
 20
233.3740461135363944
 30
0.0
 40
1.4337444348666619
 50
89.6522470654600454
 51
92.8864468607576583
  0
ARC
  5
2FFAB
  8
0
 10
6665.8933509872604191
 20
234.8431164167897975
 30
0.0
 40
0.04
 50
180.0000000000032117
 51
269.0253978977584097
  0
ARC
  5
2FFAC
  8
0
 10
6666.0998540943592161
 20
234.819563922983491
 30
0.0
 40
0.0118
 50
269.652247065355823
 51
0.0000000000602524
  0
LINE
  5
2FFAD
  8
0
 10
6665.8454410953645493
 20
235.4628245029529978
 30
0.0
 11
6665.8533509872586365
 21
234.8431164167897975
 31
0.0
  0
LINE
  5
2FFAE
  8
0
 10
6660.0852564268589049
 20
235.4986998339664979
 30
0.0
 11
6660.0852564268589049
 21
236.8498998339665889
 31
0.0
  0
ARC
  5
2FFAF
  8
0
 10
6660.1246564268585644
 20
235.4986998339664979
 30
0.0
 40
0.0394
 50
179.9999999999934914
 51
270.0
  0
ARC
  5
2FFB0
  8
0
 10
6660.1246564268585644
 20
236.8498998339665889
 30
0.0
 40
0.0394
 50
90.0
 51
180.0000000000015916
  0
ARC
  5
2FFB1
  8
0
 10
6681.641876639034308
 20
236.1742998339665007
 30
0.0
 40
21.5672045089734787
 50
178.2048965997167898
 51
181.7951034002830966
  0
LINE
  5
2FFB2
  8
0
 10
6660.4514208613600204
 20
235.2892998339665098
 30
0.0
 11
6661.7585341518606583
 21
235.2892998339665098
 31
0.0
  0
LINE
  5
2FFB3
  8
0
 10
6660.4199208613608789
 20
235.3862998339664898
 30
0.0
 11
6660.4199208613608789
 21
235.3207998339665039
 31
0.0
  0
LINE
  5
2FFB4
  8
0
 10
6661.7900341518597997
 20
235.3862998339664898
 30
0.0
 11
6661.7900341518597997
 21
235.3207998339665039
 31
0.0
  0
ARC
  5
2FFB5
  8
0
 10
6660.3469208613605588
 20
235.3862998339664898
 30
0.0
 40
0.073
 50
359.9999999999968168
 51
90.0
  0
ARC
  5
2FFB6
  8
0
 10
6661.8630341518601199
 20
235.3862998339664898
 30
0.0
 40
0.073
 50
90.0
 51
180.0000000000032117
  0
ARC
  5
2FFB7
  8
0
 10
6663.1035120728838592
 20
234.7953041101046097
 30
0.0
 40
0.6751085303319853
 50
79.5897718112979362
 51
100.4102281887021064
  0
ARC
  5
2FFB8
  8
0
 10
6661.7585341518606583
 20
235.3207998339665039
 30
0.0
 40
0.0315
 50
270.0
 51
0.0000000000048853
  0
ARC
  5
2FFB9
  8
0
 10
6660.4514208613600204
 20
235.3207998339665039
 30
0.0
 40
0.0315
 50
179.9999999999934914
 51
270.0
  0
ARC
  5
2FFBA
  8
0
 10
6463.9323726602306124
 20
454.1443011694402117
 30
0.0
 40
294.0449281085828943
 50
311.9300534285172262
 51
312.0259535791802818
  0
ARC
  5
2FFBB
  8
0
 10
6662.0815354128271792
 20
234.2354488263856922
 30
0.0
 40
1.967088208653528
 50
125.5735699613517937
 51
131.2014851528541044
  0
ARC
  5
2FFBC
  8
0
 10
6661.2155880401896866
 20
235.4461708700750933
 30
0.0
 40
0.4785611785819602
 50
114.5487019589988051
 51
125.5735699613517937
  0
ARC
  5
2FFBD
  8
0
 10
6661.1096662232139352
 20
235.6780725125985896
 30
0.0
 40
0.2236145113821963
 50
91.1989725317683053
 51
114.5487019589988051
  0
ARC
  5
2FFBE
  8
0
 10
6661.0973677771717121
 20
235.658678167286098
 30
0.0
 40
0.2430793447166127
 50
57.9926920535099697
 51
88.2037450181780969
  0
ARC
  5
2FFBF
  8
0
 10
6659.9343062518528313
 20
233.935946926372111
 30
0.0
 40
2.3215293660439169
 50
45.6909864022405614
 51
56.1868229864573721
  0
ARC
  5
2FFC0
  8
0
 10
6664.2907549161463976
 20
238.3972465427405893
 30
0.0
 40
3.914001076138542
 50
225.6755008212051905
 51
230.2889099536828041
  0
LINE
  5
2FFC1
  8
0
 10
6663.0034811851592167
 20
235.4532998339664971
 30
0.0
 11
6663.2034811851599443
 21
235.4532998339664971
 31
0.0
  0
LINE
  5
2FFC2
  8
0
 10
6662.9951257077418632
 20
235.4616553114832129
 30
0.0
 11
6663.0034811851592167
 21
235.4532998339664971
 31
0.0
  0
LINE
  5
2FFC3
  8
0
 10
6663.2118453032226171
 20
235.4616639520303067
 30
0.0
 11
6663.2034811851599443
 21
235.4532998339664971
 31
0.0
  0
LINE
  5
2FFC4
  8
0
 10
6666.1116540943594373
 20
247.4022844643760948
 30
0.0
 11
6666.1116540943594373
 21
240.9515677855004014
 31
0.0
  0
LINE
  5
2FFC5
  8
0
 10
6665.1810617812598139
 20
247.3441778531689863
 30
0.0
 11
6665.1810617812598139
 21
241.0044218146703088
 31
0.0
  0
LINE
  5
2FFC6
  8
0
 10
6666.0916102819519438
 20
247.4219814639706101
 30
0.0
 11
6665.2429622796516924
 21
247.4071682579638036
 31
0.0
  0
ARC
  5
2FFC7
  8
0
 10
6666.0919540943586981
 20
247.4022844643760948
 30
0.0
 40
0.0197
 50
359.9999999999919282
 51
91.0000000017477362
  0
ARC
  5
2FFC8
  8
0
 10
6665.2440617812599157
 20
247.3441778531689863
 30
0.0
 40
0.063
 50
91.0000000017477362
 51
179.9999999999984084
  0
LINE
  5
2FFC9
  8
0
 10
6665.2429622796562398
 20
240.9414314098754062
 30
0.0
 11
6666.0443814092495813
 21
240.9274425869666914
 31
0.0
  0
ARC
  5
2FFCA
  8
0
 10
6666.0447249605549587
 20
240.9471246281129027
 30
0.0
 40
0.0196850392730335
 50
269.0000000023695748
 51
308.6670899688106147
  0
ARC
  5
2FFCB
  8
0
 10
6666.0553646907801522
 20
240.8778463392611116
 30
0.0
 40
0.0538887231154216
 50
89.4620485519159985
 51
101.760086309380398
  0
ARC
  5
2FFCC
  8
0
 10
6666.0829441258292718
 20
239.547025772516605
 30
0.0
 40
1.3849715566547569
 50
89.628380337392926
 51
91.1200915574848551
  0
ARC
  5
2FFCD
  8
0
 10
6666.0920540943598098
 20
240.9515677855004014
 30
0.0
 40
0.0196
 50
269.6283803373407864
 51
0.0000000000162844
  0
LINE
  5
2FFCE
  8
0
 10
6666.0443814092595858
 20
240.9306039169734106
 30
0.0
 11
6666.0443814092595858
 21
240.9274425869666061
 31
0.0
  0
ARC
  5
2FFCF
  8
0
 10
6665.2440617812599157
 20
241.0044218146703088
 30
0.0
 40
0.063
 50
180.0000000000015916
 51
269.0000000023695748
  0
LINE
  5
2FFD0
  8
0
 10
6665.1484834685807073
 20
245.3631920667451141
 30
0.0
 11
6665.1484834685807073
 21
242.882382492988512
 31
0.0
  0
ARC
  5
2FFD1
  8
0
 10
6797.0758257509551186
 20
244.1843410079945045
 30
0.0
 40
131.932609052915609
 50
178.6276127675156999
 51
179.488040980782614
  0
ARC
  5
2FFD2
  8
0
 10
6855.6172865552643998
 20
245.2473166719379947
 30
0.0
 40
190.4834844886680116
 50
180.7113699592609066
 51
181.2763315180770007
  0
LINE
  5
2FFD3
  8
0
 10
6662.1723563199602722
 20
245.2807346313651919
 30
0.0
 11
6662.1723563199602722
 21
243.0678650365640863
 31
0.0
  0
LINE
  5
2FFD4
  8
0
 10
6665.0667405064077684
 20
245.3277909158753971
 30
0.0
 11
6662.1918688639461834
 21
245.300433739472993
 31
0.0
  0
ARC
  5
2FFD5
  8
0
 10
6662.1920563199591925
 20
245.2807346313651919
 30
0.0
 40
0.0197
 50
90.5452081456073472
 51
180.0
  0
ARC
  5
2FFD6
  8
0
 10
6665.0777170865603694
 20
244.1742998339697976
 30
0.0
 40
1.1535433070967931
 50
86.4828693152552432
 51
90.5452081456073472
  0
LINE
  5
2FFD7
  8
0
 10
6665.0667405064050399
 20
243.0208087520443883
 30
0.0
 11
6662.1918688639461834
 21
243.0481659284563136
 31
0.0
  0
ARC
  5
2FFD8
  8
0
 10
6665.0777170865603694
 20
244.1742998339663018
 30
0.0
 40
1.1535433070997649
 50
269.4547918541841796
 51
273.5171306846928019
  0
ARC
  5
2FFD9
  8
0
 10
6662.1920563199591925
 20
243.0678650365640863
 30
0.0
 40
0.0197
 50
179.9999999999984084
 51
269.4547918541841796
  0
LINE
  5
2FFDA
  8
0
 10
6662.1526712805598436
 20
245.27272503086661
 30
0.0
 11
6662.1526712805598436
 21
240.6206921508126015
 31
0.0
  0
LINE
  5
2FFDB
  8
0
 10
6662.1166534653666531
 20
245.30118056869469
 30
0.0
 11
6661.7775627237306253
 21
245.2952617177367927
 31
0.0
  0
ARC
  5
2FFDC
  8
0
 10
6662.11727128055918
 20
245.2657859602861947
 30
0.0
 40
0.0354
 50
0.0000000000032569
 51
91.0000000077934459
  0
LINE
  5
2FFDD
  8
0
 10
6662.1723563199602722
 20
245.27272503086661
 30
0.0
 11
6662.1526712805598436
 21
245.27272503086661
 31
0.0
  0
LINE
  5
2FFDE
  8
0
 10
6662.1526712805598436
 20
243.0758746371664927
 30
0.0
 11
6662.1723563199602722
 21
243.0758746371664927
 31
0.0
  0
LINE
  5
2FFDF
  8
0
 10
6661.7430440582411393
 20
240.6264645206479997
 30
0.0
 11
6661.7427805389788773
 21
245.2598650959945985
 31
0.0
  0
LINE
  5
2FFE0
  8
0
 10
6662.112583655743947
 20
240.5812981516234004
 30
0.0
 11
6661.7817564333618066
 21
240.5870727622879031
 31
0.0
  0
ARC
  5
2FFE1
  8
0
 10
6662.1132712805592746
 20
240.6206921508124879
 30
0.0
 40
0.0394
 50
268.9999999968970883
 51
0.0000000000016284
  0
ARC
  5
2FFE2
  8
0
 10
6661.7824440581771341
 20
240.6264667614771042
 30
0.0
 40
0.0394
 50
180.0032586307237068
 51
268.9999999968970883
  0
ARC
  5
2FFE3
  8
0
 10
6661.7781805389231522
 20
245.2598671093282974
 30
0.0
 40
0.0354
 50
91.0000000077934459
 51
180.0032586307189035
  0
ARC
  5
2FFE4
  8
0
 10
6500.4267772896428141
 20
240.0300833764549964
 30
0.0
 40
161.317539257050413
 50
0.2278034932542492
 51
0.5093501206822352
  0
ARC
  5
2FFE5
  8
0
 10
6924.102542491929853
 20
243.7965909441107044
 30
0.0
 40
262.3749678740066997
 50
180.2792751262311981
 51
180.5093501206821998
  0
ARC
  5
2FFE6
  8
0
 10
7686.1789961904260053
 20
247.5111871173180873
 30
0.0
 40
1024.4604745636479493
 50
180.1923357662805074
 51
180.2792751262311981
  0
ARC
  5
2FFE7
  8
0
 10
6693.0964167857373468
 20
244.1778492147259101
 30
0.0
 40
31.3723009079858883
 50
178.0235035705156008
 51
180.1929676209092861
  0
LINE
  5
2FFE8
  8
0
 10
6664.4016540943594009
 20
242.2196223765880063
 30
0.0
 11
6664.4016540943594009
 21
241.5289772913450008
 31
0.0
  0
LINE
  5
2FFE9
  8
0
 10
6664.3116540943592554
 20
242.1542998339666042
 30
0.0
 11
6664.3116540943592554
 21
241.5942998339664882
 31
0.0
  0
LINE
  5
2FFEA
  8
0
 10
6664.2722540943595959
 20
242.1817997972665069
 30
0.0
 11
6663.8392840156602688
 21
242.1817997972665069
 31
0.0
  0
LINE
  5
2FFEB
  8
0
 10
6664.4016540943594009
 20
242.174299833966586
 30
0.0
 11
6664.331654094359692
 21
242.174299833966586
 31
0.0
  0
LINE
  5
2FFEC
  8
0
 10
6664.431327031685214
 20
242.2498177769818142
 30
0.0
 11
6665.1571892664924235
 21
242.2624877494212967
 31
0.0
  0
ARC
  5
2FFED
  8
0
 10
6664.4318540943595508
 20
242.2196223765880063
 30
0.0
 40
0.0302
 50
91.0000000001841869
 51
179.9999999999951115
  0
ARC
  5
2FFEE
  8
0
 10
6664.2722540943595959
 20
242.1423997972665916
 30
0.0
 40
0.0394
 50
359.9999999999919282
 51
90.0
  0
ARC
  5
2FFEF
  8
0
 10
6664.331654094359692
 20
242.1542998339666042
 30
0.0
 40
0.02
 50
90.0
 51
179.9999999999901945
  0
LINE
  5
2FFF0
  8
0
 10
6663.7722840156602615
 20
241.4675998876666085
 30
0.0
 11
6663.7722840156602615
 21
242.2809997802665123
 31
0.0
  0
LINE
  5
2FFF1
  8
0
 10
6663.7289840156590799
 20
242.3242997802665002
 30
0.0
 11
6663.6081267246599964
 21
242.3242997802665002
 31
0.0
  0
LINE
  5
2FFF2
  8
0
 10
6663.5648267246588148
 20
242.2809997802665123
 30
0.0
 11
6663.5648267246588148
 21
241.4675998876666085
 31
0.0
  0
ARC
  5
2FFF3
  8
0
 10
6663.8392840156602688
 20
242.2487997972665994
 30
0.0
 40
0.067
 50
180.0
 51
270.0
  0
ARC
  5
2FFF4
  8
0
 10
6663.7289840156590799
 20
242.2809997802665123
 30
0.0
 40
0.0433
 50
0.0
 51
90.0
  0
ARC
  5
2FFF5
  8
0
 10
6663.6081267246599964
 20
242.2809997802665123
 30
0.0
 40
0.0433
 50
90.0
 51
179.9999999999984084
  0
LINE
  5
2FFF6
  8
0
 10
6664.2722540943595959
 20
241.566799870666614
 30
0.0
 11
6663.8392840156602688
 21
241.566799870666614
 31
0.0
  0
LINE
  5
2FFF7
  8
0
 10
6664.4016540943594009
 20
241.5742998339665064
 30
0.0
 11
6664.331654094359692
 21
241.5742998339665064
 31
0.0
  0
LINE
  5
2FFF8
  8
0
 10
6664.431327031685214
 20
241.4987818909513067
 30
0.0
 11
6665.1709439922269667
 21
241.4858718288809882
 31
0.0
  0
ARC
  5
2FFF9
  8
0
 10
6664.4318540943595508
 20
241.5289772913450008
 30
0.0
 40
0.0302
 50
180.0000000000048885
 51
268.9999999998158273
  0
ARC
  5
2FFFA
  8
0
 10
6664.2722540943595959
 20
241.6061998706665008
 30
0.0
 40
0.0394
 50
270.0
 51
0.0000000000081422
  0
ARC
  5
2FFFB
  8
0
 10
6664.331654094359692
 20
241.5942998339664882
 30
0.0
 40
0.02
 50
180.0000000000098055
 51
270.0
  0
LINE
  5
2FFFC
  8
0
 10
6663.7289840156590799
 20
241.4242998876665922
 30
0.0
 11
6663.6081267246599964
 21
241.4242998876665922
 31
0.0
  0
ARC
  5
2FFFD
  8
0
 10
6663.8392840156602688
 20
241.499799870666493
 30
0.0
 40
0.067
 50
90.0
 51
180.0
  0
ARC
  5
2FFFE
  8
0
 10
6663.7289840156590799
 20
241.4675998876666085
 30
0.0
 40
0.0433
 50
270.0
 51
0.0
  0
ARC
  5
2FFFF
  8
0
 10
6663.6081267246599964
 20
241.4675998876666085
 30
0.0
 40
0.0433
 50
180.0000000000015916
 51
270.0
  0
ARC
  5
30000
  8
0
 10
6665.4924111536529381
 20
241.8742998339664894
 30
0.0
 40
1.970021973790949
 50
168.085935795729398
 51
191.914064204270602
  0
LINE
  5
30001
  8
0
 10
6666.0996481966521969
 20
257.3551924617140116
 30
0.0
 11
6666.000655531751363
 21
257.3534648798155899
 31
0.0
  0
LINE
  5
30002
  8
0
 10
6665.7573233857592641
 20
256.6073706996181159
 30
0.0
 11
6665.7573233857592641
 21
255.741228799314996
 31
0.0
  0
ARC
  5
30003
  8
0
 10
6667.2606421947093622
 20
256.6073706996181159
 30
0.0
 40
1.50331880898088
 50
152.064291007010695
 51
180.0
  0
LINE
  5
30004
  8
0
 10
6666.1116540943594373
 20
257.3433942582009877
 30
0.0
 11
6666.1116540943594373
 21
255.0052052407320957
 31
0.0
  0
ARC
  5
30005
  8
0
 10
6666.0998540943592161
 20
257.3433942582009877
 30
0.0
 40
0.0118
 50
0.0
 51
90.9998024070094687
  0
ARC
  5
30006
  8
0
 10
6666.0020287647712394
 20
257.2747768614706274
 30
0.0
 40
0.0787
 50
90.9998024069573717
 51
152.0642910070235985
  0
LINE
  5
30007
  8
0
 10
6665.9324993746540713
 20
257.3116462784731198
 30
0.0
 11
6665.9324993746540713
 21
255.0369532204599921
 31
0.0
  0
LINE
  5
30008
  8
0
 10
6665.7573233857592641
 20
256.5758746371665211
 30
0.0
 11
6663.383135353686157
 21
256.5758746371665211
 31
0.0
  0
LINE
  5
30009
  8
0
 10
6666.0996481966521969
 20
254.9934070372191002
 30
0.0
 11
6666.000655531751363
 21
254.9951346191174082
 31
0.0
  0
ARC
  5
3000A
  8
0
 10
6667.2606421947093622
 20
255.741228799314996
 30
0.0
 40
1.50331880898088
 50
180.0
 51
207.935708992989305
  0
ARC
  5
3000B
  8
0
 10
6666.0998540943592161
 20
255.0052052407320957
 30
0.0
 40
0.0118
 50
269.0001975929906166
 51
0.0
  0
ARC
  5
3000C
  8
0
 10
6666.0020287647712394
 20
255.0738226374625128
 30
0.0
 40
0.0787
 50
207.9357089929764015
 51
269.0001975930426283
  0
LINE
  5
3000D
  8
0
 10
6665.7573233857592641
 20
255.7727248617665907
 30
0.0
 11
6663.2173415752704386
 21
255.7727248617665907
 31
0.0
  0
LINE
  5
3000E
  8
0
 10
6660.9464057704162769
 20
255.1292589236109052
 30
0.0
 11
6661.5697777458781275
 21
254.5058869481493105
 31
0.0
  0
LINE
  5
3000F
  8
0
 10
6661.7877610339728562
 20
255.9150489568795876
 30
0.0
 11
6660.9774812202749672
 21
255.1047691431832902
 31
0.0
  0
LINE
  5
30010
  8
0
 10
6662.4725460027957524
 20
255.4642204345398113
 30
0.0
 11
6661.5680733935032549
 21
254.5597478256115096
 31
0.0
  0
ARC
  5
30011
  8
0
 10
6663.383135353686157
 20
254.3196746371664858
 30
0.0
 40
2.2562000000000002
 50
90.0
 51
135.0000000000046043
  0
ARC
  5
30012
  8
0
 10
6663.2173415752704386
 20
254.7194248617664982
 30
0.0
 40
1.053299999999999
 50
90.0
 51
134.9999999885058912
  0
LINE
  5
30013
  8
0
 10
6660.9805470335586506
 20
255.0951176604675084
 30
0.0
 11
6660.9774812202749672
 21
255.1047691431832902
 31
0.0
  0
LINE
  5
30014
  8
0
 10
6660.9774812202749672
 20
255.1047691431832902
 30
0.0
 11
6661.5680733935032549
 21
254.5597478256115096
 31
0.0
  0
LINE
  5
30015
  8
0
 10
6661.5680733935032549
 20
254.5597478256115096
 30
0.0
 11
6661.539315036602602
 21
254.5717154005905911
 31
0.0
  0
LINE
  5
30016
  8
0
 10
6661.5321655767056654
 20
254.5434991173206924
 30
0.0
 11
6661.5268702093126194
 21
254.5603395212733915
 31
0.0
  0
ARC
  5
30017
  8
0
 10
6661.5357419486081199
 20
254.5631291882610014
 30
0.0
 40
0.0093
 50
67.405728916106483
 51
197.4554524389168932
  0
LINE
  5
30018
  8
0
 10
6661.5393150366053305
 20
254.5717154005905911
 30
0.0
 11
6661.1947430585878465
 21
254.8809216354385114
 31
0.0
  0
LINE
  5
30019
  8
0
 10
6661.5268702093126194
 20
254.5603395212733915
 30
0.0
 11
6661.475865634701222
 21
254.5997990593247096
 31
0.0
  0
LINE
  5
3001A
  8
0
 10
6660.6297765178742338
 20
254.8264889640803119
 30
0.0
 11
6660.9325464775047294
 21
255.1292589236120136
 31
0.0
  0
ARC
  5
3001B
  8
0
 10
6660.7132930668585686
 20
254.7429724150665891
 30
0.0
 40
0.1181102361999432
 50
134.9999999905197967
 51
170.788031392800292
  0
ARC
  5
3001C
  8
0
 10
6660.7132930668585686
 20
254.7429724150665891
 30
0.0
 40
0.1181102362000409
 50
170.788031392800292
 51
202.519458726734797
  0
LINE
  5
3001D
  8
0
 10
6660.6041887937590218
 20
254.6977365279155947
 30
0.0
 11
6660.6147003283040249
 21
254.6723837954970975
 31
0.0
  0
LINE
  5
3001E
  8
0
 10
6660.5413286215689368
 20
254.4958563181768909
 30
0.0
 11
6660.5891148215614521
 21
254.5436425180689923
 31
0.0
  0
ARC
  5
3001F
  8
0
 10
6660.5056055107916109
 20
254.6271518290145082
 30
0.0
 40
0.1181
 50
314.999999940036389
 51
22.5194586511426884
  0
LINE
  5
30020
  8
0
 10
6660.2675148716116382
 20
254.6801198238148061
 30
0.0
 11
6661.1206386460808062
 21
253.826996049345297
 31
0.0
  0
ARC
  5
30021
  8
0
 10
6660.5114536357486941
 20
254.0709372805158068
 30
0.0
 40
0.4133835284234669
 50
89.745021301547439
 51
96.3352731159567242
  0
ARC
  5
30022
  8
0
 10
6660.5134686144201623
 20
254.5237163253848962
 30
0.0
 40
0.0394
 50
269.7450213015474105
 51
314.999999940036389
  0
LINE
  5
30023
  8
0
 10
6660.2166237701821956
 20
254.6823417041140942
 30
0.0
 11
6659.9174594848591369
 21
254.4313115993666088
 31
0.0
  0
ARC
  5
30024
  8
0
 10
6659.6288449575540653
 20
254.7372875728815131
 30
0.0
 40
0.4206181662039348
 50
290.7524517761272023
 51
313.3274959171379805
  0
ARC
  5
30025
  8
0
 10
6659.6769959769371781
 20
254.641371858683101
 30
0.0
 40
0.3140581980434499
 50
257.8060638123125727
 51
288.737739351913774
  0
ARC
  5
30026
  8
0
 10
6659.7047252001211746
 20
254.7141227251370026
 30
0.0
 40
0.3912007932391752
 50
228.4332931527206085
 51
256.0867796150507161
  0
LINE
  5
30027
  8
0
 10
6659.4451667701760016
 20
254.4214326465971112
 30
0.0
 11
6660.8619514697638806
 21
253.0046479467249014
 31
0.0
  0
ARC
  5
30028
  8
0
 10
6660.2408569459603314
 20
254.6534618981640961
 30
0.0
 40
0.0377
 50
44.9999999999953886
 51
130.0001644541059989
  0
LINE
  5
30029
  8
0
 10
6661.1607640191432438
 20
254.9009812501510055
 30
0.0
 11
6660.8580241254603607
 21
254.5982413564665023
 31
0.0
  0
ARC
  5
3002A
  8
0
 10
6660.8888498259202606
 20
254.5698473916928037
 30
0.0
 40
0.0419099158253688
 50
137.351414181627689
 51
182.8473491477193988
  0
ARC
  5
3002B
  8
0
 10
6660.9641816129951621
 20
254.5750530698566934
 30
0.0
 40
0.1174163350527026
 50
183.5584059289701884
 51
212.2058202407862098
  0
ARC
  5
3002C
  8
0
 10
6661.0768522017779105
 20
254.6383513216975985
 30
0.0
 40
0.2465723227020529
 50
210.6975599232850129
 51
225.3315694311195045
  0
ARC
  5
3002D
  8
0
 10
6661.1637919439835969
 20
254.8970790490768934
 30
0.0
 40
0.0049391803029327
 50
70.3536483972447684
 51
127.8097839726122942
  0
ARC
  5
3002E
  8
0
 10
6661.1220558489194445
 20
254.7962347264264906
 30
0.0
 40
0.114073112594222
 50
57.704466568718793
 51
67.6397446240251696
  0
ARC
  5
3002F
  8
0
 10
6660.9394761239600484
 20
255.122329277155302
 30
0.0
 40
0.0098
 50
44.9999999999953886
 51
134.9999999905186883
  0
LINE
  5
30030
  8
0
 10
6658.0340352343646373
 20
254.7508459557517142
 30
0.0
 11
6658.4828694222760532
 21
255.127462557297406
 31
0.0
  0
LINE
  5
30031
  8
0
 10
6658.0316739212803441
 20
254.6967821053353873
 30
0.0
 11
6661.1372120197493132
 21
251.5910526476874054
 31
0.0
  0
ARC
  5
30032
  8
0
 10
6658.0576255396399574
 20
254.7227321246895997
 30
0.0
 40
0.0367
 50
130.0000000007626113
 51
224.9982348090225059
  0
LINE
  5
30033
  8
0
 10
6658.5324105464196691
 20
255.1252995451052072
 30
0.0
 11
6661.5658183670111612
 21
252.0918917246150102
 31
0.0
  0
ARC
  5
30034
  8
0
 10
6658.5064597275522829
 20
255.0993487262352062
 30
0.0
 40
0.0367
 50
45.00000000094537
 51
130.0000000007636061
  0
ARC
  5
30035
  8
0
 10
6709.4557452364542769
 20
320.2175982487449915
 30
0.0
 40
82.6449839160060549
 50
231.9630382031340048
 51
232.7621343176078881
  0
LINE
  5
30036
  8
0
 10
6661.2670077863458573
 20
254.1892576956074095
 30
0.0
 11
6661.5697777458781275
 21
254.4920276552390987
 31
0.0
  0
ARC
  5
30037
  8
0
 10
6661.1834912373324187
 20
254.2727742445935917
 30
0.0
 40
0.1181102361999433
 50
279.2119686071907267
 51
315.0000000094524921
  0
ARC
  5
30038
  8
0
 10
6661.1834912373324187
 20
254.2727742445937054
 30
0.0
 40
0.1181102362000409
 50
247.4805412732565912
 51
279.2119686071907267
  0
LINE
  5
30039
  8
0
 10
6661.1382553501807706
 20
254.163669971492709
 30
0.0
 11
6661.1129026177632113
 21
254.1741815060379963
 31
0.0
  0
LINE
  5
3003A
  8
0
 10
6660.9363751404425784
 20
254.1008097993039883
 30
0.0
 11
6660.9841613403341398
 21
254.1485959992961057
 31
0.0
  0
ARC
  5
3003B
  8
0
 10
6661.0676706512813325
 20
254.0650866885252981
 30
0.0
 40
0.1181
 50
67.4805413488503802
 51
135.0000000599358998
  0
ARC
  5
3003C
  8
0
 10
6660.511456102781267
 20
254.0709348134830918
 30
0.0
 40
0.413383528423467
 50
353.6647268840624747
 51
0.2549786984313273
  0
ARC
  5
3003D
  8
0
 10
6660.9642351476513795
 20
254.0729497921545033
 30
0.0
 40
0.0394
 50
135.0000000599370082
 51
180.2549786984345133
  0
LINE
  5
3003E
  8
0
 10
6661.1228605263795544
 20
253.7761049479165933
 30
0.0
 11
6660.8718304216317847
 21
253.4769406625935915
 31
0.0
  0
ARC
  5
3003F
  8
0
 10
6661.1778063951478543
 20
253.1883261352872125
 30
0.0
 40
0.4206181662039349
 50
136.6725040828613089
 51
159.2475482238770894
  0
ARC
  5
30040
  8
0
 10
6661.0818906809499822
 20
253.2364771546712916
 30
0.0
 40
0.31405819804345
 50
161.2622606480938998
 51
192.1939361877008992
  0
ARC
  5
30041
  8
0
 10
6661.1546415474040259
 20
253.2642063778548049
 30
0.0
 40
0.3912007932391753
 50
193.9132203849615905
 51
221.5667068472621111
  0
ARC
  5
30042
  8
0
 10
6661.0939807204304088
 20
253.800338123694587
 30
0.0
 40
0.0377
 50
319.9998355458955075
 51
44.9999999999953886
  0
LINE
  5
30043
  8
0
 10
6661.3415000724171477
 20
254.7202451968780963
 30
0.0
 11
6661.0387601787324456
 21
254.4175053031935931
 31
0.0
  0
ARC
  5
30044
  8
0
 10
6661.0103662139590597
 20
254.4483310036548005
 30
0.0
 40
0.0419099158253688
 50
267.1526508522653103
 51
312.6485858183702931
  0
ARC
  5
30045
  8
0
 10
6661.0155718921223524
 20
254.523662790729702
 30
0.0
 40
0.1174163350527026
 50
237.7941797592280011
 51
266.4415940710554764
  0
ARC
  5
30046
  8
0
 10
6661.078870143963286
 20
254.6363333795123935
 30
0.0
 40
0.246572322702053
 50
224.668430568879387
 51
239.3024400767179998
  0
ARC
  5
30047
  8
0
 10
6661.3375978713438599
 20
254.7232731217189041
 30
0.0
 40
0.0049391803029327
 50
322.1902160273955928
 51
19.6463516027426408
  0
ARC
  5
30048
  8
0
 10
6661.2367535486919223
 20
254.6815370266535865
 30
0.0
 40
0.114073112594222
 50
22.3602553759633196
 51
32.2955334312918581
  0
ARC
  5
30049
  8
0
 10
6661.5628480994209895
 20
254.4989573016935935
 30
0.0
 40
0.0098
 50
315.0000000094548227
 51
44.9999999999953886
  0
ARC
  5
3004A
  8
0
 10
6726.6581170710105653
 20
303.0152264141879073
 30
0.0
 40
82.6449839160060691
 50
217.2378656824033101
 51
218.0369617968989928
  0
LINE
  5
3004B
  8
0
 10
6661.1912774691663799
 20
251.5934123617601017
 30
0.0
 11
6661.5679813792276036
 21
252.0423505997260065
 31
0.0
  0
ARC
  5
3004C
  8
0
 10
6661.5398675481701503
 20
252.0659409050074942
 30
0.0
 40
0.0367
 50
319.9999999877323944
 51
44.999999987546687
  0
ARC
  5
3004D
  8
0
 10
6661.1631636381071075
 20
251.6170026670415041
 30
0.0
 40
0.0367
 50
224.9982348090248081
 51
319.9999999877273922
  0
ARC
  5
3004E
  8
0
 10
6661.7275675908977064
 20
257.0841563935488807
 30
0.0
 40
4.3563020396449499
 50
218.7333296201234134
 51
218.9908517663866121
  0
ARC
  5
3004F
  8
0
 10
6658.4183919029283061
 20
254.4281066832330964
 30
0.0
 40
0.1130517569278881
 50
215.6859023076021913
 51
218.046176078929193
  0
ARC
  5
30050
  8
0
 10
6658.3429074760979347
 20
254.3735992650188962
 30
0.0
 40
0.0199462630102648
 50
210.7400414363816026
 51
214.9987487664585046
  0
ARC
  5
30051
  8
0
 10
6658.326523598499989
 20
254.3638557373579943
 30
0.0
 40
0.0008840549415391
 50
192.2746460503965977
 51
210.7400414363872017
  0
ARC
  5
30052
  8
0
 10
6658.325744518790998
 20
254.3636465470171117
 30
0.0
 40
0.0000873865867663
 50
29.3374230905865012
 51
165.9315463163704862
  0
ARC
  5
30053
  8
0
 10
6658.2793945599651124
 20
254.3115936089768923
 30
0.0
 40
0.0697807552367411
 50
41.3557421225139379
 51
48.2935537690684384
  0
ARC
  5
30054
  8
0
 10
6656.6812325537757715
 20
252.8610337413311129
 30
0.0
 40
2.2280698690984959
 50
40.7333437548513402
 51
42.200897590171202
  0
ARC
  5
30055
  8
0
 10
6654.009342747235678
 20
250.5335893702111036
 30
0.0
 40
5.7714914058401883
 50
39.8422695704326486
 51
40.933066292555587
  0
ARC
  5
30056
  8
0
 10
6657.9134748572087119
 20
253.791294152361786
 30
0.0
 40
0.6867212067664665
 50
37.8180775987178421
 51
39.8408659619166983
  0
ARC
  5
30057
  8
0
 10
6658.4425731339479171
 20
254.202059915648789
 30
0.0
 40
0.0168904043022955
 50
29.429166055122419
 51
37.5832678826833373
  0
ARC
  5
30058
  8
0
 10
6658.4572102284546418
 20
254.2103224918409978
 30
0.0
 40
0.0000823548428714
 50
221.2098306837160919
 51
26.2900693661255609
  0
ARC
  5
30059
  8
0
 10
6658.6759398508456798
 20
254.4313119749012913
 30
0.0
 40
0.3110146131934383
 50
220.9779182292211885
 51
225.2933785362847914
  0
LINE
  5
3005A
  8
0
 10
6658.3196249523725783
 20
254.3195711240755088
 30
0.0
 11
6658.3432679523639308
 21
254.3449251374314031
 31
0.0
  0
LINE
  5
3005B
  8
0
 10
6658.4259749914663189
 20
254.2132210849767091
 30
0.0
 11
6658.4427427655364227
 21
254.2288572872784016
 31
0.0
  0
LINE
  5
3005C
  8
0
 10
6658.4095835507941956
 20
254.2135071986322998
 30
0.0
 11
6658.3199110660261795
 21
254.3031796834007991
 31
0.0
  0
ARC
  5
3005D
  8
0
 10
6658.4179274108128084
 20
254.2218510586502873
 30
0.0
 40
0.0118
 50
224.9999999999918998
 51
313.0000000393362143
  0
ARC
  5
3005E
  8
0
 10
6658.3282549260429732
 20
254.3115235434187866
 30
0.0
 40
0.0118
 50
136.9999999472655077
 51
224.9999999999976978
  0
LINE
  5
3005F
  8
0
 10
6658.5504582181856676
 20
254.0880813719792002
 30
0.0
 11
6658.575042039507025
 21
254.1144442927219131
 31
0.0
  0
LINE
  5
30060
  8
0
 10
6658.6571544683611137
 20
253.9820984828633925
 30
0.0
 11
6658.676201745041908
 21
253.9998603557409069
 31
0.0
  0
LINE
  5
30061
  8
0
 10
6658.6407962857892926
 20
253.9823514704588092
 30
0.0
 11
6658.5507775899441185
 21
254.0716568052490061
 31
0.0
  0
ARC
  5
30062
  8
0
 10
6658.6491068877066937
 20
253.9907284565377097
 30
0.0
 40
0.0118
 50
225.2279246232616003
 51
313.0000000344152795
  0
ARC
  5
30063
  8
0
 10
6658.5590881918624291
 20
254.0800337913279066
 30
0.0
 40
0.0118
 50
136.9999999830876902
 51
225.2279246232673984
  0
ARC
  5
30064
  8
0
 10
6658.7420925634751256
 20
254.2499776497078017
 30
0.0
 40
0.2215972510678791
 50
213.6033663984094915
 51
219.2873400310228931
  0
ARC
  5
30065
  8
0
 10
6658.5710694623157906
 20
254.1363356883576898
 30
0.0
 40
0.0162599760549799
 50
201.2276741730717049
 51
213.6033663984067914
  0
ARC
  5
30066
  8
0
 10
6658.5571155800489578
 20
254.1309155788862881
 30
0.0
 40
0.0012903929948824
 50
167.9076602784523971
 51
201.2276741730254912
  0
ARC
  5
30067
  8
0
 10
6658.5561655351821173
 20
254.1310013116122093
 30
0.0
 40
0.000362270455938
 50
68.2773829533379768
 51
149.3672432516202946
  0
ARC
  5
30068
  8
0
 10
6658.5490435195142709
 20
254.1161386650084069
 30
0.0
 40
0.0168423973380435
 50
47.1866069829675396
 51
64.4801811288591011
  0
ARC
  5
30069
  8
0
 10
6658.1001739919465763
 20
253.6371448351096092
 30
0.0
 40
0.6732862948476078
 50
42.0334317057885016
 51
46.8677114170046778
  0
ARC
  5
3006A
  8
0
 10
6657.1626180978882985
 20
252.7675428918207956
 30
0.0
 40
1.951998540546678
 50
39.6613387292071167
 51
42.566090130780708
  0
ARC
  5
3006B
  8
0
 10
6658.3234630573178947
 20
253.7277222165888872
 30
0.0
 40
0.445515149685566
 50
35.0287580890205774
 51
39.8841267311746606
  0
ARC
  5
3006C
  8
0
 10
6658.6784355527761363
 20
253.9768039866449101
 30
0.0
 40
0.0118730427486875
 50
17.4451338957388202
 51
33.99442749245474
  0
ARC
  5
3006D
  8
0
 10
6658.689378226138615
 20
253.9802424661531859
 30
0.0
 40
0.0004028535436783
 50
223.7653916361942947
 51
17.4743420070023703
  0
ARC
  5
3006E
  8
0
 10
6658.7546076009866738
 20
254.0697126821739005
 30
0.0
 40
0.1111205235767205
 50
221.7696877128267943
 51
233.8690441816079044
  0
LINE
  5
3006F
  8
0
 10
6658.5813520859455821
 20
254.0216534859476951
 30
0.0
 11
6658.5908806139595981
 21
254.0318715811665982
 31
0.0
  0
LINE
  5
30070
  8
0
 10
6658.687702124986572
 20
253.9153034468033923
 30
0.0
 11
6658.7043529029633646
 21
253.9308305483847903
 31
0.0
  0
LINE
  5
30071
  8
0
 10
6658.5816381995773554
 20
254.0052620452489975
 30
0.0
 11
6658.6713106843417336
 21
253.9155895604841078
 31
0.0
  0
ARC
  5
30072
  8
0
 10
6658.5899820595950587
 20
254.0136059052670134
 30
0.0
 40
0.0118
 50
136.9999997880358933
 51
224.9999999999976978
  0
ARC
  5
30073
  8
0
 10
6658.6796545443612558
 20
253.9239334205020953
 30
0.0
 40
0.0118
 50
224.999999999986187
 51
312.9999998607170824
  0
ARC
  5
30074
  8
0
 10
6654.6417618999448678
 20
250.3819575078736932
 30
0.0
 40
5.3943671819155679
 50
41.1828376994614089
 51
41.8792135574536601
  0
ARC
  5
30075
  8
0
 10
6657.690090129816781
 20
253.0489546947829922
 30
0.0
 40
1.3440364556645359
 50
40.2206761983643801
 51
41.1828376994614089
  0
ARC
  5
30076
  8
0
 10
6658.6230380726719886
 20
253.8379341083125098
 30
0.0
 40
0.1222016145128597
 50
38.2298753041580781
 51
40.2206761983631509
  0
ARC
  5
30077
  8
0
 10
6658.7117661363554362
 20
253.9078311543566997
 30
0.0
 40
0.009249118610637
 50
31.0204595937981509
 51
38.2298753041555202
  0
ARC
  5
30078
  8
0
 10
6658.7196500449490486
 20
253.9125721170186978
 30
0.0
 40
0.0000495130917611
 50
258.2577876258735046
 51
31.0204595934423288
  0
ARC
  5
30079
  8
0
 10
6659.0062889441096559
 20
254.2027892410270908
 30
0.0
 40
0.4079482249635972
 50
222.0137365189303011
 51
225.3591773686030137
  0
LINE
  5
3007A
  8
0
 10
6658.7568735134782401
 20
253.8457752458919003
 30
0.0
 11
6658.778710124389363
 21
253.8691921441514978
 31
0.0
  0
LINE
  5
3007B
  8
0
 10
6658.8635697636527766
 20
253.7397923567760927
 30
0.0
 11
6658.8817496017818485
 21
253.7567453301153932
 31
0.0
  0
LINE
  5
3007C
  8
0
 10
6658.847211581081865
 20
253.7400453443713957
 30
0.0
 11
6658.7571928852366909
 21
253.8293506791617062
 31
0.0
  0
ARC
  5
3007D
  8
0
 10
6658.8555221830001756
 20
253.7484223304504098
 30
0.0
 40
0.0118
 50
225.2279246232616003
 51
313.0000000344152795
  0
ARC
  5
3007E
  8
0
 10
6658.765503487154092
 20
253.8377276652406067
 30
0.0
 40
0.0118
 50
136.9999999830876902
 51
225.2279246232673984
  0
ARC
  5
3007F
  8
0
 10
6659.2257450465776856
 20
254.2439959940408016
 30
0.0
 40
0.5879346960491266
 50
218.0153286443934917
 51
220.0320248376914094
  0
ARC
  5
30080
  8
0
 10
6658.7826745622242015
 20
253.8976404603276933
 30
0.0
 40
0.0255526107727046
 50
208.8918773860843032
 51
218.0153286443961065
  0
ARC
  5
30081
  8
0
 10
6658.7624127543585928
 20
253.8864590889533872
 30
0.0
 40
0.0024103566948011
 50
190.8992124333682057
 51
208.8918773860914087
  0
ARC
  5
30082
  8
0
 10
6658.7602289731021301
 20
253.8860385900975132
 30
0.0
 40
0.0001864592458106
 50
60.9034350061827894
 51
190.8992124331888078
  0
ARC
  5
30083
  8
0
 10
6658.7319961805169442
 20
253.8442809258353918
 30
0.0
 40
0.0505920421458938
 50
44.5985454394931722
 51
55.9552451821105308
  0
ARC
  5
30084
  8
0
 10
6657.8610163842158727
 20
252.9553596202148924
 30
0.0
 40
1.2950875192650719
 50
42.8885315331060895
 51
45.5455901156001133
  0
ARC
  5
30085
  8
0
 10
6657.0098827240499304
 20
252.1480290678892118
 30
0.0
 40
2.468174186257825
 50
40.8645089381845565
 51
43.1730093954853729
  0
ARC
  5
30086
  8
0
 10
6658.6320427873770313
 20
253.5471048568174979
 30
0.0
 40
0.3260408275128568
 50
35.9241334050934711
 51
41.4393706195727276
  0
ARC
  5
30087
  8
0
 10
6658.894258010568592
 20
253.737265129845099
 30
0.0
 40
0.0021357257255923
 50
6.6127653561385769
 51
32.0164478942924475
  0
ARC
  5
30088
  8
0
 10
6658.8961018880127085
 20
253.737897156103287
 30
0.0
 40
0.0004755428544277
 50
248.3051375813232085
 51
305.7208822719018144
  0
ARC
  5
30089
  8
0
 10
6659.0040066190149446
 20
253.871701013906204
 30
0.0
 40
0.1723464865863086
 50
223.2307773717724046
 51
231.1626409045155981
  0
LINE
  5
3008A
  8
0
 10
6658.842702252676645
 20
253.7209721171417982
 30
0.0
 11
6658.8574430915496123
 21
253.736779731499098
 31
0.0
  0
LINE
  5
3008B
  8
0
 10
6658.94939850285391
 20
253.6149892280261042
 30
0.0
 11
6658.9726747235163202
 21
253.6366946549688066
 31
0.0
  0
LINE
  5
3008C
  8
0
 10
6658.9330403202820889
 20
253.6152422156214072
 30
0.0
 11
6658.8430216244378244
 21
253.7045475504116041
 31
0.0
  0
ARC
  5
3008D
  8
0
 10
6658.9413509222003995
 20
253.623619201700393
 30
0.0
 40
0.0118
 50
225.2279246232616003
 51
313.0000000344152795
  0
ARC
  5
3008E
  8
0
 10
6658.8513322263543159
 20
253.7129245364905898
 30
0.0
 40
0.0118
 50
136.9999999830876902
 51
225.2279246232673984
  0
ARC
  5
3008F
  8
0
 10
6652.5611865033024515
 20
247.8015823466344045
 30
0.0
 40
8.6692396926608222
 50
42.1916127864697401
 51
43.2955387938378493
  0
LINE
  5
30090
  8
0
 10
6658.97166927399212
 20
253.6357570581184007
 30
0.0
 11
6658.9834846306239342
 21
253.6231266145545931
 31
0.0
  0
LINE
  5
30091
  8
0
 10
6658.9627658872777829
 20
253.6009084824918887
 30
0.0
 11
6658.9890818070780369
 21
253.6291288514449036
 31
0.0
  0
LINE
  5
30092
  8
0
 10
6659.0694621374541384
 20
253.4949255933761094
 30
0.0
 11
6659.0809560701591181
 21
253.5056438590349046
 31
0.0
  0
LINE
  5
30093
  8
0
 10
6659.0531039548823173
 20
253.4951785809714977
 30
0.0
 11
6658.9630852590380528
 21
253.5844839157616093
 31
0.0
  0
ARC
  5
30094
  8
0
 10
6659.0614145567988089
 20
253.5035555670503982
 30
0.0
 40
0.0118
 50
225.2279246232616003
 51
313.0000000344152795
  0
ARC
  5
30095
  8
0
 10
6658.9713958609554538
 20
253.592860901840595
 30
0.0
 40
0.0118
 50
136.9999999830876902
 51
225.2279246232673984
  0
ARC
  5
30096
  8
0
 10
6659.6016760312495535
 20
254.1691397963159034
 30
0.0
 40
0.8197488929700908
 50
219.9745301990527935
 51
221.4180486584969003
  0
ARC
  5
30097
  8
0
 10
6659.0011990115635854
 20
253.6657344552644133
 30
0.0
 40
0.0361740155200944
 50
214.1269447485929902
 51
219.9745301990527935
  0
ARC
  5
30098
  8
0
 10
6658.9726464726036284
 20
253.6463833441472957
 30
0.0
 40
0.0016817992598167
 50
197.7278293848413
 51
214.1269447485715034
  0
ARC
  5
30099
  8
0
 10
6658.9713354605273707
 20
253.6459642450805063
 30
0.0
 40
0.0003054284179232
 50
174.685348434849999
 51
197.7278293848428063
  0
ARC
  5
3009A
  8
0
 10
6658.9711517095565796
 20
253.6458886009893092
 30
0.0
 40
0.0001590281964708
 50
47.8759977368393805
 51
139.1894512390205136
  0
ARC
  5
3009B
  8
0
 10
6658.8398053730015818
 20
253.4902767457311086
 30
0.0
 40
0.2037931900093377
 50
44.0267575119064674
 51
49.8319716791276619
  0
ARC
  5
3009C
  8
0
 10
6656.5547909599172272
 20
251.229927063619499
 30
0.0
 40
3.4178854789585049
 50
42.4012611870609177
 51
44.6496047589604785
  0
LINE
  5
3009D
  8
0
 10
6658.9670866264286815
 20
253.6717526373419105
 30
0.0
 11
6658.9911766852110304
 21
253.6975860625886128
 31
0.0
  0
LINE
  5
3009E
  8
0
 10
6659.073782876603218
 20
253.5657697482261028
 30
0.0
 11
6659.0952822903691413
 21
253.5858182759299098
 31
0.0
  0
LINE
  5
3009F
  8
0
 10
6659.0574246940323064
 20
253.5660227358214058
 30
0.0
 11
6658.9674059981871324
 21
253.6553280706116027
 31
0.0
  0
ARC
  5
300A0
  8
0
 10
6659.0657352959497075
 20
253.5743997219003916
 30
0.0
 40
0.0118
 50
225.2279246232616003
 51
313.0000000344152795
  0
ARC
  5
300A1
  8
0
 10
6658.9757166001054429
 20
253.6637050566905884
 30
0.0
 40
0.0118
 50
136.9999999830876902
 51
225.2279246232673984
  0
ARC
  5
300A2
  8
0
 10
6659.1194806169378353
 20
253.8013292766057134
 30
0.0
 40
0.1744264470489449
 50
213.0751936010236989
 51
219.3954130696994866
  0
ARC
  5
300A3
  8
0
 10
6659.000109204121145
 20
253.7235856561038929
 30
0.0
 40
0.0319708233392465
 50
203.7430204920516985
 51
213.0751936010236989
  0
ARC
  5
300A4
  8
0
 10
6658.9733259414260829
 20
253.7118046325431067
 30
0.0
 40
0.0027110270856897
 50
173.4853853834310939
 51
203.7430204920279095
  0
ARC
  5
300A5
  8
0
 10
6658.9712516089593919
 20
253.7119733811055085
 30
0.0
 40
0.0006345634506411
 50
78.5883286201148366
 51
167.3620877942962863
  0
ARC
  5
300A6
  8
0
 10
6658.9650286140167736
 20
253.694172179642095
 30
0.0
 40
0.0194863824225195
 50
49.9678109262930477
 51
70.9863097831218255
  0
ARC
  5
300A7
  8
0
 10
6658.7882019782027783
 20
253.4712409677090079
 30
0.0
 40
0.3040243964903333
 50
44.9311533266698007
 51
51.4756770862196973
  0
ARC
  5
300A8
  8
0
 10
6658.1610333865428402
 20
252.8192753464747113
 30
0.0
 40
1.208630602436277
 50
40.6664207683320171
 51
45.8139250199226282
  0
ARC
  5
300A9
  8
0
 10
6658.7713816541727283
 20
253.3347988788135865
 30
0.0
 40
0.409783308416232
 50
35.4812783250676205
 51
41.6036502776825685
  0
ARC
  5
300AA
  8
0
 10
6659.0802760660681088
 20
253.5550540360771095
 30
0.0
 40
0.0304048146805433
 50
21.8028216867605202
 51
35.3659372530439526
  0
ARC
  5
300AB
  8
0
 10
6659.1063663561262729
 20
253.5656248129031098
 30
0.0
 40
0.0022581231244051
 50
352.363187813837726
 51
18.6464353908371301
  0
ARC
  5
300AC
  8
0
 10
6659.1080079689918421
 20
253.5654652826765982
 30
0.0
 40
0.0006128189317756
 50
257.4366855446476166
 51
346.7403300473432068
  0
ARC
  5
300AD
  8
0
 10
6659.1456625545288261
 20
253.6335068458899968
 30
0.0
 40
0.0783539015594246
 50
223.3787537070840017
 51
241.1661112675901109
  0
LINE
  5
300AE
  8
0
 10
6659.0735240515268742
 20
253.5291247078419019
 30
0.0
 11
6659.0951407133898101
 21
253.5523057396243871
 31
0.0
  0
LINE
  5
300AF
  8
0
 10
6659.1802203017041393
 20
253.4231418187260942
 30
0.0
 11
6659.2002677780028534
 21
253.4418363928363931
 31
0.0
  0
LINE
  5
300B0
  8
0
 10
6659.1638621191323182
 20
253.4233948063215109
 30
0.0
 11
6659.0738434232871441
 21
253.5127001411117078
 31
0.0
  0
ARC
  5
300B1
  8
0
 10
6659.1721727210488098
 20
253.4317717924004114
 30
0.0
 40
0.0118
 50
225.2279246232616003
 51
313.0000000344152795
  0
ARC
  5
300B2
  8
0
 10
6659.0821540252054547
 20
253.5210771271906083
 30
0.0
 40
0.0118
 50
136.9999999830876902
 51
225.2279246232673984
  0
ARC
  5
300B3
  8
0
 10
6659.2140072592774231
 20
253.6572306387689082
 30
0.0
 40
0.1652821149779052
 50
212.9853563429377914
 51
221.6625132269240908
  0
ARC
  5
300B4
  8
0
 10
6658.7848936229211176
 20
253.2080676055543904
 30
0.0
 40
0.4634146632252627
 50
43.1854450154116094
 51
51.0112286080512334
  0
ARC
  5
300B5
  8
0
 10
6657.8538068826310337
 20
252.2677557208974122
 30
0.0
 40
1.7864795350343601
 50
41.4451269362606283
 51
44.7385904632580207
  0
ARC
  5
300B6
  8
0
 10
6658.982730770138005
 20
253.2591894876424874
 30
0.0
 40
0.284046196538128
 50
35.6333998917167634
 51
42.2658601423609994
  0
ARC
  5
300B7
  8
0
 10
6659.2073797171078695
 20
253.4203396383630036
 30
0.0
 40
0.0075752778990426
 50
14.7825710562989201
 51
34.9009876499627794
  0
ARC
  5
300B8
  8
0
 10
6659.2143414462971123
 20
253.4221767412001896
 30
0.0
 40
0.0003752348351862
 50
240.7654611401084139
 51
14.7825710562816006
  0
ARC
  5
300B9
  8
0
 10
6659.2827800585200748
 20
253.5239278699621934
 30
0.0
 40
0.1229999818432373
 50
224.7539282760733101
 51
236.0892052028750925
  0
LINE
  5
300BA
  8
0
 10
6659.1512321521277045
 20
253.3957389078418885
 30
0.0
 11
6659.1739560747728319
 21
253.4201073314397945
 31
0.0
  0
LINE
  5
300BB
  8
0
 10
6659.25792840230406
 20
253.2897560187261092
 30
0.0
 11
6659.2581917319866989
 21
253.2900015776295959
 31
0.0
  0
LINE
  5
300BC
  8
0
 10
6659.2415702197331484
 20
253.2900090063214122
 30
0.0
 11
6659.1515515238870648
 21
253.3793143411116091
 31
0.0
  0
ARC
  5
300BD
  8
0
 10
6659.2498808216505495
 20
253.298385992400398
 30
0.0
 40
0.0118
 50
225.2279246232616003
 51
313.0000000344152795
  0
ARC
  5
300BE
  8
0
 10
6659.1598621258035564
 20
253.3876913271905948
 30
0.0
 40
0.0118
 50
136.9999999830876902
 51
225.2279246232673984
  0
LINE
  5
300BF
  8
0
 10
6659.1791130811288895
 20
253.3845612886418905
 30
0.0
 11
6659.2050785616938811
 21
253.4124058575245897
 31
0.0
  0
LINE
  5
300C0
  8
0
 10
6659.2858093313043355
 20
253.2785783995261113
 30
0.0
 11
6659.311576727521242
 21
253.3026068852572052
 31
0.0
  0
LINE
  5
300C1
  8
0
 10
6659.2694511487316049
 20
253.2788313871213859
 30
0.0
 11
6659.1794324528873403
 21
253.3681367219116112
 31
0.0
  0
ARC
  5
300C2
  8
0
 10
6659.2777617506499155
 20
253.2872083732004
 30
0.0
 40
0.0118
 50
225.2279246232616003
 51
313.0000000344152795
  0
ARC
  5
300C3
  8
0
 10
6659.1877430548047414
 20
253.3765137079905969
 30
0.0
 40
0.0118
 50
136.9999999830876902
 51
225.2279246232673984
  0
ARC
  5
300C4
  8
0
 10
6659.4520572841483954
 20
253.6339407255844947
 30
0.0
 40
0.3361089017286017
 50
218.1061908608378985
 51
221.9574643702883918
  0
ARC
  5
300C5
  8
0
 10
6659.1932693039370861
 20
253.4309798717094111
 30
0.0
 40
0.0072254468263765
 50
203.8733117116173048
 51
218.1061908608315036
  0
ARC
  5
300C6
  8
0
 10
6659.1874917792956694
 20
253.4284228441638902
 30
0.0
 40
0.0009073631889195
 50
171.242651818989998
 51
203.8733117115949938
  0
ARC
  5
300C7
  8
0
 10
6659.1867526046080457
 20
253.4284294910486039
 30
0.0
 40
0.0002052635353059
 50
48.6564010757340171
 51
140.1607102663435001
  0
ARC
  5
300C8
  8
0
 10
6658.6863842701868634
 20
252.8474977892250877
 30
0.0
 40
0.7669190919982575
 50
43.5743855673083829
 51
49.2608460984771099
  0
ARC
  5
300C9
  8
0
 10
6657.6155482391195619
 20
251.7673728766351076
 30
0.0
 40
2.2876749911905541
 50
42.1521223308518813
 51
44.6866295378937934
  0
ARC
  5
300CA
  8
0
 10
6659.0650777019827729
 20
253.0815205272201922
 30
0.0
 40
0.3311207442918906
 50
38.0761414190177518
 51
41.8955473758350792
  0
ARC
  5
300CB
  8
0
 10
6659.3183300571208747
 20
253.2802923782726907
 30
0.0
 40
0.0091828684898841
 50
24.1711891069841016
 51
36.273882642571138
  0
ARC
  5
300CC
  8
0
 10
6659.3263950356640635
 20
253.2838695973823064
 30
0.0
 40
0.0003623102977337
 50
320.4172169464559943
 51
30.3077669390605493
  0
ARC
  5
300CD
  8
0
 10
6659.32698951020393
 20
253.2859279904072878
 30
0.0
 40
0.0023108574494357
 50
234.0961142993307078
 51
262.1594330760387948
  0
ARC
  5
300CE
  8
0
 10
6659.4689534396993622
 20
253.4629963337783067
 30
0.0
 40
0.2292595319993226
 50
225.4926447020216926
 51
231.3076080539576083
  0
ARC
  5
300CF
  8
0
 10
6666.7643669088993192
 20
261.5386319459652782
 30
0.0
 40
11.0798971775265809
 50
218.6945059894405858
 51
220.5081936510750893
  0
ARC
  5
300D0
  8
0
 10
6672.2576068147691331
 20
266.2115312310348827
 30
0.0
 40
18.2919858894981608
 50
220.9380652481644063
 51
221.4893267019137113
  0
ARC
  5
300D1
  8
0
 10
6675.6411791466871364
 20
269.218151764232573
 30
0.0
 40
22.8184130437217298
 50
222.0697826739086906
 51
222.3132088894053879
  0
ARC
  5
300D2
  8
0
 10
6674.1928421175516633
 20
267.7192192877578805
 30
0.0
 40
20.7363069048880497
 50
224.0904938595199951
 51
224.7247071002759071
  0
ARC
  5
300D3
  8
0
 10
6663.5246752161301629
 20
255.2870487679547864
 30
0.0
 40
4.3563020396449499
 50
231.0091482221058925
 51
231.2666703683549088
  0
ARC
  5
300D4
  8
0
 10
6660.8686255051507032
 20
251.97787308051889
 30
0.0
 40
0.1130517569278881
 50
231.953823909577892
 51
234.3140976809052063
  0
ARC
  5
300D5
  8
0
 10
6660.8141180869206437
 20
251.902388653699802
 30
0.0
 40
0.0199462630102648
 50
235.0012512220357053
 51
239.2599585521033987
  0
ARC
  5
300D6
  8
0
 10
6660.8043745592567575
 20
251.8860047761027943
 30
0.0
 40
0.0008840549415391
 50
239.2599585521008976
 51
257.7253539380981238
  0
ARC
  5
300D7
  8
0
 10
6660.8041653689151644
 20
251.8852256963945138
 30
0.0
 40
0.0000873865867663
 50
284.0684536721084896
 51
60.6625768979062627
  0
ARC
  5
300D8
  8
0
 10
6660.7521124308668732
 20
251.8388757375786895
 30
0.0
 40
0.0697807552367411
 50
41.7064462193986998
 51
48.6442578660144633
  0
ARC
  5
300D9
  8
0
 10
6659.3015525628998148
 20
250.2407137316795911
 30
0.0
 40
2.2280698690984959
 50
47.7991023983441679
 51
49.2666562336209211
  0
ARC
  5
300DA
  8
0
 10
6656.9741081912443406
 20
247.568823925608001
 30
0.0
 40
5.7714914058401883
 50
49.0669336959640034
 51
50.1577304180662225
  0
ARC
  5
300DB
  8
0
 10
6660.2318129741779558
 20
251.4729560349267956
 30
0.0
 40
0.6867212067664665
 50
50.1591340265684309
 51
52.181922389765397
  0
ARC
  5
300DC
  8
0
 10
6660.642578737571057
 20
252.0020543115840042
 30
0.0
 40
0.0168904043022955
 50
52.4167321058211968
 51
60.5708339333696415
  0
ARC
  5
300DD
  8
0
 10
6660.6508413137662501
 20
252.0166914060895067
 30
0.0
 40
0.0000823548428714
 50
63.7099306223932587
 51
228.7901693047948015
  0
ARC
  5
300DE
  8
0
 10
6660.8718307968701993
 20
252.235421028436491
 30
0.0
 40
0.3110146131934383
 50
224.7066214522162113
 51
229.0220817592885965
  0
LINE
  5
300DF
  8
0
 10
6660.7600899459730499
 20
251.8791061299839953
 30
0.0
 11
6660.7854439593329516
 21
251.902749129971113
 31
0.0
  0
LINE
  5
300E0
  8
0
 10
6660.6537399068947707
 20
251.9854561691001038
 30
0.0
 11
6660.6693761092010391
 21
252.0022239431658022
 31
0.0
  0
LINE
  5
300E1
  8
0
 10
6660.6540260205492814
 20
251.9690647284274121
 30
0.0
 11
6660.7436985052991076
 21
251.8793922436408934
 31
0.0
  0
ARC
  5
300E2
  8
0
 10
6660.6623698805678941
 20
251.9774085884436943
 30
0.0
 40
0.0118
 50
136.9999999491674885
 51
224.9999999885000932
  0
ARC
  5
300E3
  8
0
 10
6660.7520423653177204
 20
251.8877361036572893
 30
0.0
 40
0.0118
 50
224.9999999884931867
 51
313.000000041207727
  0
LINE
  5
300E4
  8
0
 10
6660.5286001939239213
 20
252.109939395843611
 30
0.0
 11
6660.5549631146714091
 21
252.1345232171601936
 31
0.0
  0
LINE
  5
300E5
  8
0
 10
6660.4226173048291457
 20
252.2166356460407997
 30
0.0
 11
6660.4403791777103834
 21
252.2356829227194908
 31
0.0
  0
LINE
  5
300E6
  8
0
 10
6660.4228702924210666
 20
252.2002774634692059
 30
0.0
 11
6660.5121756271928462
 21
252.1102587676060978
 31
0.0
  0
ARC
  5
300E7
  8
0
 10
6660.4312472785013597
 20
252.2085880653851007
 30
0.0
 40
0.0118
 50
136.9999999540752071
 51
224.7720753652338885
  0
ARC
  5
300E8
  8
0
 10
6660.5205526132740488
 20
252.1185693695219925
 30
0.0
 40
0.0118
 50
224.7720753652280905
 51
313.000000005419281
  0
ARC
  5
300E9
  8
0
 10
6660.6904964716914037
 20
252.3015737411012083
 30
0.0
 40
0.2215972510678791
 50
230.7126599574667125
 51
236.3966335900929039
  0
ARC
  5
300EA
  8
0
 10
6660.5768545103055658
 20
252.1305506399646106
 30
0.0
 40
0.0162599760549799
 50
236.3966335900946945
 51
248.7723258154283883
  0
ARC
  5
300EB
  8
0
 10
6660.571434400832004
 20
252.1165967576989999
 30
0.0
 40
0.0012903929948824
 50
248.7723258154811106
 51
282.092339710054091
  0
ARC
  5
300EC
  8
0
 10
6660.5715201335569873
 20
252.1156467128328984
 30
0.0
 40
0.000362270455938
 50
300.6327567368533096
 51
21.7226170351537604
  0
ARC
  5
300ED
  8
0
 10
6660.5566574869526448
 20
252.1085246971665867
 30
0.0
 40
0.0168423973380435
 50
25.5198188596332507
 51
42.8133930055249721
  0
ARC
  5
300EE
  8
0
 10
6660.0776636569626135
 20
251.6596551696968902
 30
0.0
 40
0.6732862948476078
 50
43.132288571481709
 51
47.9665682827048201
  0
ARC
  5
300EF
  8
0
 10
6659.2080617134870408
 20
250.7220992758107911
 30
0.0
 40
1.951998540546678
 50
47.433909857703739
 51
50.3386612593115785
  0
ARC
  5
300F0
  8
0
 10
6660.1682410384883042
 20
251.8829442350487113
 30
0.0
 40
0.445515149685566
 50
50.1158732573127708
 51
54.9712418994621004
  0
ARC
  5
300F1
  8
0
 10
6660.4173228086156087
 20
252.2379167304567034
 30
0.0
 40
0.0118730427486875
 50
56.0055724960473711
 51
72.5548660927488953
  0
ARC
  5
300F2
  8
0
 10
6660.420761288126414
 20
252.248859403818301
 30
0.0
 40
0.0004028535436783
 50
72.5256579814935662
 51
226.2346083523092091
  0
ARC
  5
300F3
  8
0
 10
6660.5102315041585825
 20
252.3140887786503015
 30
0.0
 40
0.1111205235767205
 50
216.1309558068934109
 51
228.2303122756794949
  0
LINE
  5
300F4
  8
0
 10
6660.4621723078980722
 20
252.1408332636179068
 30
0.0
 11
6660.4723904031188795
 21
252.1503617916295923
 31
0.0
  0
LINE
  5
300F5
  8
0
 10
6660.3558222687752277
 20
252.2471833026812078
 30
0.0
 11
6660.3713493703589847
 21
252.2638340806524866
 31
0.0
  0
LINE
  5
300F6
  8
0
 10
6660.4457808671986641
 20
252.1411193772524939
 30
0.0
 11
6660.3561083824533853
 21
252.230791862035403
 31
0.0
  0
ARC
  5
300F7
  8
0
 10
6660.4541247272200053
 20
252.1494632372688045
 30
0.0
 40
0.0118
 50
224.9999999884931867
 51
313.0000002004447879
  0
ARC
  5
300F8
  8
0
 10
6660.364452242471998
 20
252.2391357220517136
 30
0.0
 40
0.0118
 50
137.0000001277913952
 51
224.9999999885058912
  0
ARC
  5
300F9
  8
0
 10
6656.8224763290327246
 20
248.2012430783476873
 30
0.0
 40
5.3943671819155679
 50
48.1207864310350786
 51
48.8171622890052888
  0
ARC
  5
300FA
  8
0
 10
6659.4894735165544262
 20
251.2495713076837944
 30
0.0
 40
1.3440364556645359
 50
48.8171622890052888
 51
49.7793237901481973
  0
ARC
  5
300FB
  8
0
 10
6660.2784529302716692
 20
252.1825192503810911
 30
0.0
 40
0.1222016145128597
 50
49.7793237901481973
 51
51.7701246843410701
  0
ARC
  5
300FC
  8
0
 10
6660.3483499763333384
 20
252.2712473140495035
 30
0.0
 40
0.009249118610637
 50
51.7701246843420932
 51
58.9795403947305914
  0
ARC
  5
300FD
  8
0
 10
6660.3530909389955923
 20
252.279131222643997
 30
0.0
 40
0.0000495130917611
 50
58.9795403950436778
 51
191.7422123626350867
  0
ARC
  5
300FE
  8
0
 10
6660.6433080630640688
 20
252.5657701217467945
 30
0.0
 40
0.4079482249635972
 50
224.6408226199085902
 51
227.9862634695751922
  0
LINE
  5
300FF
  8
0
 10
6660.2862940678769519
 20
252.3163546911852109
 30
0.0
 11
6660.30971096614212
 21
252.3381913020909906
 31
0.0
  0
LINE
  5
30100
  8
0
 10
6660.1803111787830858
 20
252.4230509413823995
 30
0.0
 11
6660.1972641521260812
 21
252.4412307795080039
 31
0.0
  0
LINE
  5
30101
  8
0
 10
6660.1805641663740971
 20
252.4066927588108058
 30
0.0
 11
6660.2698695011476957
 21
252.3166740629476976
 31
0.0
  0
ARC
  5
30102
  8
0
 10
6660.1889411524571187
 20
252.4150033607268142
 30
0.0
 40
0.0118
 50
136.9999999540752071
 51
224.7720753652338885
  0
ARC
  5
30103
  8
0
 10
6660.2782464872270793
 20
252.3249846648635923
 30
0.0
 40
0.0118
 50
224.7720753652280905
 51
313.000000005419281
  0
ARC
  5
30104
  8
0
 10
6660.6845148161200996
 20
252.7852262242062977
 30
0.0
 40
0.5879346960491266
 50
229.9679751508201093
 51
231.9846713441172028
  0
ARC
  5
30105
  8
0
 10
6660.3381592823179744
 20
252.34215573992131
 30
0.0
 40
0.0255526107727046
 50
231.9846713441152133
 51
241.1081226023997033
  0
ARC
  5
30106
  8
0
 10
6660.326977910941423
 20
252.3218939320576055
 30
0.0
 40
0.0024103566948011
 50
241.1081226023974011
 51
259.1007875551142092
  0
ARC
  5
30107
  8
0
 10
6660.3265574120841848
 20
252.3197101508013134
 30
0.0
 40
0.0001864592458106
 50
259.1007875553250983
 51
29.0965649823068091
  0
ARC
  5
30108
  8
0
 10
6660.284799747816578
 20
252.2914773582243129
 30
0.0
 40
0.0505920421458938
 50
34.0447548063923904
 51
45.4014545489964121
  0
ARC
  5
30109
  8
0
 10
6659.3958784420210577
 20
251.4204975621019003
 30
0.0
 40
1.2950875192650719
 50
44.4544098729039234
 51
47.1114684554108223
  0
ARC
  5
3010A
  8
0
 10
6658.5885478895252163
 20
250.5693639020981891
 30
0.0
 40
2.468174186257825
 50
46.8269905930250872
 51
49.1354910503072091
  0
ARC
  5
3010B
  8
0
 10
6659.9876236787777088
 20
252.191523965144313
 30
0.0
 40
0.3260408275128568
 50
48.5606293689199902
 51
54.0758665834131023
  0
ARC
  5
3010C
  8
0
 10
6660.1777839518581459
 20
252.453739188298897
 30
0.0
 40
0.0021357257255923
 50
57.9835520941920706
 51
83.3872346323586129
  0
ARC
  5
3010D
  8
0
 10
6660.1784159781173003
 20
252.4555830657417062
 30
0.0
 40
0.0004755428544277
 50
144.2791177165763941
 51
201.6948624071908966
  0
ARC
  5
3010E
  8
0
 10
6660.3122198359405957
 20
252.5634877967177943
 30
0.0
 40
0.1723464865863086
 50
218.8373590839563008
 51
226.7692226167239085
  0
LINE
  5
3010F
  8
0
 10
6660.1614909391437322
 20
252.4021834304103038
 30
0.0
 11
6660.1772985535053522
 21
252.4169242692798889
 31
0.0
  0
LINE
  5
30110
  8
0
 10
6660.0555080500507756
 20
252.5088796806074072
 30
0.0
 11
6660.0772134769977129
 21
252.5321559012660089
 31
0.0
  0
LINE
  5
30111
  8
0
 10
6660.0557610376426965
 20
252.4925214980358135
 30
0.0
 11
6660.1450663724153856
 21
252.4025028021727053
 31
0.0
  0
ARC
  5
30112
  8
0
 10
6660.0641380237238991
 20
252.5008320999517935
 30
0.0
 40
0.0118
 50
136.9999999540752071
 51
224.7720753652338885
  0
ARC
  5
30113
  8
0
 10
6660.1534433584947692
 20
252.4108134040886
 30
0.0
 40
0.0118
 50
224.7720753652280905
 51
313.000000005419281
  0
ARC
  5
30114
  8
0
 10
6654.2421011673759494
 20
246.1206676822241946
 30
0.0
 40
8.6692396926608222
 50
46.704461194657533
 51
47.80838720202091
  0
LINE
  5
30115
  8
0
 10
6660.0762758801483869
 20
252.5311504517424908
 30
0.0
 11
6660.0636454365858299
 21
252.5429658083764934
 31
0.0
  0
LINE
  5
30116
  8
0
 10
6660.0414273045189475
 20
252.5222470650344064
 30
0.0
 11
6660.0696476734783573
 21
252.5485629848292888
 31
0.0
  0
LINE
  5
30117
  8
0
 10
6659.9354444154241719
 20
252.6289433152315951
 30
0.0
 11
6659.9461626810852977
 21
252.6404372479337042
 31
0.0
  0
LINE
  5
30118
  8
0
 10
6659.9356974030160927
 20
252.6125851326598877
 30
0.0
 11
6660.0250027377878723
 21
252.5225664367968079
 31
0.0
  0
ARC
  5
30119
  8
0
 10
6659.9440743890982048
 20
252.6208957345758961
 30
0.0
 40
0.0118
 50
136.9999999540752071
 51
224.7720753652338885
  0
ARC
  5
3011A
  8
0
 10
6660.033379723869075
 20
252.5308770387127879
 30
0.0
 40
0.0118
 50
224.7720753652280905
 51
313.000000005419281
  0
ARC
  5
3011B
  8
0
 10
6660.6096586184721673
 20
253.1611572088930018
 30
0.0
 40
0.8197488929700908
 50
228.5819513300129984
 51
230.0254697894663991
  0
ARC
  5
3011C
  8
0
 10
6660.1062532773003113
 20
252.5606801893075897
 30
0.0
 40
0.0361740155200944
 50
230.0254697894663991
 51
235.8730552398889984
  0
ARC
  5
3011D
  8
0
 10
6660.0869021661774241
 20
252.5321276503511001
 30
0.0
 40
0.0016817992598167
 50
235.8730552399422038
 51
252.2721706036709861
  0
ARC
  5
3011E
  8
0
 10
6660.0864830671080199
 20
252.5308166382739898
 30
0.0
 40
0.0003054284179232
 50
252.2721706036709861
 51
275.3146515536757875
  0
ARC
  5
3011F
  8
0
 10
6660.0864074230166807
 20
252.5306328873043071
 30
0.0
 40
0.0001590281964708
 50
310.8105487494863723
 51
42.1240022516589434
  0
ARC
  5
30120
  8
0
 10
6659.9307955677331847
 20
252.3992865507802037
 30
0.0
 40
0.2037931900093377
 50
40.1680283093841624
 51
45.973242476588581
  0
ARC
  5
30121
  8
0
 10
6657.6704458851618256
 20
250.1142721381499996
 30
0.0
 40
3.4178854789585049
 50
45.350395229545029
 51
47.5987388014306418
  0
LINE
  5
30122
  8
0
 10
6660.1122714593702767
 20
252.5265678041702131
 30
0.0
 11
6660.1381048846224076
 21
252.5506578629484977
 31
0.0
  0
LINE
  5
30123
  8
0
 10
6660.0062885702764106
 20
252.6332640543672881
 30
0.0
 11
6660.0263370979828323
 21
252.6547634681290049
 31
0.0
  0
LINE
  5
30124
  8
0
 10
6660.0065415578674219
 20
252.6169058717956943
 30
0.0
 11
6660.0958468926392015
 21
252.5268871759325862
 31
0.0
  0
ARC
  5
30125
  8
0
 10
6660.0149185439468056
 20
252.6252164737117027
 30
0.0
 40
0.0118
 50
136.9999999540752071
 51
224.7720753652338885
  0
ARC
  5
30126
  8
0
 10
6660.1042238787204042
 20
252.5351977778485093
 30
0.0
 40
0.0118
 50
224.7720753652280905
 51
313.000000005419281
  0
ARC
  5
30127
  8
0
 10
6660.2418480986643772
 20
252.6789617946537874
 30
0.0
 40
0.1744264470489449
 50
230.604586918788101
 51
236.9248063874827039
  0
ARC
  5
30128
  8
0
 10
6660.1641044781390519
 20
252.5595903818530132
 30
0.0
 40
0.0319708233392465
 50
236.9248063874827039
 51
246.2569794964294942
  0
ARC
  5
30129
  8
0
 10
6660.1523234545720697
 20
252.532807119159088
 30
0.0
 40
0.0027110270856897
 50
246.2569794964817902
 51
276.5146146050649918
  0
ARC
  5
3012A
  8
0
 10
6660.1524922031348979
 20
252.5307327866927096
 30
0.0
 40
0.0006345634506411
 50
282.6379121942010215
 51
11.4116713683969806
  0
ARC
  5
3012B
  8
0
 10
6660.1346910016691254
 20
252.5245097917546104
 30
0.0
 40
0.0194863824225195
 50
19.0136902053742283
 51
40.0321890622153873
  0
ARC
  5
3012C
  8
0
 10
6659.911759789700227
 20
252.347683155985294
 30
0.0
 40
0.3040243964903333
 50
38.5243229022862224
 51
45.0688466618165009
  0
ARC
  5
3012D
  8
0
 10
6659.2597941683407043
 20
251.7205145644560957
 30
0.0
 40
1.208630602436277
 50
44.1860749685787084
 51
49.3335792201870476
  0
ARC
  5
3012E
  8
0
 10
6659.7753177008016792
 20
252.3308628319838078
 30
0.0
 40
0.409783308416232
 50
48.3963497108169065
 51
54.5187216634259997
  0
ARC
  5
3012F
  8
0
 10
6659.9955728581280709
 20
252.6397572438339978
 30
0.0
 40
0.0304048146805433
 50
54.6340627354620167
 51
68.1971783017164483
  0
ARC
  5
30130
  8
0
 10
6660.0061436349587893
 20
252.665847533889206
 30
0.0
 40
0.0022581231244051
 50
71.3535645976611335
 51
97.6368121746704531
  0
ARC
  5
30131
  8
0
 10
6660.0059841047323062
 20
252.6674891467550879
 30
0.0
 40
0.0006128189317756
 50
103.2596699411653987
 51
192.5633144438480997
  0
ARC
  5
30132
  8
0
 10
6660.0740256679537197
 20
252.7051437322786001
 30
0.0
 40
0.0783539015594246
 50
208.8338887209332029
 51
226.621246281387414
  0
LINE
  5
30133
  8
0
 10
6659.9696435298901633
 20
252.6330052292987887
 30
0.0
 11
6659.9928245616783897
 21
252.6546218911564097
 31
0.0
  0
LINE
  5
30134
  8
0
 10
6659.8636606407962972
 20
252.7397014794960057
 30
0.0
 11
6659.8823552149106035
 21
252.7597489557911956
 31
0.0
  0
LINE
  5
30135
  8
0
 10
6659.8639136283891276
 20
252.7233432969242983
 30
0.0
 11
6659.9532189631618166
 21
252.6333246010611902
 31
0.0
  0
ARC
  5
30136
  8
0
 10
6659.8722906144703302
 20
252.7316538988403067
 30
0.0
 40
0.0118
 50
136.9999999540752071
 51
224.7720753652338885
  0
ARC
  5
30137
  8
0
 10
6659.9615959492412003
 20
252.6416352029771986
 30
0.0
 40
0.0118
 50
224.7720753652280905
 51
313.000000005419281
  0
ARC
  5
30138
  8
0
 10
6660.0977494608450797
 20
252.7734884370227917
 30
0.0
 40
0.1652821149779052
 50
228.337486761569096
 51
237.0146436455756032
  0
ARC
  5
30139
  8
0
 10
6659.6485864275446147
 20
252.3443748007568956
 30
0.0
 40
0.4634146632252627
 50
38.9887713804483909
 51
46.8145549730867074
  0
ARC
  5
3013A
  8
0
 10
6658.7082745427005648
 20
251.413288060654196
 30
0.0
 40
1.7864795350343601
 50
45.2614095252108797
 51
48.5548730522445808
  0
ARC
  5
3013B
  8
0
 10
6659.6997083096730421
 20
252.5422119479628122
 30
0.0
 40
0.284046196538128
 50
47.7341398461144024
 51
54.3666000967991678
  0
ARC
  5
3013C
  8
0
 10
6659.8608584604389762
 20
252.7668608949007023
 30
0.0
 40
0.0075752778990426
 50
55.0990123385405965
 51
75.217428932195233
  0
ARC
  5
3013D
  8
0
 10
6659.8626955632762474
 20
252.7738226240884103
 30
0.0
 40
0.0003752348351862
 50
75.2174289322468752
 51
209.2345388483863076
  0
ARC
  5
3013E
  8
0
 10
6659.9644466920535706
 20
252.8422612362923019
 30
0.0
 40
0.1229999818432373
 50
213.9107947856371084
 51
225.2460717124129133
  0
LINE
  5
3013F
  8
0
 10
6659.8362577299067198
 20
252.7107133299255963
 30
0.0
 11
6659.8606261535078374
 21
252.7334372525646131
 31
0.0
  0
LINE
  5
30140
  8
0
 10
6659.7302748408119442
 20
252.8174095801226997
 30
0.0
 11
6659.7305203997148055
 21
252.8176729098069018
 31
0.0
  0
LINE
  5
30141
  8
0
 10
6659.730527828403865
 20
252.8010513975511913
 30
0.0
 11
6659.8198331631756446
 21
252.7110327016879978
 31
0.0
  0
ARC
  5
30142
  8
0
 10
6659.7389048144850676
 20
252.8093619994670007
 30
0.0
 40
0.0118
 50
136.9999999540752071
 51
224.7720753652338885
  0
ARC
  5
30143
  8
0
 10
6659.8282101492568472
 20
252.7193433036038925
 30
0.0
 40
0.0118
 50
224.7720753652280905
 51
313.000000005419281
  0
LINE
  5
30144
  8
0
 10
6659.8250801107133157
 20
252.7385942589278045
 30
0.0
 11
6659.8529246796006191
 21
252.7645597394877086
 31
0.0
  0
LINE
  5
30145
  8
0
 10
6659.7190972216176306
 20
252.8452905091249932
 30
0.0
 11
6659.743125707354011
 21
252.8710579053363858
 31
0.0
  0
LINE
  5
30146
  8
0
 10
6659.7193502092095514
 20
252.8289323265533994
 30
0.0
 11
6659.8086555439822405
 21
252.738913630690206
 31
0.0
  0
ARC
  5
30147
  8
0
 10
6659.7277271952898445
 20
252.8372429284692942
 30
0.0
 40
0.0118
 50
136.9999999540752071
 51
224.7720753652338885
  0
ARC
  5
30148
  8
0
 10
6659.8170325300634431
 20
252.747224232606186
 30
0.0
 40
0.0118
 50
224.7720753652280905
 51
313.000000005419281
  0
ARC
  5
30149
  8
0
 10
6660.0744595477090115
 20
253.0115384618995904
 30
0.0
 40
0.3361089017286017
 50
228.0425356182134919
 51
231.8938091276629905
  0
ARC
  5
3014A
  8
0
 10
6659.8714986937829963
 20
252.7527504817273893
 30
0.0
 40
0.0072254468263765
 50
231.8938091276669979
 51
246.1266882768767914
  0
ARC
  5
3014B
  8
0
 10
6659.8689416662346048
 20
252.7469729570865127
 30
0.0
 40
0.0009073631889195
 50
246.1266882768807136
 51
278.7573481694955149
  0
ARC
  5
3014C
  8
0
 10
6659.8689483131211091
 20
252.7462337823999121
 30
0.0
 40
0.0002052635353059
 50
309.839289722151193
 51
41.3435989127837615
  0
ARC
  5
3014D
  8
0
 10
6659.2880166111963263
 20
252.2458654480944062
 30
0.0
 40
0.7669190919982575
 50
40.7391538899974108
 51
46.4256144211972668
  0
ARC
  5
3014E
  8
0
 10
6658.2078916983919044
 20
251.1750294172443887
 30
0.0
 40
2.2876749911905541
 50
45.3133704506131707
 51
47.8478776576555802
  0
ARC
  5
3014F
  8
0
 10
6659.5220393492663788
 20
252.6245588798443862
 30
0.0
 40
0.3311207442918906
 50
48.1044526126755727
 51
51.9238585694861428
  0
ARC
  5
30150
  8
0
 10
6659.7208112003709175
 20
252.8778112349428966
 30
0.0
 40
0.0091828684898841
 50
53.7261173459069781
 51
65.8288108815375068
  0
ARC
  5
30151
  8
0
 10
6659.7243884194822385
 20
252.8858762134840958
 30
0.0
 40
0.0003623102977337
 50
59.6922330494533711
 51
129.5827830420466
  0
ARC
  5
30152
  8
0
 10
6659.7264468125067651
 20
252.8864706880237918
 30
0.0
 40
0.0023108574494357
 50
187.8405669124400958
 51
215.9038856891764055
  0
ARC
  5
30153
  8
0
 10
6659.9035151559073711
 20
253.0284346174827874
 30
0.0
 40
0.2292595319993226
 50
218.6923919345489082
 51
224.507355286482607
  0
ARC
  5
30154
  8
0
 10
6667.9791507695581458
 20
260.3238480850628207
 30
0.0
 40
11.0798971775265809
 50
229.491806337396099
 51
231.299470436566196
  0
ARC
  5
30155
  8
0
 10
6672.6520500557298874
 20
265.8170879899936949
 30
0.0
 40
18.2919858894981608
 50
228.5106732865808112
 51
229.0619347403421102
  0
ARC
  5
30156
  8
0
 10
6675.6586705896070271
 20
269.2006603213093854
 30
0.0
 40
22.8184130437217298
 50
227.6867910991111046
 51
227.9302173145885888
  0
ARC
  5
30157
  8
0
 10
6674.1597381128431152
 20
267.7523232924741023
 30
0.0
 40
20.7363069048880497
 50
225.274984761618299
 51
225.9095061289663136
  0
LINE
  5
30158
  8
0
 10
6659.4864680148275511
 20
253.1523712489918978
 30
0.0
 11
6659.5090558956635505
 21
253.1765937856121127
 31
0.0
  0
LINE
  5
30159
  8
0
 10
6659.5931642650039066
 20
253.0463883598760901
 30
0.0
 11
6659.6170281207259904
 21
253.0686417653772935
 31
0.0
  0
LINE
  5
3015A
  8
0
 10
6659.576806082432995
 20
253.0466413474715068
 30
0.0
 11
6659.4867873865869115
 21
253.1359466822617037
 31
0.0
  0
ARC
  5
3015B
  8
0
 10
6659.5851166843503961
 20
253.0550183335504073
 30
0.0
 40
0.0118
 50
225.2279246232616003
 51
313.0000000344152795
  0
ARC
  5
3015C
  8
0
 10
6659.4950979885043125
 20
253.1443236683406042
 30
0.0
 40
0.0118
 50
136.9999999830876902
 51
225.2279246232673984
  0
LINE
  5
3015D
  8
0
 10
6659.4683808138261156
 20
253.1342679454945994
 30
0.0
 11
6659.4888128363381838
 21
253.1561786071065967
 31
0.0
  0
LINE
  5
3015E
  8
0
 10
6659.5750770640006522
 20
253.0282850563789054
 30
0.0
 11
6659.5966188351712844
 21
253.0483730830017919
 31
0.0
  0
LINE
  5
3015F
  8
0
 10
6659.5587188814288311
 20
253.0285380439742084
 30
0.0
 11
6659.468700185583657
 21
253.1178433787644053
 31
0.0
  0
ARC
  5
30160
  8
0
 10
6659.5670294833471416
 20
253.0369150300531089
 30
0.0
 40
0.0118
 50
225.2279246232616003
 51
313.0000000344152795
  0
ARC
  5
30161
  8
0
 10
6659.4770107875019676
 20
253.1262203648433911
 30
0.0
 40
0.0118
 50
136.9999999830876902
 51
225.2279246232673984
  0
LINE
  5
30162
  8
0
 10
6659.4488936190491586
 20
253.114780750721593
 30
0.0
 11
6659.4742647149259938
 21
253.1419879200641105
 31
0.0
  0
LINE
  5
30163
  8
0
 10
6659.5555898692236951
 20
253.0087978616058138
 30
0.0
 11
6659.5824292280512964
 21
253.0338259686446918
 31
0.0
  0
LINE
  5
30164
  8
0
 10
6659.539231686651874
 20
253.009050849201202
 30
0.0
 11
6659.4492129908067
 21
253.0983561839913989
 31
0.0
  0
ARC
  5
30165
  8
0
 10
6659.5475422885701846
 20
253.0174278352801025
 30
0.0
 40
0.0118
 50
225.2279246232616003
 51
313.0000000344152795
  0
ARC
  5
30166
  8
0
 10
6659.4575235927250105
 20
253.1067331700702994
 30
0.0
 40
0.0118
 50
136.9999999830876902
 51
225.2279246232673984
  0
LINE
  5
30167
  8
0
 10
6659.4405419641479966
 20
253.1064290958223921
 30
0.0
 11
6659.4647567075144252
 21
253.1323962289152973
 31
0.0
  0
LINE
  5
30168
  8
0
 10
6659.5472382143243522
 20
253.0004462067066981
 30
0.0
 11
6659.5728368853751817
 21
253.0243173536767927
 31
0.0
  0
LINE
  5
30169
  8
0
 10
6659.5308800317507121
 20
253.0006991943020012
 30
0.0
 11
6659.4408613359064475
 21
253.090004529092198
 31
0.0
  0
ARC
  5
3016A
  8
0
 10
6659.5391906336690226
 20
253.0090761803809016
 30
0.0
 40
0.0118
 50
225.2279246232616003
 51
313.0000000344152795
  0
ARC
  5
3016B
  8
0
 10
6659.4491719378238486
 20
253.0983815151710985
 30
0.0
 40
0.0118
 50
136.9999999830876902
 51
225.2279246232673984
  0
ARC
  5
3016C
  8
0
 10
6659.8129241100759828
 20
253.4658448112031977
 30
0.0
 40
0.4850467730754458
 50
221.3996714324673007
 51
223.7827159577608995
  0
ARC
  5
3016D
  8
0
 10
6659.477813291729035
 20
253.1704082986101128
 30
0.0
 40
0.0383007674445656
 50
216.3539432331369028
 51
221.3996714324684945
  0
ARC
  5
3016E
  8
0
 10
6659.4501789227897461
 20
253.1500687524782904
 30
0.0
 40
0.0039881533865813
 50
206.0095711881382954
 51
216.3539432331488115
  0
ARC
  5
3016F
  8
0
 10
6659.4468609629329876
 20
253.1484497891619867
 30
0.0
 40
0.000296283963815
 50
168.5608794883233941
 51
206.0095711881558884
  0
ARC
  5
30170
  8
0
 10
6659.4466537969610727
 20
253.1483808372875046
 30
0.0
 40
0.0001524409481439
 50
60.2294500766711707
 51
123.0929571913678018
  0
ARC
  5
30171
  8
0
 10
6659.2858876015643546
 20
252.9504667596584966
 30
0.0
 40
0.2551322967546626
 50
45.3933792418563513
 51
50.9184834119450898
  0
ARC
  5
30172
  8
0
 10
6659.7772016917933797
 20
253.4160256571794889
 30
0.0
 40
0.4134963542031731
 50
219.4879719900278019
 51
222.1916138795442066
  0
ARC
  5
30173
  8
0
 10
6659.4835627981274229
 20
253.1740719464540064
 30
0.0
 40
0.0330158711202623
 50
212.1919043583123141
 51
219.4879719900289956
  0
ARC
  5
30174
  8
0
 10
6659.4571425937056119
 20
253.1574394687779943
 30
0.0
 40
0.0017962216148588
 50
185.6284961443795112
 51
212.1919043583785935
  0
ARC
  5
30175
  8
0
 10
6659.4556138114558053
 20
253.1571788132305016
 30
0.0
 40
0.0002722216272548
 50
54.0905887307161066
 51
161.9192364858284066
  0
ARC
  5
30176
  8
0
 10
6659.3610773214586516
 20
253.0249797329751118
 30
0.0
 40
0.1627952759932233
 50
45.6123284250426408
 51
54.4306052934796085
  0
ARC
  5
30177
  8
0
 10
6659.8744355336439185
 20
253.4856801902174084
 30
0.0
 40
0.5144340815324245
 50
218.7015350189271885
 51
220.6040761406609931
  0
ARC
  5
30178
  8
0
 10
6668.7929728640883695
 20
259.8146936698335026
 30
0.0
 40
11.4496278865784298
 50
215.4851301993197126
 51
215.5112961258309952
  0
ARC
  5
30179
  8
0
 10
6659.4776925864807708
 20
253.1732678885254018
 30
0.0
 40
0.0092285920548663
 50
198.7720851673151969
 51
212.7144530444282111
  0
ARC
  5
3017A
  8
0
 10
6659.4698643143237859
 20
253.170614629964092
 30
0.0
 40
0.0009629311965154
 50
161.7992444107007088
 51
199.1916469055744017
  0
ARC
  5
3017B
  8
0
 10
6659.4693568535012673
 20
253.1706078779770053
 30
0.0
 40
0.0005103496381996
 50
71.146903976705687
 51
142.9458584499348888
  0
ARC
  5
3017C
  8
0
 10
6659.4192262902715811
 20
253.0860926502681991
 30
0.0
 40
0.0987640052818535
 50
44.69302589303107
 51
59.3861755758073002
  0
ARC
  5
3017D
  8
0
 10
6659.6036167735292111
 20
253.2592470093914869
 30
0.0
 40
0.1358171923816318
 50
213.2705034995636879
 51
221.597221066969496
  0
ARC
  5
3017E
  8
0
 10
6659.5059345229092287
 20
253.1951537261093108
 30
0.0
 40
0.0189849577534223
 50
199.8751993661051927
 51
213.2705034995622952
  0
ARC
  5
3017F
  8
0
 10
6659.4899511103203622
 20
253.1893756353605056
 30
0.0
 40
0.0019891991444748
 50
159.8028838454548008
 51
199.8751993661128949
  0
ARC
  5
30180
  8
0
 10
6659.4889418776765524
 20
253.1891336946983131
 30
0.0
 40
0.0012641498782959
 50
67.1247208164762839
 51
132.7219578940502061
  0
ARC
  5
30181
  8
0
 10
6659.4000253966069067
 20
253.0413818226315072
 30
0.0
 40
0.1736949183412571
 50
47.2684397957512985
 51
59.0198578189788421
  0
ARC
  5
30182
  8
0
 10
6658.8787636310098605
 20
252.4434089804649091
 30
0.0
 40
0.9669107379158736
 50
44.783617094084029
 51
48.6240575322404709
  0
ARC
  5
30183
  8
0
 10
6659.9063636334012699
 20
253.3724052878608859
 30
0.0
 40
0.4850467730754459
 50
226.2041009548796922
 51
228.6003285560036886
  0
ARC
  5
30184
  8
0
 10
6659.6109271207405982
 20
253.0372944695720037
 30
0.0
 40
0.0383007674445656
 50
228.6003285560036886
 51
233.6460567553592966
  0
ARC
  5
30185
  8
0
 10
6659.5905875746020683
 20
253.0096601006374044
 30
0.0
 40
0.0039881533865813
 50
233.6460567553525038
 51
243.9904288003484965
  0
ARC
  5
30186
  8
0
 10
6659.5889686112850541
 20
253.0063421407803048
 30
0.0
 40
0.000296283963815
 50
243.9904288003442048
 51
281.4391205001641083
  0
ARC
  5
30187
  8
0
 10
6659.5888996594112541
 20
253.0061349748071962
 30
0.0
 40
0.0001524409481439
 50
326.9070427971414006
 51
29.7705499118020214
  0
ARC
  5
30188
  8
0
 10
6659.3909855817501011
 20
252.8453687794518032
 30
0.0
 40
0.2551322967546627
 50
39.0815165765416523
 51
44.6316545084856173
  0
ARC
  5
30189
  8
0
 10
6659.8565444793712231
 20
253.3366828695857862
 30
0.0
 40
0.4134963542031732
 50
227.7928917837328981
 51
230.5120279984764124
  0
ARC
  5
3018A
  8
0
 10
6659.6145907685850034
 20
253.0430439759686863
 30
0.0
 40
0.0330158711202623
 50
230.5120279984764124
 51
237.8080956301951971
  0
ARC
  5
3018B
  8
0
 10
6659.5979582909039891
 20
253.0166237715519912
 30
0.0
 40
0.0017962216148588
 50
237.8080956301355968
 51
264.3715038441180241
  0
ARC
  5
3018C
  8
0
 10
6659.5976976353567807
 20
253.0150949893007066
 30
0.0
 40
0.0002722216272548
 50
288.080763502674472
 51
35.9094112577749485
  0
ARC
  5
3018D
  8
0
 10
6659.4654985550823767
 20
252.9205584993314062
 30
0.0
 40
0.1627952759932233
 50
35.5693946950435418
 51
44.4269005703727373
  0
ARC
  5
3018E
  8
0
 10
6659.9261990124277872
 20
253.4339167114248141
 30
0.0
 40
0.5144340815324246
 50
229.3834357974060936
 51
231.2984649695955
  0
ARC
  5
3018F
  8
0
 10
6666.2552124938338238
 20
262.3524540405961716
 30
0.0
 40
11.4496278865784298
 50
234.4887038626503113
 51
234.5148697891683867
  0
ARC
  5
30190
  8
0
 10
6659.613786710655404
 20
253.0371737643230858
 30
0.0
 40
0.0092285920548663
 50
237.2855469440794991
 51
251.2279148211642905
  0
ARC
  5
30191
  8
0
 10
6659.6111334520919627
 20
253.0293454921678062
 30
0.0
 40
0.0009629311965154
 50
250.808353082932797
 51
288.200755577798418
  0
ARC
  5
30192
  8
0
 10
6659.6111267001051601
 20
253.028838031343895
 30
0.0
 40
0.0005103496381996
 50
307.0541415385433766
 51
18.8530960118105391
  0
ARC
  5
30193
  8
0
 10
6659.5266114723872306
 20
252.9787074681316881
 30
0.0
 40
0.0987640052818535
 50
30.6138244126957808
 51
45.3848849288857821
  0
ARC
  5
30194
  8
0
 10
6659.6997658315467561
 20
253.1630979513541888
 30
0.0
 40
0.1358171923816319
 50
228.3459209912994083
 51
236.7294964889294988
  0
ARC
  5
30195
  8
0
 10
6659.6356725482446564
 20
253.0654157007463994
 30
0.0
 40
0.0189849577534223
 50
236.7294964889294988
 51
250.1248006223787002
  0
ARC
  5
30196
  8
0
 10
6659.6298944574937195
 20
253.0494322881584992
 30
0.0
 40
0.0019891991444748
 50
250.1248006223775917
 51
290.1971161430656139
  0
ARC
  5
30197
  8
0
 10
6659.6296525168309017
 20
253.0484230555161105
 30
0.0
 40
0.0012641498782959
 50
317.2780420944578736
 51
22.8752791720311386
  0
ARC
  5
30198
  8
0
 10
6659.4819006447460197
 20
252.9595065744765918
 30
0.0
 40
0.1736949183412571
 50
30.980142169515279
 51
42.7315601927437214
  0
ARC
  5
30199
  8
0
 10
6658.8839278024752275
 20
252.438244808999201
 30
0.0
 40
0.9669107379158738
 50
41.3759424562714884
 51
45.2163828944252302
  0
ENDSEC
  0
EOF
