  0
SECTION
  2
HEADER
  9
$ACADVER
  1
AC1009
  9
$INSBASE
 10
7287.2198595668969574
 20
113.2418334475014063
 30
0.0
  9
$EXTMIN
 10
7283.9748012274612847
 20
105.1511048927829961
 30
0.0
  9
$EXTMAX
 10
7290.4649179063353586
 20
113.2476025750783037
 30
0.0
  9
$LIMMIN
 10
0.0
 20
0.0
  9
$LIMMAX
 10
11.6929133858000007
 20
8.2677165353999982
  9
$ORTHOMODE
 70
     0
  9
$REGENMODE
 70
     1
  9
$FILLMODE
 70
     1
  9
$QTEXTMODE
 70
     0
  9
$MIRRTEXT
 70
     0
  9
$DRAGMODE
 70
     2
  9
$LTSCALE
 40
0.6431102362
  9
$OSMODE
 70
  4095
  9
$ATTMODE
 70
     1
  9
$TEXTSIZE
 40
0.2
  9
$TRACEWID
 40
0.05
  9
$TEXTSTYLE
  7
STANDARD
  9
$CLAYER
  8
0
  9
$CELTYPE
  6
BYLAYER
  9
$CECOLOR
 62
   256
  9
$DIMSCALE
 40
1.0
  9
$DIMASZ
 40
0.1875
  9
$DIMEXO
 40
0.0625
  9
$DIMDLI
 40
0.4443307087
  9
$DIMRND
 40
0.0
  9
$DIMDLE
 40
0.0
  9
$DIMEXE
 40
0.125
  9
$DIMTP
 40
0.01
  9
$DIMTM
 40
0.01
  9
$DIMTXT
 40
2.0
  9
$DIMCEN
 40
0.1052362205
  9
$DIMTSZ
 40
0.0
  9
$DIMTOL
 70
     1
  9
$DIMLIM
 70
     0
  9
$DIMTIH
 70
     1
  9
$DIMTOH
 70
     1
  9
$DIMSE1
 70
     0
  9
$DIMSE2
 70
     0
  9
$DIMTAD
 70
     0
  9
$DIMZIN
 70
     0
  9
$DIMBLK
  1

  9
$DIMASO
 70
     1
  9
$DIMSHO
 70
     1
  9
$DIMPOST
  1
\X
  9
$DIMAPOST
  1

  9
$DIMALT
 70
     1
  9
$DIMALTD
 70
     2
  9
$DIMALTF
 40
25.3999999999999986
  9
$DIMLFAC
 40
1.0
  9
$DIMTOFL
 70
     0
  9
$DIMTVP
 40
0.0
  9
$DIMTIX
 70
     0
  9
$DIMSOXD
 70
     0
  9
$DIMSAH
 70
     0
  9
$DIMBLK1
  1

  9
$DIMBLK2
  1

  9
$DIMSTYLE
  2
STANDARD
  9
$DIMCLRD
 70
     0
  9
$DIMCLRE
 70
     0
  9
$DIMCLRT
 70
     0
  9
$DIMTFAC
 40
1.0
  9
$DIMGAP
 40
0.09
  9
$LUNITS
 70
     2
  9
$LUPREC
 70
     4
  9
$SKETCHINC
 40
0.1
  9
$FILLETRAD
 40
0.0
  9
$AUNITS
 70
     0
  9
$AUPREC
 70
     0
  9
$MENU
  1
.
  9
$ELEVATION
 40
0.0
  9
$PELEVATION
 40
0.0
  9
$THICKNESS
 40
0.0
  9
$LIMCHECK
 70
     0
  9
$BLIPMODE
 70
     0
  9
$CHAMFERA
 40
0.0
  9
$CHAMFERB
 40
0.0
  9
$SKPOLY
 70
     0
  9
$TDCREATE
 40
2458060.468368056230247
  9
$TDUPDATE
 40
2460532.6450578710064292
  9
$TDINDWG
 40
0.9603427083
  9
$TDUSRTIMER
 40
0.9603427083
  9
$USRTIMER
 70
     1
  9
$ANGBASE
 50
0.0
  9
$ANGDIR
 70
     0
  9
$PDMODE
 70
     0
  9
$PDSIZE
 40
0.3125
  9
$PLINEWID
 40
0.0
  9
$COORDS
 70
     0
  9
$SPLFRAME
 70
     0
  9
$SPLINETYPE
 70
     6
  9
$SPLINESEGS
 70
     8
  9
$ATTDIA
 70
     1
  9
$ATTREQ
 70
     1
  9
$HANDLING
 70
     1
  9
$HANDSEED
  5
33D91
  9
$SURFTAB1
 70
     6
  9
$SURFTAB2
 70
     6
  9
$SURFTYPE
 70
     6
  9
$SURFU
 70
     6
  9
$SURFV
 70
     6
  9
$UCSNAME
  2

  9
$UCSORG
 10
0.0
 20
0.0
 30
0.0
  9
$UCSXDIR
 10
1.0
 20
0.0
 30
0.0
  9
$UCSYDIR
 10
0.0
 20
1.0
 30
0.0
  9
$PUCSNAME
  2

  9
$PUCSORG
 10
0.0
 20
0.0
 30
0.0
  9
$PUCSXDIR
 10
1.0
 20
0.0
 30
0.0
  9
$PUCSYDIR
 10
0.0
 20
1.0
 30
0.0
  9
$USERI1
 70
     0
  9
$USERI2
 70
     0
  9
$USERI3
 70
     0
  9
$USERI4
 70
     0
  9
$USERI5
 70
     0
  9
$USERR1
 40
0.0
  9
$USERR2
 40
0.0
  9
$USERR3
 40
0.0
  9
$USERR4
 40
0.0
  9
$USERR5
 40
0.0
  9
$WORLDVIEW
 70
     1
  9
$SHADEDGE
 70
     3
  9
$SHADEDIF
 70
    70
  9
$TILEMODE
 70
     1
  9
$MAXACTVP
 70
    64
  9
$PLIMCHECK
 70
     0
  9
$PEXTMIN
 10
1.0000000000000000E+20
 20
1.0000000000000000E+20
 30
1.0000000000000000E+20
  9
$PEXTMAX
 10
-1.0000000000000000E+20
 20
-1.0000000000000000E+20
 30
-1.0000000000000000E+20
  9
$PLIMMIN
 10
0.0
 20
0.0
  9
$PLIMMAX
 10
12.0
 20
9.0
  9
$UNITMODE
 70
     0
  9
$VISRETAIN
 70
     1
  9
$PLINEGEN
 70
     0
  9
$PSLTSCALE
 70
     1
  0
ENDSEC
  0
SECTION
  2
TABLES
  0
TABLE
  2
VPORT
 70
     1
  0
VPORT
  2
*ACTIVE
 70
     0
 10
0.0
 20
0.0
 11
1.0
 21
1.0
 12
3375.8545031215858216
 22
-23.3802513686083984
 13
0.0
 23
0.0
 14
1.0
 24
1.0
 15
0.0
 25
0.0
 16
0.0
 26
0.0
 36
60.4960186965801583
 17
3911.3653564453120453
 27
132.5796051025390057
 37
0.0
 40
8.1531826135599612
 41
2.218457943925233
 42
50.0
 43
0.0
 44
0.0
 50
0.0
 51
0.0
 71
     0
 72
   100
 73
     1
 74
     1
 75
     0
 76
     0
 77
     0
 78
     0
  0
ENDTAB
  0
TABLE
  2
LTYPE
 70
     2
  0
LTYPE
  2
CONTINUOUS
 70
     0
  3
Solid line
 72
    65
 73
     0
 40
0.0
  0
LTYPE
  2
PHANTOM2
 70
     0
  3
___ _ _ ___ _ _ ___ _ _ ___ _ _
 72
    65
 73
     6
 40
1.25
 49
0.625
 49
-0.125
 49
0.125
 49
-0.125
 49
0.125
 49
-0.125
  0
ENDTAB
  0
TABLE
  2
LAYER
 70
     2
  0
LAYER
  2
0
 70
     0
 62
   255
  6
CONTINUOUS
  0
LAYER
  2
DEFPOINTS
 70
     0
 62
     7
  6
CONTINUOUS
  0
ENDTAB
  0
TABLE
  2
STYLE
 70
     1
  0
STYLE
  2
STANDARD
 70
     0
 40
0.0
 41
0.8
 50
0.0
 71
     0
 42
0.2
  3
txt
  4

  0
ENDTAB
  0
TABLE
  2
VIEW
 70
     0
  0
ENDTAB
  0
TABLE
  2
UCS
 70
     0
  0
ENDTAB
  0
TABLE
  2
APPID
 70
    11
  0
APPID
  2
ACAD
 70
     0
  0
APPID
  2
ACAD_MLEADERVER
 70
     0
  0
APPID
  2
ACAD_EXEMPT_FROM_CAD_STANDARDS
 70
     0
  0
APPID
  2
ACAD_NAV_VCDISPLAY
 70
     0
  0
APPID
  2
ACAECLAYERSTANDARD
 70
     0
  0
APPID
  2
ACCMTRANSPARENCY
 70
     0
  0
APPID
  2
ACAD_DSTYLE_DIMJAG
 70
     0
  0
APPID
  2
ACAD_DSTYLE_DIMTALN
 70
     0
  0
APPID
  2
ACDBATTR
 70
     0
  0
APPID
  2
ACADANNOTATIVE
 70
     0
  0
APPID
  2
DCO15
 70
     0
  0
ENDTAB
  0
TABLE
  2
DIMSTYLE
 70
     1
  0
DIMSTYLE
  2
STANDARD
 70
     0
  3

  4

  5

  6

  7

 40
1.0
 41
0.1875
 42
0.0625
 43
0.38
 44
0.125
 45
0.0
 46
0.0
 47
0.01
 48
0.01
140
0.15625
141
0.09
142
0.0
143
25.3999999999999986
144
1.0
145
0.0
146
1.0
147
0.09
 71
     1
 72
     0
 73
     1
 74
     1
 75
     0
 76
     0
 77
     0
 78
     4
170
     0
171
     2
172
     0
173
     0
174
     0
175
     0
176
     0
177
     0
178
     0
  0
ENDTAB
  0
ENDSEC
  0
SECTION
  2
BLOCKS
  0
BLOCK
  8
0
  2
$MODEL_SPACE
 70
     0
 10
0.0
 20
0.0
 30
0.0
  3
$MODEL_SPACE
  1

  0
ENDBLK
  5
21
  8
0
  0
BLOCK
 67
     1
  8
0
  2
$PAPER_SPACE
 70
     0
 10
0.0
 20
0.0
 30
0.0
  3
$PAPER_SPACE
  1

  0
ENDBLK
  5
1D
 67
     1
  8
0
  0
BLOCK
  8
0
  2
_FILLED
 70
     0
 10
0.0
 20
0.0
 30
0.0
  3
_FILLED
  1

  0
SOLID
  5
257AF
  8
0
  6
BYBLOCK
 62
     0
 10
0.0
 20
0.0
 30
0.0
 11
-1.0
 21
0.1666666667
 31
0.0
 12
-1.0
 22
-0.1666666667
 32
0.0
 13
-1.0
 23
-0.1666666667
 33
0.0
  0
ENDBLK
  5
257B0
  8
0
  6
BYBLOCK
 62
     0
  0
ENDSEC
  0
SECTION
  2
ENTITIES
  0
ATTDEF
  5
256E4
  8
DEFPOINTS
 10
7287.2092129013371959
 20
113.246602575078299
 30
0.0
 40
0.001
  1
K-T35327-4Y
  3

  2
MODELNUMBER
 70
     0
1001
ACDBATTR
1070
     0
1070
     1
  0
ATTDEF
  5
256E5
  8
DEFPOINTS
 10
7287.2090870916808854
 20
113.2449357346991974
 30
0.0
 40
0.001
  1
ELATE/ RITE TEMP
  3

  2
TRADENAME
 70
     0
1001
ACDBATTR
1070
     0
1070
     1
  0
ATTDEF
  5
256E6
  8
DEFPOINTS
 10
7287.2092129013371959
 20
113.2432692417448976
 30
0.0
 40
0.001
  1
BATH AND SHOWER TRIM
  3

  2
PRODUCT
 70
     0
1001
ACDBATTR
1070
     0
1070
     1
  0
LINE
  5
33A16
  8
0
 10
7284.9872856595929989
 20
106.7194080541851946
 30
0.0
 11
7284.9872856595929989
 21
106.8068924544562037
 31
0.0
  0
LINE
  5
33A17
  8
0
 10
7286.7867887007978425
 20
107.9797641887070938
 30
0.0
 11
7286.7867887007978425
 21
108.4703178645757049
 31
0.0
  0
LINE
  5
33A18
  8
0
 10
7286.8105810375982401
 20
109.6099630508948053
 30
0.0
 11
7286.8105810375982401
 21
109.9906151139716002
 31
0.0
  0
LINE
  5
33A19
  8
0
 10
7286.8183595668979251
 20
108.4375120060000057
 30
0.0
 11
7286.8183595668979251
 21
109.3155971768793933
 31
0.0
  0
LINE
  5
33A1A
  8
0
 10
7286.8183595668979251
 20
110.3505206948654944
 30
0.0
 11
7286.8183595668979251
 21
112.8703328414307947
 31
0.0
  0
LINE
  5
33A1B
  8
0
 10
7283.994501227460205
 20
113.2418334475014063
 30
0.0
 11
7290.4452179063346193
 21
113.2418334475014063
 31
0.0
  0
LINE
  5
33A1C
  8
0
 10
7286.7867887007978425
 20
112.8875027388015013
 30
0.0
 11
7287.6529304329969818
 21
112.8875027388015013
 31
0.0
  0
ARC
  5
33A1D
  8
0
 10
7286.7867887007978425
 20
114.390821545701499
 30
0.0
 40
1.5033188069000629
 50
242.0642988304799985
 51
270.0
  0
ARC
  5
33A1E
  8
0
 10
7286.1193827117776891
 20
113.1322080264695984
 30
0.0
 40
0.0787
 50
181.0000000188296099
 51
242.0642988304335859
  0
LINE
  5
33A1F
  8
0
 10
7286.0406946981693181
 20
113.1308345220570999
 30
0.0
 11
7286.0389668553607407
 21
113.2298275091015967
 31
0.0
  0
ARC
  5
33A20
  8
0
 10
7286.0507650581630514
 20
113.2300334475014978
 30
0.0
 40
0.0118
 50
90.0
 51
181.0000000188466913
  0
LINE
  5
33A21
  8
0
 10
7286.082513304269014
 20
113.0626786313193008
 30
0.0
 11
7288.3572058295267198
 21
113.0626786313193008
 31
0.0
  0
ARC
  5
33A22
  8
0
 10
7382.7836285757693986
 20
108.9775134160117034
 30
0.0
 40
96.0441924273595191
 50
177.6679562765552021
 51
177.6770772683508994
  0
ARC
  5
33A23
  8
0
 10
7286.8199064911759706
 20
112.8853219927026004
 30
0.0
 40
0.0009696503113352
 50
112.1208566161331959
 51
162.7439817004334941
  0
ARC
  5
33A24
  8
0
 10
7286.508183855758034
 20
113.4873845651970043
 30
0.0
 40
0.6770096053942787
 50
297.3807296825642084
 51
297.6157985196575169
  0
ARC
  5
33A25
  8
0
 10
7287.2953321781105842
 20
112.2050033365323998
 30
0.0
 40
1.2290620435456101
 50
176.5641791130109937
 51
181.323924570413908
  0
ARC
  5
33A26
  8
0
 10
12888.4154031119796855
 20
164.8105437924720889
 30
0.0
 40
5602.5960467367949605
 50
180.5382766889237018
 51
180.5674706864805898
  0
LINE
  5
33A27
  8
0
 10
7286.1138431567660518
 20
109.3025356731015023
 30
0.0
 11
7286.8183595668979251
 21
109.3025356731015023
 31
0.0
  0
LINE
  5
33A28
  8
0
 10
7286.1214343700976315
 20
109.2828506337015
 30
0.0
 11
7286.8183595668979251
 21
109.2828506337008037
 31
0.0
  0
ARC
  5
33A29
  8
0
 10
7286.1138431567678708
 20
109.3222356731024973
 30
0.0
 40
0.0197
 50
180.5674706843840909
 51
269.9999999987492743
  0
LINE
  5
33A2A
  8
0
 10
7286.0962793090684499
 20
109.2468328185129991
 30
0.0
 11
7286.1021996924628183
 21
108.9076542812720021
 31
0.0
  0
LINE
  5
33A2B
  8
0
 10
7286.1375943008715694
 20
108.872872096460398
 30
0.0
 11
7286.8183595668979251
 21
108.872872096460398
 31
0.0
  0
ARC
  5
33A2C
  8
0
 10
7286.1375943008715694
 20
108.9082720964603936
 30
0.0
 40
0.0354
 50
181.0000000009432881
 51
270.0
  0
ARC
  5
33A2D
  8
0
 10
7286.131673917477201
 20
109.2474506337015043
 30
0.0
 40
0.0354
 50
89.9999999999478888
 51
181.000000000960398
  0
LINE
  5
33A2E
  8
0
 10
7286.1214343700976315
 20
109.3025356731015023
 30
0.0
 11
7286.1214343700976315
 21
109.2828506337015
 31
0.0
  0
LINE
  5
33A2F
  8
0
 10
7283.9896174330469876
 20
112.3731416800180938
 30
0.0
 11
7283.974804227866116
 21
113.2217896350939981
 31
0.0
  0
LINE
  5
33A30
  8
0
 10
7284.0526078378434249
 20
112.3112411816256042
 30
0.0
 11
7286.8183595668979251
 21
112.3112411816256042
 31
0.0
  0
ARC
  5
33A31
  8
0
 10
7283.994501227460205
 20
113.2221334475014061
 30
0.0
 40
0.0197
 50
90.0
 51
181.0000000017265052
  0
ARC
  5
33A32
  8
0
 10
7284.0526078378434249
 20
112.3742411816256066
 30
0.0
 40
0.063
 50
181.0000000017313084
 51
270.0
  0
LINE
  5
33A33
  8
0
 10
7286.8183595668979251
 20
112.2786615826949941
 30
0.0
 11
7286.0307541601314369
 21
112.2786615826949941
 31
0.0
  0
ARC
  5
33A34
  8
0
 10
7287.200651610449313
 20
243.3818866170626904
 30
0.0
 40
131.1084447106908897
 50
268.6241392906958936
 51
269.4887356335929098
  0
ARC
  5
33A35
  8
0
 10
7250.8561109976280932
 20
110.9477249319273966
 30
0.0
 40
35.9672069399155276
 50
358.475143557152478
 51
359.0486096178856883
  0
ARC
  5
33A36
  8
0
 10
7246.0748768919902432
 20
108.3862486644715943
 30
0.0
 40
40.7540803986299096
 50
1.306675624770901
 51
1.7206672094621249
  0
ARC
  5
33A37
  8
0
 10
7287.0289754305740644
 20
108.4435044256275944
 30
0.0
 40
0.2107010942670422
 50
181.6297336155510891
 51
203.8622998045283055
  0
ARC
  5
33A38
  8
0
 10
7287.0692882295907111
 20
108.4616215306076015
 30
0.0
 40
0.2548971940836049
 50
203.9208154752107021
 51
223.5259018600906131
  0
ARC
  5
33A39
  8
0
 10
7287.1444285983607188
 20
108.5329916648772013
 30
0.0
 40
0.3585300609001223
 50
223.5259018600906131
 51
243.94799340734221
  0
ARC
  5
33A3A
  8
0
 10
7287.2118359471442091
 20
108.6708794126235063
 30
0.0
 40
0.5120122476466247
 50
243.94799340734221
 51
260.6078437450813112
  0
ARC
  5
33A3B
  8
0
 10
7287.2383327381676281
 20
108.9483647894401059
 30
0.0
 40
0.790333665560786
 50
261.995655557399175
 51
268.6606528418074049
  0
ARC
  5
33A3C
  8
0
 10
7287.0118897169486445
 20
108.4293499569147059
 30
0.0
 40
0.1928364627035916
 50
181.3553862811585873
 51
195.5392716378156877
  0
ARC
  5
33A3D
  8
0
 10
7287.0611190176896343
 20
108.448547878746993
 30
0.0
 40
0.2454667787292463
 50
196.7782707137907892
 51
230.3266973028923132
  0
ARC
  5
33A3E
  8
0
 10
7287.1457727616316333
 20
108.5412629319372968
 30
0.0
 40
0.3709210278331991
 50
229.4048494079291061
 51
244.9218754891217884
  0
LINE
  5
33A3F
  8
0
 10
7286.9885565314989435
 20
108.205308372701495
 30
0.0
 11
7286.9896101143976921
 21
108.1732457661015019
 31
0.0
  0
ARC
  5
33A40
  8
0
 10
7287.0103055681156548
 20
108.3961900613007003
 30
0.0
 40
0.1894250273722907
 50
178.1850333235018127
 51
187.798405734793306
  0
ARC
  5
33A41
  8
0
 10
7287.0187132162536727
 20
108.3973415275014958
 30
0.0
 40
0.1979111585067943
 50
187.7984057347941018
 51
205.8249874281534062
  0
ARC
  5
33A42
  8
0
 10
7287.066623767677811
 20
108.4205281757387951
 30
0.0
 40
0.2511374827681449
 50
205.8249874281534062
 51
227.4463160579346095
  0
ARC
  5
33A43
  8
0
 10
7287.1468714542270391
 20
108.5079385908333052
 30
0.0
 40
0.3697978041198782
 50
227.4463160579350927
 51
244.8326856286672921
  0
ARC
  5
33A44
  8
0
 10
7287.0164831726988268
 20
108.3783419763474996
 30
0.0
 40
0.1946119643910962
 50
180.4594136137293958
 51
201.7329401317425095
  0
ARC
  5
33A45
  8
0
 10
7287.0502464370601956
 20
108.3918005011803984
 30
0.0
 40
0.2309587649519058
 50
201.7329401317425095
 51
221.2299513906984032
  0
ARC
  5
33A46
  8
0
 10
7287.1251623772777748
 20
108.4574536565399967
 30
0.0
 40
0.3305716903548823
 50
221.2299513906984032
 51
244.8485376738013883
  0
ARC
  5
33A47
  8
0
 10
7287.199895393983752
 20
108.575360280749905
 30
0.0
 40
0.46938942309379
 50
242.7075674705569952
 51
259.4087178290230895
  0
ARC
  5
33A48
  8
0
 10
7287.2231454298525932
 20
108.8042807126596045
 30
0.0
 40
0.6989475775326782
 50
260.9846319579726241
 51
269.7306424989840821
  0
ARC
  5
33A49
  8
0
 10
7287.0436446828171029
 20
108.3655616928732002
 30
0.0
 40
0.2773965591159463
 50
144.3056424004834923
 51
157.812394629085901
  0
ARC
  5
33A4A
  8
0
 10
7287.0809710607163652
 20
108.4245865073368975
 30
0.0
 40
0.3094998551616643
 50
198.1012640131789908
 51
236.7012974100155134
  0
ARC
  5
33A4B
  8
0
 10
7287.2079269284131442
 20
108.6178678823565065
 30
0.0
 40
0.5407475195221806
 50
236.7012974100155134
 51
253.0773663143079091
  0
ARC
  5
33A4C
  8
0
 10
7287.2200361843042629
 20
108.6978987544214021
 30
0.0
 40
0.6209481466687078
 50
254.157974025616511
 51
269.9837032574769751
  0
ARC
  5
33A4D
  8
0
 10
7287.1025053173234483
 20
108.0985700985196019
 30
0.0
 40
0.3373304406011661
 50
200.621596504154013
 51
228.4242843761373933
  0
ARC
  5
33A4E
  8
0
 10
7287.1785014087827221
 20
108.1842396641126953
 30
0.0
 40
0.4518497856322015
 50
228.4242843761373933
 51
251.8827466508074053
  0
ARC
  5
33A4F
  8
0
 10
7287.2599945834608661
 20
108.5469032729095034
 30
0.0
 40
0.8226333093714815
 50
254.3436476584732873
 51
267.2035166894219742
  0
ARC
  5
33A50
  8
0
 10
7287.043590312082415
 20
107.7310655825132955
 30
0.0
 40
0.4825166654177101
 50
122.1550963042403026
 51
148.5965480578337861
  0
ARC
  5
33A51
  8
0
 10
7286.941947946160326
 20
107.7933597837607067
 30
0.0
 40
0.3633039105937216
 50
148.6292615296366932
 51
171.4663512876491893
  0
ARC
  5
33A52
  8
0
 10
7286.9065787160097898
 20
107.7959637467094041
 30
0.0
 40
0.3279507505907
 50
170.9992955562076133
 51
204.0353327824680889
  0
ARC
  5
33A53
  8
0
 10
7287.061211039536829
 20
107.8848939908764066
 30
0.0
 40
0.5057258340161228
 50
206.1020130908331964
 51
245.9794303062805909
  0
ARC
  5
33A54
  8
0
 10
7287.2516586003221164
 20
108.3554426109596989
 30
0.0
 40
1.0132017905149071
 50
246.9741244668402089
 51
268.2014938575824203
  0
ARC
  5
33A55
  8
0
 10
7286.9917831396769543
 20
107.8099991082295048
 30
0.0
 40
0.2541732694748186
 50
141.8533830545597141
 51
185.9107413758644043
  0
ARC
  5
33A56
  8
0
 10
7287.010649996796019
 20
107.8206352099550003
 30
0.0
 40
0.2741711822921862
 50
187.7159140326689908
 51
223.4948449676780058
  0
ARC
  5
33A57
  8
0
 10
7287.1293476617429405
 20
107.9284811162195012
 30
0.0
 40
0.4345217613240527
 50
223.038211221147094
 51
244.7708545811888996
  0
ARC
  5
33A58
  8
0
 10
7287.213982077259061
 20
108.1087739628578959
 30
0.0
 40
0.6336911325899311
 50
244.7967827962870899
 51
270.5314263709316833
  0
ARC
  5
33A59
  8
0
 10
7286.8199238057441107
 20
107.9004260318401975
 30
0.0
 40
0.0184208829734979
 50
98.6011660361639031
 51
119.4008684081338032
  0
ARC
  5
33A5A
  8
0
 10
7287.5109759790120734
 20
106.6740494609516929
 30
0.0
 40
1.426097195128661
 50
119.4008684081338032
 51
120.7984864065251003
  0
ARC
  5
33A5B
  8
0
 10
7287.0063651454902356
 20
107.7553998602125063
 30
0.0
 40
0.2674239054917456
 50
147.5146233900389063
 51
170.9782346417183021
  0
LINE
  5
33A5C
  8
0
 10
7286.7422495829978288
 20
107.7973345103014964
 30
0.0
 11
7286.7772700240584527
 21
107.8292403436935984
 31
0.0
  0
ARC
  5
33A5D
  8
0
 10
7286.8075027736722404
 20
107.7960563107632055
 30
0.0
 40
0.0448909700361443
 50
87.860464759478873
 51
132.3354977178910019
  0
ARC
  5
33A5E
  8
0
 10
7286.8193610301132139
 20
108.1134674015078048
 30
0.0
 40
0.2727415515567081
 50
267.8604647594788162
 51
272.1395599990826781
  0
ARC
  5
33A5F
  8
0
 10
7286.830279314524887
 20
107.8212200175074997
 30
0.0
 40
0.0197097134251535
 50
15.2034320749717793
 51
92.1395599990827066
  0
ARC
  5
33A60
  8
0
 10
7284.6545775234790199
 20
107.8380136659742021
 30
0.0
 40
2.1947524665780751
 50
359.1154557084267935
 51
359.696522892517919
  0
ARC
  5
33A61
  8
0
 10
7286.8369640171185893
 20
107.8055334140423014
 30
0.0
 40
0.0121852913601544
 50
324.3503438752080115
 51
353.3956947360259733
  0
ARC
  5
33A62
  8
0
 10
7287.0700954434360028
 20
107.6578634303959063
 30
0.0
 40
0.2638008385270123
 50
147.8013210582147963
 51
155.9713994679219127
  0
ARC
  5
33A63
  8
0
 10
7287.0440762938560511
 20
107.763556645029098
 30
0.0
 40
0.1991843771811902
 50
152.2547134182046875
 51
168.2461624116824055
  0
ARC
  5
33A64
  8
0
 10
7287.0439485388978937
 20
107.7871239491013995
 30
0.0
 40
0.1985701253002274
 50
157.3987375959065957
 51
168.5952790801279946
  0
ARC
  5
33A65
  8
0
 10
7287.0344358933980402
 20
107.8010175218013984
 30
0.0
 40
0.2087409629003033
 50
156.7382380556099122
 51
168.9807572659657922
  0
ARC
  5
33A66
  8
0
 10
7287.0299570774068343
 20
107.7994538205700934
 30
0.0
 40
0.2246563912816045
 50
153.2376674092786004
 51
169.3644482237799878
  0
ARC
  5
33A67
  8
0
 10
7287.020236290104549
 20
107.7873085557178001
 30
0.0
 40
0.2459213425812815
 50
148.2958977764675126
 51
170.0214878175137017
  0
LINE
  5
33A68
  8
0
 10
7286.7422495829978288
 20
107.7973345103014964
 30
0.0
 11
7286.7420527637123087
 21
107.7656319047906948
 31
0.0
  0
LINE
  5
33A69
  8
0
 10
7286.742802347003817
 20
107.7620905799703053
 30
0.0
 11
7286.7618171099966276
 21
107.7610166102014944
 31
0.0
  0
LINE
  5
33A6A
  8
0
 10
7286.7618171099966276
 20
107.7610166102014944
 30
0.0
 11
7286.7616994455802342
 21
107.7415869739937051
 31
0.0
  0
ARC
  5
33A6B
  8
0
 10
7286.9918348111377782
 20
107.7016438961073987
 30
0.0
 40
0.2410935520434754
 50
165.6935930400127859
 51
172.2166049360251066
  0
LINE
  5
33A6C
  8
0
 10
7286.7509826800360315
 20
107.7326424727227021
 30
0.0
 11
7286.7781225102971803
 21
107.755294106301406
 31
0.0
  0
ARC
  5
33A6D
  8
0
 10
7286.8079431975393163
 20
107.7158427223081958
 30
0.0
 40
0.0494538682660768
 50
88.5696767146969393
 51
127.0850671153924054
  0
ARC
  5
33A6E
  8
0
 10
7286.8196221128637262
 20
-13692.1132341205793637
 30
0.0
 40
13799.8785153062399331
 50
89.999958807453865
 51
90.0000433644996036
  0
ARC
  5
33A6F
  8
0
 10
7286.8311036266377414
 20
107.7440082679183035
 30
0.0
 40
0.0213300478263289
 50
41.1998299019758107
 51
94.1945436225151695
  0
ARC
  5
33A70
  8
0
 10
7286.840650430612186
 20
107.7523658129552047
 30
0.0
 40
0.0086418633551702
 50
5.3619173495112253
 51
41.1998299019751926
  0
ARC
  5
33A71
  8
0
 10
7287.0475641062412251
 20
107.7951315999416977
 30
0.0
 40
0.202699781468191
 50
191.9464230411790879
 51
209.9794672267331066
  0
ARC
  5
33A72
  8
0
 10
7286.6080426872122189
 20
107.6694446488746024
 30
0.0
 40
0.2650673721283294
 50
359.942918982963306
 51
5.2816667774225481
  0
ARC
  5
33A73
  8
0
 10
7286.8567761039812467
 20
107.6691837749614962
 30
0.0
 40
0.0163338241297796
 50
335.9042329827141771
 51
359.9887755327879972
  0
ARC
  5
33A74
  8
0
 10
7287.2377676495661945
 20
107.505581051702606
 30
0.0
 40
0.3983009358090776
 50
156.7958062453284072
 51
166.9076261608034883
  0
LINE
  5
33A75
  8
0
 10
7286.7972958148820908
 20
107.6484439492612069
 30
0.0
 11
7286.8108806948976053
 21
107.668826612401503
 31
0.0
  0
ARC
  5
33A76
  8
0
 10
7286.8600315270523424
 20
107.6360679805737988
 30
0.0
 40
0.0590671842965141
 50
112.4673833373896059
 51
146.3168651248755907
  0
ARC
  5
33A77
  8
0
 10
7287.6404732563159996
 20
105.7488770598574064
 30
0.0
 40
2.1012667005066281
 50
111.8864214745563004
 51
112.4673833373896059
  0
ARC
  5
33A78
  8
0
 10
7286.8619619425880956
 20
107.6838073499394
 30
0.0
 40
0.0156333938345993
 50
58.5280059033523301
 51
107.7783428332475069
  0
ARC
  5
33A79
  8
0
 10
7287.0419299811610472
 20
107.8073961875647058
 30
0.0
 40
0.216542995773355
 50
191.2148131893171126
 51
210.3852635812689869
  0
ARC
  5
33A7A
  8
0
 10
7287.0336567403692243
 20
107.8079495643593049
 30
0.0
 40
0.228540704784602
 50
190.7599480577353859
 51
210.8749930460502071
  0
ARC
  5
33A7B
  8
0
 10
7287.0210932575655534
 20
107.7981203630369009
 30
0.0
 40
0.246767809910523
 50
190.0032114321062124
 51
211.5915275983666959
  0
LINE
  5
33A7C
  8
0
 10
7286.8545586183236082
 20
107.5918802506808021
 30
0.0
 11
7286.8637225898983161
 21
107.6041219576015067
 31
0.0
  0
ARC
  5
33A7D
  8
0
 10
7286.9152627445246253
 20
107.5655397145419983
 30
0.0
 40
0.064381495932376
 50
112.1973772587245008
 51
143.1819844764580125
  0
ARC
  5
33A7E
  8
0
 10
7266.8303724355810118
 20
156.7885017282227125
 30
0.0
 40
53.0986019429473117
 50
292.1973772587244866
 51
292.2179336141152817
  0
ARC
  5
33A7F
  8
0
 10
7286.9173481943698789
 20
107.6108758977857036
 30
0.0
 40
0.0231965719062132
 50
90.9790427603337832
 51
112.2179336141154948
  0
ARC
  5
33A80
  8
0
 10
7286.9171104478273264
 20
107.6247880049118066
 30
0.0
 40
0.0092824334812721
 50
56.3643708463127524
 51
90.9790427603337832
  0
ARC
  5
33A81
  8
0
 10
7287.1542811344334041
 20
107.8922640673698936
 30
0.0
 40
0.348290631055942
 50
228.2260241126433016
 51
241.2464168234052977
  0
ARC
  5
33A82
  8
0
 10
7286.9818894937488949
 20
107.5818347171112066
 30
0.0
 40
0.0070255056964719
 50
1.7005787354681601
 51
46.3579035624887723
  0
ARC
  5
33A83
  8
0
 10
7283.8205883466398518
 20
107.4138332458642964
 30
0.0
 40
3.1727856471577831
 50
2.6392732119853211
 51
3.0390459950351301
  0
ARC
  5
33A84
  8
0
 10
7286.962017784904674
 20
107.5589355113020957
 30
0.0
 40
0.02800840886077
 50
351.0326506669937885
 51
2.0405211969387769
  0
ARC
  5
33A85
  8
0
 10
7287.8916713105027156
 20
107.3804963664107959
 30
0.0
 40
0.9186310068470195
 50
169.076847725681688
 51
171.3600497989700102
  0
LINE
  5
33A86
  8
0
 10
7286.9506831887247245
 20
107.5323729333483982
 30
0.0
 11
7286.9532302046982295
 21
107.5408200046014997
 31
0.0
  0
ARC
  5
33A87
  8
0
 10
7287.0502138907004337
 20
107.5115768515659056
 30
0.0
 40
0.1012965811363283
 50
150.4924553972404055
 51
163.2205482551842977
  0
ARC
  5
33A88
  8
0
 10
7287.0204099498359938
 20
107.5284442911402039
 30
0.0
 40
0.0670506265023151
 50
141.1326674537478993
 51
150.4924553972410877
  0
ARC
  5
33A89
  8
0
 10
7287.9540947632849566
 20
106.7759341636901951
 30
0.0
 40
1.2662331909101241
 50
140.4042928270226867
 51
141.1326674537478993
  0
ARC
  5
33A8A
  8
0
 10
7286.9937419990801573
 20
107.5702858744143953
 30
0.0
 40
0.0199298281428664
 50
125.3940107055376956
 51
140.4042928270220045
  0
ARC
  5
33A8B
  8
0
 10
7286.9850806920330797
 20
107.5824762159009964
 30
0.0
 40
0.0049758097763188
 50
80.639945100832648
 51
125.3940107055367008
  0
ARC
  5
33A8C
  8
0
 10
7287.1521175959342145
 20
107.9032977012228969
 30
0.0
 40
0.3643631250866202
 50
228.045520360978287
 51
241.5258838669159047
  0
ARC
  5
33A8D
  8
0
 10
7287.1455685805340181
 20
107.9040016417414023
 30
0.0
 40
0.3776529569243867
 50
227.5971276756816053
 51
241.995240182436504
  0
ARC
  5
33A8E
  8
0
 10
7287.1371973707409779
 20
107.8970597061658054
 30
0.0
 40
0.4008002692865726
 50
226.9687875022003993
 51
242.6839108900572057
  0
LINE
  5
33A8F
  8
0
 10
7287.0429352021983505
 20
107.4986039717446005
 30
0.0
 11
7287.0447492814982979
 21
107.5034672257013995
 31
0.0
  0
ARC
  5
33A90
  8
0
 10
7287.1521722952566051
 20
107.4633965513740037
 30
0.0
 40
0.1146532285902673
 50
142.8101728634790959
 51
159.5435995845980131
  0
ARC
  5
33A91
  8
0
 10
7287.24084569129991
 20
107.3961145918058975
 30
0.0
 40
0.2259628564268241
 50
138.7267876763501988
 51
142.8101728634798064
  0
ARC
  5
33A92
  8
0
 10
7287.0957741839565642
 20
107.5234429008084049
 30
0.0
 40
0.0329389187503391
 50
129.9755711835825878
 51
138.7267876763501988
  0
ARC
  5
33A93
  8
0
 10
7287.0775228808752217
 20
107.5452128002327044
 30
0.0
 40
0.0045304942053468
 50
83.3692417015609237
 51
129.9755711835836962
  0
ARC
  5
33A94
  8
0
 10
7287.2166721482162757
 20
108.0395190081090959
 30
0.0
 40
0.50904532165214
 50
254.1972927867720955
 51
264.358651136813819
  0
ARC
  5
33A95
  8
0
 10
7286.1556756033833153
 20
107.4480860104771978
 30
0.0
 40
1.014511587275654
 50
1.612039715981946
 51
4.7977887986614309
  0
LINE
  5
33A96
  8
0
 10
7287.1666324311981953
 20
107.5329391366014988
 30
0.0
 11
7287.1663776811046773
 21
107.5127033608382021
 31
0.0
  0
LINE
  5
33A97
  8
0
 10
7287.1663776811046773
 20
107.5127033608382021
 30
0.0
 11
7287.1670919289172161
 21
107.4768200361261989
 31
0.0
  0
ARC
  5
33A98
  8
0
 10
7287.2162915444923783
 20
108.0517431148507939
 30
0.0
 40
0.5269972723371775
 50
253.9979931707995888
 51
264.5849482966663118
  0
ARC
  5
33A99
  8
0
 10
7287.2164519075640783
 20
108.0665984660257948
 30
0.0
 40
0.5561358722015882
 50
253.7492694208071953
 51
264.8341409460496152
  0
LINE
  5
33A9A
  8
0
 10
7286.5786279654203099
 20
107.7959637467094041
 30
0.0
 11
7286.5475696275980226
 21
107.5662952413015034
 31
0.0
  0
ARC
  5
33A9B
  8
0
 10
7286.8811123474260967
 20
107.5248116869504003
 30
0.0
 40
0.3361125276335669
 50
172.9103842552283083
 51
189.6851120085740945
  0
ARC
  5
33A9C
  8
0
 10
7286.9227312892799091
 20
107.5319146130274959
 30
0.0
 40
0.3783332320324276
 50
189.6851120085740945
 51
221.8149497614955123
  0
ARC
  5
33A9D
  8
0
 10
7287.1131888638428791
 20
107.7022927807161068
 30
0.0
 40
0.6338773725116251
 50
221.8149497614955123
 51
245.8162088259587108
  0
ARC
  5
33A9E
  8
0
 10
7287.2458846982581235
 20
108.0934737431481949
 30
0.0
 40
1.0458226184420409
 50
247.9644749716763101
 51
268.5740563425944742
  0
ARC
  5
33A9F
  8
0
 10
7287.1710286858869949
 20
105.9385710918883063
 30
0.0
 40
2.7627568286667148
 50
97.3338829386448623
 51
113.1399180093902004
  0
ARC
  5
33AA0
  8
0
 10
7286.9469231253633552
 20
106.4629665476838056
 30
0.0
 40
2.192481547493994
 50
113.1399180093898025
 51
128.0776206550216045
  0
ARC
  5
33AA1
  8
0
 10
7286.5918283103237627
 20
106.9162002248319965
 30
0.0
 40
1.616709809937293
 50
128.0776206550216045
 51
150.056056233038305
  0
ARC
  5
33AA2
  8
0
 10
7286.175730024884615
 20
107.1558921930685955
 30
0.0
 40
1.1365119103358681
 50
150.056056233038305
 51
170.3363155748266138
  0
ARC
  5
33AA3
  8
0
 10
7286.1940084270936495
 20
107.1527797311060937
 30
0.0
 40
1.1550534153108101
 50
170.3363155748266138
 51
197.6212343014622945
  0
ARC
  5
33AA4
  8
0
 10
7286.2968148871914309
 20
107.1854338011364973
 30
0.0
 40
1.2629211886607901
 50
197.6212343014622945
 51
226.1022804848093983
  0
ARC
  5
33AA5
  8
0
 10
7287.013843185868609
 20
107.930595807498193
 30
0.0
 40
2.2970372347742982
 50
226.1022804848093983
 51
243.338174054979504
  0
ARC
  5
33AA6
  8
0
 10
7287.0448309006178533
 20
107.9923104206152971
 30
0.0
 40
2.3660946886626322
 50
243.338174054979504
 51
260.6383394806468914
  0
ARC
  5
33AA7
  8
0
 10
7287.288399222758926
 20
109.4112809512026985
 30
0.0
 40
3.8057983768308028
 50
260.4952222051463764
 51
268.9680889709375151
  0
ARC
  5
33AA8
  8
0
 10
7286.2596265905558539
 20
106.7657768334130992
 30
0.0
 40
1.2731855749619061
 50
182.0871450797924922
 51
220.1623370051318886
  0
ARC
  5
33AA9
  8
0
 10
7286.784595802208969
 20
107.2088190188081995
 30
0.0
 40
1.9601201069389
 50
220.1623370051318886
 51
239.9445253367275939
  0
ARC
  5
33AAA
  8
0
 10
7287.0837812153513369
 20
107.7258665909387929
 30
0.0
 40
2.5574894259400192
 50
239.9445253367275939
 51
258.2079100574454742
  0
ARC
  5
33AAB
  8
0
 10
7287.3464358429700951
 20
109.4022543673260941
 30
0.0
 40
4.2530334360985398
 50
259.3595074535675167
 51
268.294544928956725
  0
ARC
  5
33AAC
  8
0
 10
7310.8354948465121197
 20
103.7659524065688004
 30
0.0
 40
26.0264718036382305
 50
172.3163246508264876
 51
173.2902194666432081
  0
LINE
  5
33AAD
  8
0
 10
7286.50898773359404
 20
108.8639737842404003
 30
0.0
 11
7286.50898773359404
 21
108.6208326510636937
 31
0.0
  0
LINE
  5
33AAE
  8
0
 10
7286.8183595668979251
 20
108.8565614637137031
 30
0.0
 11
7286.1375943008715694
 21
108.872872096460398
 31
0.0
  0
LINE
  5
33AAF
  8
0
 10
7289.4524334742018254
 20
106.7194080541851946
 30
0.0
 11
7289.4524334742018254
 21
106.8068924544562037
 31
0.0
  0
LINE
  5
33AB0
  8
0
 10
7287.6529304329969818
 20
107.9797641887070938
 30
0.0
 11
7287.6529304329969818
 21
108.4703178645757049
 31
0.0
  0
LINE
  5
33AB1
  8
0
 10
7287.6291380961965842
 20
109.6099630508948053
 30
0.0
 11
7287.6291380961965842
 21
109.9906151139716002
 31
0.0
  0
LINE
  5
33AB2
  8
0
 10
7287.6213595668978087
 20
108.4375120060000057
 30
0.0
 11
7287.6213595668978087
 21
109.3155971768793933
 31
0.0
  0
LINE
  5
33AB3
  8
0
 10
7287.6213595668978087
 20
110.3505206948654944
 30
0.0
 11
7287.6213595668978087
 21
112.8703328414307947
 31
0.0
  0
ARC
  5
33AB4
  8
0
 10
7287.6529304329969818
 20
114.390821545701499
 30
0.0
 40
1.5033188069000629
 50
270.0
 51
297.9357011695199731
  0
ARC
  5
33AB5
  8
0
 10
7288.3203364220171352
 20
113.1322080264695984
 30
0.0
 40
0.0787
 50
297.9357011695664141
 51
358.9999999811703901
  0
LINE
  5
33AB6
  8
0
 10
7288.3990244356264157
 20
113.1308345220570999
 30
0.0
 11
7288.4007522784359026
 21
113.2298275091015967
 31
0.0
  0
ARC
  5
33AB7
  8
0
 10
7288.3889540756317729
 20
113.2300334475014978
 30
0.0
 40
0.0118
 50
358.9999999811532803
 51
90.0
  0
ARC
  5
33AB8
  8
0
 10
7191.6560905580281542
 20
108.9775134160117034
 30
0.0
 40
96.0441924273595191
 50
2.3229227316491108
 51
2.3320437234448281
  0
ARC
  5
33AB9
  8
0
 10
7287.6198126426206727
 20
112.8853219927026004
 30
0.0
 40
0.0009696503113352
 50
17.256018299566481
 51
67.8791433838668041
  0
ARC
  5
33ABA
  8
0
 10
7287.9315352780367903
 20
113.4873845651970043
 30
0.0
 40
0.6770096053942787
 50
242.3842014803423979
 51
242.6192703174357916
  0
ARC
  5
33ABB
  8
0
 10
7287.1443869556842401
 20
112.2050033365323998
 30
0.0
 40
1.2290620435456101
 50
358.6760754295859783
 51
3.4358208869889428
  0
ARC
  5
33ABC
  8
0
 10
1686.0243160218099092
 20
164.8105437924720889
 30
0.0
 40
5602.5960467367949605
 50
359.4325293135185007
 51
359.4617233110762982
  0
LINE
  5
33ABD
  8
0
 10
7288.3258759770287725
 20
109.3025356731015023
 30
0.0
 11
7287.6213595668978087
 21
109.3025356731015023
 31
0.0
  0
LINE
  5
33ABE
  8
0
 10
7288.3182847636971928
 20
109.2828506337015
 30
0.0
 11
7287.6213595668978087
 21
109.2828506337008037
 31
0.0
  0
ARC
  5
33ABF
  8
0
 10
7288.3258759770287725
 20
109.3222356731024973
 30
0.0
 40
0.0197
 50
270.0000000012507257
 51
359.4325293156157954
  0
LINE
  5
33AC0
  8
0
 10
7288.3434398247272838
 20
109.2468328185129991
 30
0.0
 11
7288.337519441332006
 21
108.9076542812720021
 31
0.0
  0
LINE
  5
33AC1
  8
0
 10
7288.3021248329232549
 20
108.872872096460398
 30
0.0
 11
7287.6213595668978087
 21
108.872872096460398
 31
0.0
  0
ARC
  5
33AC2
  8
0
 10
7288.3021248329232549
 20
108.9082720964603936
 30
0.0
 40
0.0354
 50
270.0
 51
358.9999999990566835
  0
ARC
  5
33AC3
  8
0
 10
7288.3080452163203518
 20
109.2474506337015043
 30
0.0
 40
0.0354
 50
358.9999999990387778
 51
90.0000000000521254
  0
LINE
  5
33AC4
  8
0
 10
7288.3182847636971928
 20
109.3025356731015023
 30
0.0
 11
7288.3182847636971928
 21
109.2828506337015
 31
0.0
  0
LINE
  5
33AC5
  8
0
 10
7290.4501017007478367
 20
112.3731416800180938
 30
0.0
 11
7290.4649149059287083
 21
113.2217896350939981
 31
0.0
  0
LINE
  5
33AC6
  8
0
 10
7290.3871112959523089
 20
112.3112411816256042
 30
0.0
 11
7287.6213595668978087
 21
112.3112411816256042
 31
0.0
  0
ARC
  5
33AC7
  8
0
 10
7290.4452179063346193
 20
113.2221334475014061
 30
0.0
 40
0.0197
 50
358.9999999982734948
 51
90.0
  0
ARC
  5
33AC8
  8
0
 10
7290.3871112959523089
 20
112.3742411816256066
 30
0.0
 40
0.063
 50
270.0
 51
358.9999999982686063
  0
LINE
  5
33AC9
  8
0
 10
7287.6213595668978087
 20
112.2786615826949941
 30
0.0
 11
7288.4089649736652063
 21
112.2786615826949941
 31
0.0
  0
ARC
  5
33ACA
  8
0
 10
7287.2390675233464208
 20
243.3818866170626904
 30
0.0
 40
131.1084447106908897
 50
270.5112643664072039
 51
271.3758607093041064
  0
ARC
  5
33ACB
  8
0
 10
7323.5836081361676406
 20
110.9477249319273966
 30
0.0
 40
35.9672069399155276
 50
180.9513903821143117
 51
181.5248564428474936
  0
ARC
  5
33ACC
  8
0
 10
7328.3648422418045811
 20
108.3862486644715943
 30
0.0
 40
40.7540803986299096
 50
178.2793327905378931
 51
178.6933243752291105
  0
ARC
  5
33ACD
  8
0
 10
7287.4107437032207599
 20
108.4435044256275944
 30
0.0
 40
0.2107010942670422
 50
336.137700195471723
 51
358.3702663844488256
  0
ARC
  5
33ACE
  8
0
 10
7287.3704309042032037
 20
108.4616215306076015
 30
0.0
 40
0.2548971940836049
 50
316.4740981399094721
 51
336.0791845247891843
  0
ARC
  5
33ACF
  8
0
 10
7287.2952905354341055
 20
108.5329916648772013
 30
0.0
 40
0.3585300609001223
 50
296.05200659265779
 51
316.4740981399094721
  0
ARC
  5
33AD0
  8
0
 10
7287.2278831866506152
 20
108.6708794126235063
 30
0.0
 40
0.5120122476466247
 50
279.3921562549186888
 51
296.05200659265779
  0
ARC
  5
33AD1
  8
0
 10
7287.2013863956281057
 20
108.9483647894401059
 30
0.0
 40
0.790333665560786
 50
271.3393471581924814
 51
278.004344442600825
  0
ARC
  5
33AD2
  8
0
 10
7287.2165737039431406
 20
108.8042807126596045
 30
0.0
 40
0.6989475775326782
 50
270.2693575010159179
 51
273.5318983898578153
  0
ARC
  5
33AD3
  8
0
 10
7287.3960744509777214
 20
108.3655616928732002
 30
0.0
 40
0.2773965591159463
 50
22.187605370914099
 51
35.6943575995164721
  0
ARC
  5
33AD4
  8
0
 10
7287.3587480730811876
 20
108.4245865073368975
 30
0.0
 40
0.3094998551616643
 50
303.2987025899846003
 51
341.8987359868208955
  0
ARC
  5
33AD5
  8
0
 10
7287.2317922053844086
 20
108.6178678823565065
 30
0.0
 40
0.5407475195221806
 50
286.9226336856921193
 51
303.2987025899846003
  0
ARC
  5
33AD6
  8
0
 10
7287.2196829494905614
 20
108.6978987544214021
 30
0.0
 40
0.6209481466687078
 50
270.0162967425230249
 51
285.8420259743833753
  0
ARC
  5
33AD7
  8
0
 10
7287.3372138164741045
 20
108.0985700985196019
 30
0.0
 40
0.3373304406011661
 50
311.5757156238626067
 51
339.378403495845987
  0
ARC
  5
33AD8
  8
0
 10
7287.2612177250121022
 20
108.1842396641126953
 30
0.0
 40
0.4518497856322015
 50
288.1172533491925947
 51
311.5757156238626067
  0
ARC
  5
33AD9
  8
0
 10
7287.1797245503339582
 20
108.5469032729095034
 30
0.0
 40
0.8226333093714815
 50
272.7964833105780258
 51
285.6563523415267127
  0
ARC
  5
33ADA
  8
0
 10
7287.3961288217151377
 20
107.7310655825132955
 30
0.0
 40
0.4825166654177101
 50
31.403451942166221
 51
57.8449036957597187
  0
ARC
  5
33ADB
  8
0
 10
7287.4977711876372268
 20
107.7933597837607067
 30
0.0
 40
0.3633039105937216
 50
8.5336487123507982
 51
31.3707384703632997
  0
ARC
  5
33ADC
  8
0
 10
7287.5331404177850345
 20
107.7959637467094041
 30
0.0
 40
0.3279507505907
 50
335.9646672175318258
 51
9.0007044437923795
  0
ARC
  5
33ADD
  8
0
 10
7287.3785080942579953
 20
107.8848939908764066
 30
0.0
 40
0.5057258340161228
 50
294.0205696937189828
 51
333.8979869091668888
  0
ARC
  5
33ADE
  8
0
 10
7287.1880605334754364
 20
108.3554426109596989
 30
0.0
 40
1.0132017905149071
 50
271.7985061424175797
 51
293.0258755331598195
  0
ARC
  5
33ADF
  8
0
 10
7287.4479359941169605
 20
107.8099991082295048
 30
0.0
 40
0.2541732694748186
 50
354.089258624135482
 51
38.1466169454402504
  0
ARC
  5
33AE0
  8
0
 10
7287.4290691369988053
 20
107.8206352099550003
 30
0.0
 40
0.2741711822921862
 50
316.5051550323219089
 51
352.2840859673308955
  0
ARC
  5
33AE1
  8
0
 10
7287.3103714720518838
 20
107.9284811162195012
 30
0.0
 40
0.4345217613240527
 50
295.229145418811072
 51
316.961788778852906
  0
ARC
  5
33AE2
  8
0
 10
7287.2257370565357633
 20
108.1087739628578959
 30
0.0
 40
0.6336911325899311
 50
269.468573629068203
 51
295.2032172037128817
  0
ARC
  5
33AE3
  8
0
 10
7287.6197953280507136
 20
107.9004260318401975
 30
0.0
 40
0.0184208829734979
 50
60.5991315918661613
 51
81.3988339638361111
  0
ARC
  5
33AE4
  8
0
 10
7286.9287431547827509
 20
106.6740494609516929
 30
0.0
 40
1.426097195128661
 50
59.20151359347485
 51
60.5991315918661613
  0
ARC
  5
33AE5
  8
0
 10
7287.4333539883045887
 20
107.7553998602125063
 30
0.0
 40
0.2674239054917456
 50
9.021765358281657
 51
32.4853766099610723
  0
LINE
  5
33AE6
  8
0
 10
7287.697469550797905
 20
107.7973345103014964
 30
0.0
 11
7287.6624491097381906
 21
107.8292403436935984
 31
0.0
  0
ARC
  5
33AE7
  8
0
 10
7287.6322163601225839
 20
107.7960563107632055
 30
0.0
 40
0.0448909700361443
 50
47.6645022821089626
 51
92.1395352405211554
  0
ARC
  5
33AE8
  8
0
 10
7287.6203581036843389
 20
108.1134674015078048
 30
0.0
 40
0.2727415515567081
 50
267.8604400009173219
 51
272.139535240521127
  0
ARC
  5
33AE9
  8
0
 10
7287.6094398192699373
 20
107.8212200175074997
 30
0.0
 40
0.0197097134251535
 50
87.8604400009173077
 51
164.7965679250281994
  0
ARC
  5
33AEA
  8
0
 10
7289.7851416103176234
 20
107.8380136659742021
 30
0.0
 40
2.1947524665780751
 50
180.3034771074821094
 51
180.8845442915732065
  0
ARC
  5
33AEB
  8
0
 10
7287.602755116676235
 20
107.8055334140423014
 30
0.0
 40
0.0121852913601544
 50
186.6043052639739983
 51
215.6496561247919033
  0
ARC
  5
33AEC
  8
0
 10
7287.369623690357912
 20
107.6578634303959063
 30
0.0
 40
0.2638008385270123
 50
24.0286005320781086
 51
32.1986789417852179
  0
ARC
  5
33AED
  8
0
 10
7287.3956428399387732
 20
107.763556645029098
 30
0.0
 40
0.1991843771811902
 50
11.7538375883175998
 51
27.7452865817952592
  0
ARC
  5
33AEE
  8
0
 10
7287.3957705948978401
 20
107.7871239491013995
 30
0.0
 40
0.1985701253002274
 50
11.4047209198720108
 51
22.601262404093351
  0
ARC
  5
33AEF
  8
0
 10
7287.4052832403967841
 20
107.8010175218013984
 30
0.0
 40
0.2087409629003033
 50
11.0192427340333694
 51
23.2617619443900594
  0
ARC
  5
33AF0
  8
0
 10
7287.40976205638799
 20
107.7994538205700934
 30
0.0
 40
0.2246563912816045
 50
10.6355517762199696
 51
26.7623325907213889
  0
ARC
  5
33AF1
  8
0
 10
7287.4194828436902753
 20
107.7873085557178001
 30
0.0
 40
0.2459213425812815
 50
9.978512182486293
 51
31.7041022235324803
  0
LINE
  5
33AF2
  8
0
 10
7287.697469550797905
 20
107.7973345103014964
 30
0.0
 11
7287.6976663700834251
 21
107.7656319047906948
 31
0.0
  0
LINE
  5
33AF3
  8
0
 10
7287.6969167867919168
 20
107.7620905799703053
 30
0.0
 11
7287.6779020237981968
 21
107.7610166102014944
 31
0.0
  0
LINE
  5
33AF4
  8
0
 10
7287.6779020237981968
 20
107.7610166102014944
 30
0.0
 11
7287.6780196882145901
 21
107.7415869739937051
 31
0.0
  0
ARC
  5
33AF5
  8
0
 10
7287.4478843226579556
 20
107.7016438961073987
 30
0.0
 40
0.2410935520434754
 50
7.7833950639748668
 51
14.3064069599872301
  0
LINE
  5
33AF6
  8
0
 10
7287.6887364537587928
 20
107.7326424727227021
 30
0.0
 11
7287.661596623497644
 21
107.755294106301406
 31
0.0
  0
ARC
  5
33AF7
  8
0
 10
7287.6317759362582365
 20
107.7158427223081958
 30
0.0
 40
0.0494538682660768
 50
52.9149328846076017
 51
91.4303232853030323
  0
ARC
  5
33AF8
  8
0
 10
7287.6200970209310981
 20
-13692.1132341205793637
 30
0.0
 40
13799.8785153062399331
 50
89.9999566355003964
 51
90.000041192546135
  0
ARC
  5
33AF9
  8
0
 10
7287.6086155071570829
 20
107.7440082679183035
 30
0.0
 40
0.0213300478263289
 50
85.8054563774848447
 51
138.8001700980242106
  0
ARC
  5
33AFA
  8
0
 10
7287.5990687031826383
 20
107.7523658129552047
 30
0.0
 40
0.0086418633551702
 50
138.8001700980248074
 51
174.6380826504887125
  0
ARC
  5
33AFB
  8
0
 10
7287.3921550275526897
 20
107.7951315999416977
 30
0.0
 40
0.202699781468191
 50
330.0205327732668934
 51
348.0535769588208268
  0
ARC
  5
33AFC
  8
0
 10
7287.8316764465826054
 20
107.6694446488746024
 30
0.0
 40
0.2650673721283294
 50
174.7183332225773995
 51
180.057081017036694
  0
ARC
  5
33AFD
  8
0
 10
7287.5829430298135776
 20
107.6691837749614962
 30
0.0
 40
0.0163338241297796
 50
180.0112244672118891
 51
204.0957670172851124
  0
ARC
  5
33AFE
  8
0
 10
7287.2019514842313583
 20
107.505581051702606
 30
0.0
 40
0.3983009358090776
 50
13.0923738391965205
 51
23.2041937546715715
  0
LINE
  5
33AFF
  8
0
 10
7287.6424233189127335
 20
107.6484439492612069
 30
0.0
 11
7287.628838438897219
 21
107.668826612401503
 31
0.0
  0
ARC
  5
33B00
  8
0
 10
7287.5796876067433914
 20
107.6360679805737988
 30
0.0
 40
0.0590671842965141
 50
33.6831348751244093
 51
67.5326166626103515
  0
ARC
  5
33B01
  8
0
 10
7286.7992458774806437
 20
105.7488770598574064
 30
0.0
 40
2.1012667005066281
 50
67.5326166626103515
 51
68.1135785254436428
  0
ARC
  5
33B02
  8
0
 10
7287.5777571912076382
 20
107.6838073499394
 30
0.0
 40
0.0156333938345993
 50
72.2216571667524647
 51
121.4719940966476059
  0
ARC
  5
33B03
  8
0
 10
7287.3977891526337771
 20
107.8073961875647058
 30
0.0
 40
0.216542995773355
 50
329.6147364187310131
 51
348.7851868106828874
  0
ARC
  5
33B04
  8
0
 10
7287.406062393427419
 20
107.8079495643593049
 30
0.0
 40
0.228540704784602
 50
329.1250069539498213
 51
349.240051942264472
  0
ARC
  5
33B05
  8
0
 10
7287.4186258762292709
 20
107.7981203630369009
 30
0.0
 40
0.246767809910523
 50
328.4084724016332757
 51
349.9967885678930202
  0
LINE
  5
33B06
  8
0
 10
7287.5851605154712161
 20
107.5918802506808021
 30
0.0
 11
7287.5759965438974177
 21
107.6041219576015067
 31
0.0
  0
ARC
  5
33B07
  8
0
 10
7287.524456389270199
 20
107.5655397145419983
 30
0.0
 40
0.064381495932376
 50
36.8180155235419804
 51
67.8026227412755276
  0
ARC
  5
33B08
  8
0
 10
7307.6093466982156315
 20
156.7885017282227125
 30
0.0
 40
53.0986019429473117
 50
247.7820663858846899
 51
247.8026227412755986
  0
ARC
  5
33B09
  8
0
 10
7287.5223709394249454
 20
107.6108758977857036
 30
0.0
 40
0.0231965719062132
 50
67.7820663858844341
 51
89.0209572396662168
  0
ARC
  5
33B0A
  8
0
 10
7287.5226086859702264
 20
107.6247880049118066
 30
0.0
 40
0.0092824334812721
 50
89.0209572396662168
 51
123.635629153687205
  0
ARC
  5
33B0B
  8
0
 10
7287.2854379993641487
 20
107.8922640673698936
 30
0.0
 40
0.348290631055942
 50
298.7535831765947023
 51
311.7739758873565847
  0
ARC
  5
33B0C
  8
0
 10
7287.4578296400468389
 20
107.5818347171112066
 30
0.0
 40
0.0070255056964719
 50
133.6420964375112135
 51
178.2994212645317873
  0
ARC
  5
33B0D
  8
0
 10
7290.6191307871549725
 20
107.4138332458642964
 30
0.0
 40
3.1727856471577831
 50
176.9609540049648899
 51
177.3607267880146878
  0
ARC
  5
33B0E
  8
0
 10
7287.4777013488901503
 20
107.5589355113020957
 30
0.0
 40
0.02800840886077
 50
177.959478803061188
 51
188.9673493330060978
  0
ARC
  5
33B0F
  8
0
 10
7286.5480478232921087
 20
107.3804963664107959
 30
0.0
 40
0.9186310068470195
 50
8.6399502010299614
 51
10.9231522743182907
  0
LINE
  5
33B10
  8
0
 10
7287.4890359450700998
 20
107.5323729333483982
 30
0.0
 11
7287.4864889290965948
 21
107.5408200046014997
 31
0.0
  0
ARC
  5
33B11
  8
0
 10
7287.3895052430971191
 20
107.5115768515659056
 30
0.0
 40
0.1012965811363283
 50
16.7794517448157308
 51
29.5075446027595909
  0
ARC
  5
33B12
  8
0
 10
7287.41930918395974
 20
107.5284442911402039
 30
0.0
 40
0.0670506265023151
 50
29.5075446027588804
 51
38.8673325462521007
  0
ARC
  5
33B13
  8
0
 10
7286.4856243705098677
 20
106.7759341636901951
 30
0.0
 40
1.2662331909101241
 50
38.8673325462521007
 51
39.5957071729773276
  0
ARC
  5
33B14
  8
0
 10
7287.445977134714667
 20
107.5702858744143953
 30
0.0
 40
0.0199298281428664
 50
39.5957071729779528
 51
54.6059892944623115
  0
ARC
  5
33B15
  8
0
 10
7287.4546384417617446
 20
107.5824762159009964
 30
0.0
 40
0.0049758097763188
 50
54.6059892944632495
 51
99.3600548991673378
  0
ARC
  5
33B16
  8
0
 10
7287.2876015378606098
 20
107.9032977012228969
 30
0.0
 40
0.3643631250866202
 50
298.4741161330841237
 51
311.954479639021713
  0
ARC
  5
33B17
  8
0
 10
7287.2941505532617157
 20
107.9040016417414023
 30
0.0
 40
0.3776529569243867
 50
298.0047598175635244
 51
312.4028723243184231
  0
ARC
  5
33B18
  8
0
 10
7287.3025217630556654
 20
107.8970597061658054
 30
0.0
 40
0.4008002692865726
 50
297.3160891099423111
 51
313.0312124977995722
  0
LINE
  5
33B19
  8
0
 10
7287.3967839315973833
 20
107.4986039717446005
 30
0.0
 11
7287.3949698522974359
 21
107.5034672257013995
 31
0.0
  0
ARC
  5
33B1A
  8
0
 10
7287.2875468385382192
 20
107.4633965513740037
 30
0.0
 40
0.1146532285902673
 50
20.4564004154019905
 51
37.1898271365208473
  0
ARC
  5
33B1B
  8
0
 10
7287.1988734424958238
 20
107.3961145918058975
 30
0.0
 40
0.2259628564268241
 50
37.1898271365208473
 51
41.2732123236497515
  0
ARC
  5
33B1C
  8
0
 10
7287.3439449498382601
 20
107.5234429008084049
 30
0.0
 40
0.0329389187503391
 50
41.2732123236497515
 51
50.0244288164173128
  0
ARC
  5
33B1D
  8
0
 10
7287.3621962529196026
 20
107.5452128002327044
 30
0.0
 40
0.0045304942053468
 50
50.0244288164162683
 51
96.6307582984391047
  0
ARC
  5
33B1E
  8
0
 10
7287.2230469855803676
 20
108.0395190081090959
 30
0.0
 40
0.50904532165214
 50
275.641348863186181
 51
285.8027072132279045
  0
ARC
  5
33B1F
  8
0
 10
7288.2840435304124185
 20
107.4480860104771978
 30
0.0
 40
1.014511587275654
 50
175.202211201338514
 51
178.3879602840179928
  0
LINE
  5
33B20
  8
0
 10
7287.273086702596629
 20
107.5329391366014988
 30
0.0
 11
7287.273341452690147
 21
107.5127033608382021
 31
0.0
  0
LINE
  5
33B21
  8
0
 10
7287.273341452690147
 20
107.5127033608382021
 30
0.0
 11
7287.2726272048776082
 21
107.4768200361261989
 31
0.0
  0
ARC
  5
33B22
  8
0
 10
7287.2234275893033555
 20
108.0517431148507939
 30
0.0
 40
0.5269972723371775
 50
275.4150517033338019
 51
286.0020068292005249
  0
ARC
  5
33B23
  8
0
 10
7287.223267226230746
 20
108.0665984660257948
 30
0.0
 40
0.5561358722015882
 50
275.1658590539503848
 51
286.2507305791928047
  0
LINE
  5
33B24
  8
0
 10
7287.8610911683754239
 20
107.7959637467094041
 30
0.0
 11
7287.8921495061968017
 21
107.5662952413015034
 31
0.0
  0
ARC
  5
33B25
  8
0
 10
7287.5586067863687276
 20
107.5248116869504003
 30
0.0
 40
0.3361125276335669
 50
350.3148879914259055
 51
7.0896157447717201
  0
ARC
  5
33B26
  8
0
 10
7287.5169878445149152
 20
107.5319146130274959
 30
0.0
 40
0.3783332320324276
 50
318.1850502385044024
 51
350.3148879914259055
  0
ARC
  5
33B27
  8
0
 10
7287.3265302699519452
 20
107.7022927807161068
 30
0.0
 40
0.6338773725116251
 50
294.1837911740408913
 51
318.1850502385044024
  0
ARC
  5
33B28
  8
0
 10
7287.1938344355367008
 20
108.0934737431481949
 30
0.0
 40
1.0458226184420409
 50
271.4259436574055258
 51
292.0355250283237183
  0
ARC
  5
33B29
  8
0
 10
7287.2686904479087389
 20
105.9385710918883063
 30
0.0
 40
2.7627568286667148
 50
66.8600819906098138
 51
82.6661170613551235
  0
ARC
  5
33B2A
  8
0
 10
7287.4927960084323786
 20
106.4629665476838056
 30
0.0
 40
2.192481547493994
 50
51.9223793449783528
 51
66.8600819906101407
  0
ARC
  5
33B2B
  8
0
 10
7287.8478908234710616
 20
106.9162002248319965
 30
0.0
 40
1.616709809937293
 50
29.9439437669616701
 51
51.9223793449783528
  0
ARC
  5
33B2C
  8
0
 10
7288.2639891089102093
 20
107.1558921930685955
 30
0.0
 40
1.1365119103358681
 50
9.6636844251734288
 51
29.9439437669616701
  0
ARC
  5
33B2D
  8
0
 10
7288.2457107067029938
 20
107.1527797311060937
 30
0.0
 40
1.1550534153108101
 50
342.3787656985376771
 51
9.6636844251734288
  0
ARC
  5
33B2E
  8
0
 10
7288.1429042466043029
 20
107.1854338011364973
 30
0.0
 40
1.2629211886607901
 50
313.8977195151906017
 51
342.3787656985376771
  0
ARC
  5
33B2F
  8
0
 10
7287.4258759479262153
 20
107.930595807498193
 30
0.0
 40
2.2970372347742982
 50
296.661825945020496
 51
313.8977195151906017
  0
ARC
  5
33B30
  8
0
 10
7287.394888233176971
 20
107.9923104206152971
 30
0.0
 40
2.3660946886626322
 50
279.3616605193529949
 51
296.661825945020496
  0
ARC
  5
33B31
  8
0
 10
7287.1513199110358983
 20
109.4112809512026985
 30
0.0
 40
3.8057983768308028
 50
271.0319110290625986
 51
279.5047777948536236
  0
ARC
  5
33B32
  8
0
 10
7288.1800925432389704
 20
106.7657768334130992
 30
0.0
 40
1.2731855749619061
 50
319.8376629948680829
 51
357.9128549202073941
  0
ARC
  5
33B33
  8
0
 10
7287.6551233315858553
 20
107.2088190188081995
 30
0.0
 40
1.9601201069389
 50
300.0554746632723777
 51
319.8376629948680829
  0
ARC
  5
33B34
  8
0
 10
7287.3559379184443969
 20
107.7258665909387929
 30
0.0
 40
2.5574894259400192
 50
281.7920899425542984
 51
300.0554746632723777
  0
ARC
  5
33B35
  8
0
 10
7287.0932832908247292
 20
109.4022543673260941
 30
0.0
 40
4.2530334360985398
 50
271.705455071043275
 51
280.6404925464324833
  0
ARC
  5
33B36
  8
0
 10
7263.6042242872827046
 20
103.7659524065688004
 30
0.0
 40
26.0264718036382305
 50
6.7097805333567626
 51
7.6836753491734884
  0
LINE
  5
33B37
  8
0
 10
7287.9307314002026033
 20
108.8639737842404003
 30
0.0
 11
7287.9307314002026033
 21
108.6208326510636937
 31
0.0
  0
LINE
  5
33B38
  8
0
 10
7287.6213595668978087
 20
108.8565614637137031
 30
0.0
 11
7288.3021248329232549
 21
108.872872096460398
 31
0.0
  0
ARC
  5
33B3A
  8
0
 10
7287.2035282754650325
 20
108.6202532577463984
 30
0.0
 40
0.5166477983101827
 50
276.2341271824307114
 51
294.4849298943926783
  0
ARC
  5
33B3B
  8
0
 10
7287.2623088989139433
 20
108.5231564140138971
 30
0.0
 40
0.4041383264043904
 50
292.6057736301855243
 51
310.7055825698872127
  0
ARC
  5
33B3C
  8
0
 10
7287.3262319081986789
 20
108.4472631188158971
 30
0.0
 40
0.3049187862238884
 50
310.9005036187720066
 51
326.2332270809548049
  0
ARC
  5
33B3D
  8
0
 10
7287.3764495985105896
 20
108.4131833667716052
 30
0.0
 40
0.2442308411849941
 50
326.3315368690462037
 51
342.3371752611715806
  0
ARC
  5
33B3E
  8
0
 10
7287.3895798958301384
 20
108.4074483507479982
 30
0.0
 40
0.229984202782761
 50
342.7060712417152217
 51
1.7820912058151259
  0
ARC
  5
33B3F
  8
0
 10
7287.1678015515153675
 20
107.9306896566835974
 30
0.0
 40
0.248500008483093
 50
215.792898191904186
 51
247.7436482914264104
  0
ARC
  5
33B40
  8
0
 10
7287.2426374750448304
 20
108.1651154642196957
 30
0.0
 40
0.4941909409153539
 50
250.0083466085899886
 51
267.3582264995883975
  0
ARC
  5
33B41
  8
0
 10
7287.2719175822803663
 20
107.9306896566835974
 30
0.0
 40
0.248500008483093
 50
292.2563517085735043
 51
324.2071018080958993
  0
ARC
  5
33B42
  8
0
 10
7287.1970816587499939
 20
108.1651154642196957
 30
0.0
 40
0.4941909409153539
 50
272.6417735004116025
 51
289.9916533914100114
  0
ENDSEC
  0
EOF
