  0
SECTION
  2
HEADER
  9
$ACADVER
  1
AC1009
  9
$INSBASE
 10
3277.7153291474201069
 20
221.1341002893736061
 30
0.0
  9
$EXTMIN
 10
3270.7231723144632269
 20
213.007379040732701
 30
-0.0000000000112498
  9
$EXTMAX
 10
3284.5061356407541098
 20
222.4429967475157923
 30
0.0000000000002956
  9
$LIMMIN
 10
0.0
 20
0.0
  9
$LIMMAX
 10
11.6929133858000007
 20
8.2677165353999982
  9
$ORTHOMODE
 70
     1
  9
$REGENMODE
 70
     1
  9
$FILLMODE
 70
     1
  9
$QTEXTMODE
 70
     0
  9
$MIRRTEXT
 70
     0
  9
$DRAGMODE
 70
     2
  9
$LTSCALE
 40
0.6431102362
  9
$OSMODE
 70
  4095
  9
$ATTMODE
 70
     1
  9
$TEXTSIZE
 40
0.2
  9
$TRACEWID
 40
0.05
  9
$TEXTSTYLE
  7
STANDARD
  9
$CLAYER
  8
0
  9
$CELTYPE
  6
BYLAYER
  9
$CECOLOR
 62
   256
  9
$DIMSCALE
 40
1.0
  9
$DIMASZ
 40
0.1875
  9
$DIMEXO
 40
0.0625
  9
$DIMDLI
 40
0.4443307087
  9
$DIMRND
 40
0.0
  9
$DIMDLE
 40
0.0
  9
$DIMEXE
 40
0.125
  9
$DIMTP
 40
0.01
  9
$DIMTM
 40
0.01
  9
$DIMTXT
 40
2.0
  9
$DIMCEN
 40
0.1052362205
  9
$DIMTSZ
 40
0.0
  9
$DIMTOL
 70
     1
  9
$DIMLIM
 70
     0
  9
$DIMTIH
 70
     1
  9
$DIMTOH
 70
     1
  9
$DIMSE1
 70
     0
  9
$DIMSE2
 70
     0
  9
$DIMTAD
 70
     0
  9
$DIMZIN
 70
     0
  9
$DIMBLK
  1

  9
$DIMASO
 70
     1
  9
$DIMSHO
 70
     1
  9
$DIMPOST
  1
\X
  9
$DIMAPOST
  1

  9
$DIMALT
 70
     1
  9
$DIMALTD
 70
     2
  9
$DIMALTF
 40
25.3999999999999986
  9
$DIMLFAC
 40
1.0
  9
$DIMTOFL
 70
     0
  9
$DIMTVP
 40
0.0
  9
$DIMTIX
 70
     0
  9
$DIMSOXD
 70
     0
  9
$DIMSAH
 70
     0
  9
$DIMBLK1
  1

  9
$DIMBLK2
  1

  9
$DIMSTYLE
  2
STANDARD
  9
$DIMCLRD
 70
     0
  9
$DIMCLRE
 70
     0
  9
$DIMCLRT
 70
     0
  9
$DIMTFAC
 40
1.0
  9
$DIMGAP
 40
0.09
  9
$LUNITS
 70
     2
  9
$LUPREC
 70
     4
  9
$SKETCHINC
 40
0.1
  9
$FILLETRAD
 40
0.0
  9
$AUNITS
 70
     0
  9
$AUPREC
 70
     0
  9
$MENU
  1
.
  9
$ELEVATION
 40
0.0
  9
$PELEVATION
 40
0.0
  9
$THICKNESS
 40
0.0
  9
$LIMCHECK
 70
     0
  9
$BLIPMODE
 70
     0
  9
$CHAMFERA
 40
0.0
  9
$CHAMFERB
 40
0.0
  9
$SKPOLY
 70
     0
  9
$TDCREATE
 40
2458060.468368056230247
  9
$TDUPDATE
 40
2460116.5366666670888662
  9
$TDINDWG
 40
0.3531899306
  9
$TDUSRTIMER
 40
0.3531899306
  9
$USRTIMER
 70
     1
  9
$ANGBASE
 50
0.0
  9
$ANGDIR
 70
     0
  9
$PDMODE
 70
     0
  9
$PDSIZE
 40
0.3125
  9
$PLINEWID
 40
0.0
  9
$COORDS
 70
     1
  9
$SPLFRAME
 70
     0
  9
$SPLINETYPE
 70
     6
  9
$SPLINESEGS
 70
     8
  9
$ATTDIA
 70
     1
  9
$ATTREQ
 70
     1
  9
$HANDLING
 70
     1
  9
$HANDSEED
  5
9229
  9
$SURFTAB1
 70
     6
  9
$SURFTAB2
 70
     6
  9
$SURFTYPE
 70
     6
  9
$SURFU
 70
     6
  9
$SURFV
 70
     6
  9
$UCSNAME
  2

  9
$UCSORG
 10
0.0
 20
0.0
 30
0.0
  9
$UCSXDIR
 10
1.0
 20
0.0
 30
0.0
  9
$UCSYDIR
 10
0.0
 20
1.0
 30
0.0
  9
$PUCSNAME
  2

  9
$PUCSORG
 10
0.0
 20
0.0
 30
0.0
  9
$PUCSXDIR
 10
1.0
 20
0.0
 30
0.0
  9
$PUCSYDIR
 10
0.0
 20
1.0
 30
0.0
  9
$USERI1
 70
     0
  9
$USERI2
 70
     0
  9
$USERI3
 70
     0
  9
$USERI4
 70
     0
  9
$USERI5
 70
     0
  9
$USERR1
 40
0.0
  9
$USERR2
 40
0.0
  9
$USERR3
 40
0.0
  9
$USERR4
 40
0.0
  9
$USERR5
 40
0.0
  9
$WORLDVIEW
 70
     1
  9
$SHADEDGE
 70
     3
  9
$SHADEDIF
 70
    70
  9
$TILEMODE
 70
     1
  9
$MAXACTVP
 70
    64
  9
$PLIMCHECK
 70
     0
  9
$PEXTMIN
 10
1.0000000000000000E+20
 20
1.0000000000000000E+20
 30
1.0000000000000000E+20
  9
$PEXTMAX
 10
-1.0000000000000000E+20
 20
-1.0000000000000000E+20
 30
-1.0000000000000000E+20
  9
$PLIMMIN
 10
0.0
 20
0.0
  9
$PLIMMAX
 10
12.0
 20
9.0
  9
$UNITMODE
 70
     0
  9
$VISRETAIN
 70
     1
  9
$PLINEGEN
 70
     0
  9
$PSLTSCALE
 70
     1
  0
ENDSEC
  0
SECTION
  2
TABLES
  0
TABLE
  2
VPORT
 70
     1
  0
VPORT
  2
*ACTIVE
 70
     0
 10
0.0
 20
0.0
 11
1.0
 21
1.0
 12
55.3852838604207065
 22
10.2343369755690503
 13
0.0
 23
0.0
 14
1.0
 24
1.0
 15
0.0
 25
0.0
 16
0.0
 26
0.0
 36
48.1486270915385077
 17
3222.2293701171879547
 27
207.4908509185551964
 37
0.0
 40
9.5104046370879587
 41
2.5251322751322749
 42
50.0
 43
0.0
 44
0.0
 50
0.0
 51
0.0
 71
     0
 72
   100
 73
     1
 74
     1
 75
     0
 76
     0
 77
     0
 78
     0
  0
ENDTAB
  0
TABLE
  2
LTYPE
 70
     2
  0
LTYPE
  2
CONTINUOUS
 70
     0
  3
Solid line
 72
    65
 73
     0
 40
0.0
  0
LTYPE
  2
PHANTOM2
 70
     0
  3
___ _ _ ___ _ _ ___ _ _ ___ _ _
 72
    65
 73
     6
 40
1.25
 49
0.625
 49
-0.125
 49
0.125
 49
-0.125
 49
0.125
 49
-0.125
  0
ENDTAB
  0
TABLE
  2
LAYER
 70
     2
  0
LAYER
  2
0
 70
     0
 62
   255
  6
CONTINUOUS
  0
LAYER
  2
DEFPOINTS
 70
     0
 62
     7
  6
CONTINUOUS
  0
ENDTAB
  0
TABLE
  2
STYLE
 70
     1
  0
STYLE
  2
STANDARD
 70
     0
 40
0.0
 41
0.8
 50
0.0
 71
     0
 42
0.2
  3
txt
  4

  0
ENDTAB
  0
TABLE
  2
VIEW
 70
     0
  0
ENDTAB
  0
TABLE
  2
UCS
 70
     0
  0
ENDTAB
  0
TABLE
  2
APPID
 70
     9
  0
APPID
  2
ACAD
 70
     0
  0
APPID
  2
ACAD_MLEADERVER
 70
     0
  0
APPID
  2
ACAD_EXEMPT_FROM_CAD_STANDARDS
 70
     0
  0
APPID
  2
ACAD_NAV_VCDISPLAY
 70
     0
  0
APPID
  2
ACAECLAYERSTANDARD
 70
     0
  0
APPID
  2
ACCMTRANSPARENCY
 70
     0
  0
APPID
  2
ACAD_DSTYLE_DIMJAG
 70
     0
  0
APPID
  2
ACAD_DSTYLE_DIMTALN
 70
     0
  0
APPID
  2
ACDBATTR
 70
     0
  0
ENDTAB
  0
TABLE
  2
DIMSTYLE
 70
     1
  0
DIMSTYLE
  2
STANDARD
 70
     0
  3

  4

  5

  6

  7

 40
1.0
 41
0.1875
 42
0.0625
 43
0.38
 44
0.125
 45
0.0
 46
0.0
 47
0.01
 48
0.01
140
0.15625
141
0.09
142
0.0
143
25.3999999999999986
144
1.0
145
0.0
146
1.0
147
0.09
 71
     1
 72
     0
 73
     1
 74
     1
 75
     0
 76
     0
 77
     0
 78
     4
170
     0
171
     2
172
     0
173
     0
174
     0
175
     0
176
     0
177
     0
178
     0
  0
ENDTAB
  0
ENDSEC
  0
SECTION
  2
BLOCKS
  0
BLOCK
  8
0
  2
$MODEL_SPACE
 70
     0
 10
0.0
 20
0.0
 30
0.0
  3
$MODEL_SPACE
  1

  0
ENDBLK
  5
21
  8
0
  0
BLOCK
 67
     1
  8
0
  2
$PAPER_SPACE
 70
     0
 10
0.0
 20
0.0
 30
0.0
  3
$PAPER_SPACE
  1

  0
ENDBLK
  5
1D
 67
     1
  8
0
  0
BLOCK
  8
0
  2
_FILLED
 70
     0
 10
0.0
 20
0.0
 30
0.0
  3
_FILLED
  1

  0
SOLID
  5
7F1C
  8
0
  6
BYBLOCK
 62
     0
 10
0.0
 20
0.0
 30
0.0
 11
-1.0
 21
0.1666666667
 31
0.0
 12
-1.0
 22
-0.1666666667
 32
0.0
 13
-1.0
 23
-0.1666666667
 33
0.0
  0
ENDBLK
  5
7F1D
  8
0
  6
BYBLOCK
 62
     0
  0
ENDSEC
  0
SECTION
  2
ENTITIES
  0
ATTDEF
  5
3930
  8
DEFPOINTS
 10
3277.7129168328788182
 20
221.1305448054937983
 30
0.0
 40
0.001
  1
K-T35911-4
  3

  2
MODELNUMBER
 70
     0
1001
ACDBATTR
1070
     0
1070
     1
  0
ATTDEF
  5
3931
  8
DEFPOINTS
 10
3277.7129168328788182
 20
221.12887813882719
 30
0.0
 40
0.001
  1
CASTIA
  3

  2
TRADENAME
 70
     0
1001
ACDBATTR
1070
     0
1070
     1
  0
ATTDEF
  5
3932
  8
DEFPOINTS
 10
3277.7129168328788182
 20
221.1272114721604964
 30
0.0
 40
0.001
  1
BATH FILLER
  3

  2
PRODUCT
 70
     0
1001
ACDBATTR
1070
     0
1070
     1
  0
ARC
  5
903E
  8
0
 10
3277.7153291474201069
 20
221.1341002893736061
 30
0.0
 40
1.300092194852952
 50
298.988302664556727
 51
241.0118848792560868
  0
LINE
  5
903F
  8
0
 10
3270.9652288288211821
 20
221.0150863452736019
 30
0.0
 11
3270.9652288288211821
 21
221.253083222707204
 31
0.0
  0
ARC
  5
9040
  8
0
 10
3273.7152408021720476
 20
221.1341453710736005
 30
0.0
 40
1.2999749156164899
 50
186.6285527235139909
 51
173.3767618231590006
  0
LINE
  5
9041
  8
0
 10
3270.9962288288211312
 20
221.2840832227072099
 30
0.0
 11
3274.244319277869181
 21
221.2840832227072099
 31
0.0
  0
LINE
  5
9042
  8
0
 10
3270.9962288288211312
 20
220.984086345273596
 30
0.0
 11
3274.2442849228032173
 21
220.984086345273596
 31
0.0
  0
ARC
  5
9043
  8
0
 10
3270.9962288288211312
 20
221.0150863452736019
 30
0.0
 40
0.031
 50
180.0000000000129887
 51
270.0
  0
ARC
  5
9044
  8
0
 10
3270.9962288288211312
 20
221.253083222707204
 30
0.0
 40
0.031
 50
90.0
 51
179.9999999999934914
  0
ARC
  5
9045
  8
0
 10
3273.7152408014208049
 20
221.1341453710736005
 30
0.0
 40
0.549913987450001
 50
199.3611161316499931
 51
160.1960926757145103
  0
ARC
  5
9046
  8
0
 10
3273.1457637623220762
 20
220.9281825229037111
 30
0.0
 40
0.0559122189559775
 50
25.0286362358917991
 51
89.0070186911076746
  0
ARC
  5
9047
  8
0
 10
3273.7604325661218354
 20
221.9678617457736038
 30
0.0
 40
0.0274999999999998
 50
199.4147552118382123
 51
334.3798589648093866
  0
ARC
  5
9048
  8
0
 10
3273.7604325661218354
 20
221.9678617457736038
 30
0.0
 40
0.0274999999999998
 50
199.4147552118382123
 51
334.3798589648093866
  0
ARC
  5
9049
  8
0
 10
3273.8503145445210976
 20
221.9580864915735958
 30
0.0
 40
0.0274999999999992
 50
193.2055402892223128
 51
328.1743859202863973
  0
ARC
  5
904A
  8
0
 10
3273.9386127401207887
 20
221.9386505889735872
 30
0.0
 40
0.0274999999999996
 50
186.9979026303406044
 51
321.9673283747633263
  0
ARC
  5
904B
  8
0
 10
3274.024291937120779
 20
221.9097819062735084
 30
0.0
 40
0.0275
 50
180.7918510928141131
 51
315.7586880769266031
  0
ARC
  5
904C
  8
0
 10
3274.1063476254212219
 20
221.8718189023736045
 30
0.0
 40
0.027499999999999
 50
174.587375866678002
 51
309.5484853574830026
  0
ARC
  5
904D
  8
0
 10
3274.1838177770209768
 20
221.8252066586736078
 30
0.0
 40
0.0274999999999993
 50
168.3844483739719919
 51
303.3367591732073834
  0
ARC
  5
904E
  8
0
 10
3274.2557941252221099
 20
221.7704916612736099
 30
0.0
 40
0.0275000000000005
 50
162.1830224996058973
 51
297.1235657418023948
  0
ARC
  5
904F
  8
0
 10
3274.3214328132207811
 20
221.7083153933735957
 30
0.0
 40
0.0274999999999993
 50
155.9830341458865064
 51
290.9089788322510799
  0
ARC
  5
9050
  8
0
 10
3274.3799642873218545
 20
221.6394068149735972
 30
0.0
 40
0.0274999999999997
 50
149.7844025341100007
 51
284.693088414728777
  0
ARC
  5
9051
  8
0
 10
3274.4307023195210604
 20
221.5645738159736027
 30
0.0
 40
0.0274999999999997
 50
143.5870307286047876
 51
278.4759999495777834
  0
ARC
  5
9052
  8
0
 10
3274.4730520528219131
 20
221.4846937450735993
 30
0.0
 40
0.0274999999999998
 50
137.3908076136158058
 51
272.257832394685181
  0
ARC
  5
9053
  8
0
 10
3274.5065169753211194
 20
221.4007031228736082
 30
0.0
 40
0.0275000000000009
 50
131.1956080621480112
 51
266.0387178592160922
  0
ARC
  5
9054
  8
0
 10
3274.5307047414221415
 20
221.3135866628736039
 30
0.0
 40
0.0275000000000006
 50
125.0012953895417951
 51
259.8187991670109795
  0
ARC
  5
9055
  8
0
 10
3274.5453317716210222
 20
221.2243657256736071
 30
0.0
 40
0.0274999999999999
 50
118.8077219437518011
 51
253.5982290775561125
  0
ARC
  5
9056
  8
0
 10
3274.5502265774211992
 20
221.1340863452736016
 30
0.0
 40
0.0275000000000009
 50
112.6147318714491945
 51
247.3771675612495073
  0
ARC
  5
9057
  8
0
 10
3273.7604325661218354
 20
220.3004289963735971
 30
0.0
 40
0.0274999999999998
 50
25.6201410351906311
 51
160.5852447881617877
  0
ARC
  5
9058
  8
0
 10
3273.7604325661218354
 20
220.3004289963735971
 30
0.0
 40
0.0274999999999998
 50
25.6201410351906311
 51
160.5852447881617877
  0
ARC
  5
9059
  8
0
 10
3273.8503145445210976
 20
220.3102042505736051
 30
0.0
 40
0.0274999999999992
 50
31.8256140797135707
 51
166.7944597107776019
  0
ARC
  5
905A
  8
0
 10
3273.9386127401207887
 20
220.3296401531736137
 30
0.0
 40
0.0274999999999996
 50
38.0326716252367234
 51
173.0020973696593103
  0
ARC
  5
905B
  8
0
 10
3274.024291937120779
 20
220.3585088358736073
 30
0.0
 40
0.0275
 50
44.2413119230734324
 51
179.2081489071858016
  0
ARC
  5
905C
  8
0
 10
3274.1063476254212219
 20
220.3964718397735965
 30
0.0
 40
0.027499999999999
 50
50.4515146425169902
 51
185.412624133321998
  0
ARC
  5
905D
  8
0
 10
3274.1838177770209768
 20
220.4430840834735079
 30
0.0
 40
0.0274999999999993
 50
56.6632408267926166
 51
191.6155516260280081
  0
ARC
  5
905E
  8
0
 10
3274.2557941252221099
 20
220.4977990808735058
 30
0.0
 40
0.0275000000000005
 50
62.8764342581975129
 51
197.816977500393989
  0
ARC
  5
905F
  8
0
 10
3274.3214328132207811
 20
220.5599753487736052
 30
0.0
 40
0.0274999999999993
 50
69.0910211677488917
 51
204.0169658541134936
  0
ARC
  5
9060
  8
0
 10
3274.3799642873218545
 20
220.6288839271736038
 30
0.0
 40
0.0274999999999997
 50
75.3069115852711519
 51
210.2155974658884929
  0
ARC
  5
9061
  8
0
 10
3274.4307023195210604
 20
220.7037169261735983
 30
0.0
 40
0.0274999999999997
 50
81.5240000504221882
 51
216.412969271393905
  0
ARC
  5
9062
  8
0
 10
3274.4730520528219131
 20
220.7835969970736016
 30
0.0
 40
0.0274999999999998
 50
87.7421676053147763
 51
222.6091923863841942
  0
ARC
  5
9063
  8
0
 10
3274.5065169753211194
 20
220.8675876192735927
 30
0.0
 40
0.0275000000000009
 50
93.9612821407839363
 51
228.8043919378519888
  0
ARC
  5
9064
  8
0
 10
3274.5307047414221415
 20
220.954704079273597
 30
0.0
 40
0.0275000000000006
 50
100.1812008329889068
 51
234.9987046104581054
  0
ARC
  5
9065
  8
0
 10
3274.5453317716210222
 20
221.0439250164735938
 30
0.0
 40
0.0274999999999999
 50
106.4017709224439017
 51
241.1922780562481989
  0
ARC
  5
9066
  8
0
 10
3273.7152408014208049
 20
221.1341453710736005
 30
0.0
 40
0.8248000606500003
 50
169.3539725621864989
 51
169.5261406071045087
  0
ARC
  5
9067
  8
0
 10
3273.7152408014208049
 20
221.1341453710736005
 30
0.0
 40
0.8248000606500003
 50
190.4824196574913913
 51
190.6460274378135011
  0
ARC
  5
9068
  8
0
 10
3273.6700490367211387
 20
221.9678617457736038
 30
0.0
 40
0.0274999999999998
 50
205.6201410351906134
 51
340.5852447881617877
  0
ARC
  5
9069
  8
0
 10
3273.6700490367211387
 20
221.9678617457736038
 30
0.0
 40
0.0274999999999998
 50
205.6201410351906134
 51
340.5852447881617877
  0
ARC
  5
906A
  8
0
 10
3273.5801670583218765
 20
221.9580864915735958
 30
0.0
 40
0.0274999999999992
 50
211.8256140797136027
 51
346.7944597107775735
  0
ARC
  5
906B
  8
0
 10
3273.4918688627208212
 20
221.9386505889735872
 30
0.0
 40
0.0274999999999996
 50
218.0326716252367021
 51
353.0020973696592819
  0
ARC
  5
906C
  8
0
 10
3273.4061896657221951
 20
221.9097819062735084
 30
0.0
 40
0.0275
 50
224.2413119230733969
 51
359.2081489071857732
  0
ARC
  5
906D
  8
0
 10
3273.3241339774208427
 20
221.8718189023736045
 30
0.0
 40
0.027499999999999
 50
230.4515146425169974
 51
5.4126241333220033
  0
ARC
  5
906E
  8
0
 10
3273.2466638258210878
 20
221.8252066586736078
 30
0.0
 40
0.0274999999999993
 50
236.6632408267925882
 51
11.6155516260279796
  0
ARC
  5
906F
  8
0
 10
3273.1746874776208642
 20
221.7704916612736099
 30
0.0
 40
0.0275000000000005
 50
242.8764342581974915
 51
17.8169775003940387
  0
ARC
  5
9070
  8
0
 10
3273.1090487896208288
 20
221.7083153933735957
 30
0.0
 40
0.0274999999999993
 50
249.0910211677488917
 51
24.0169658541134687
  0
ARC
  5
9071
  8
0
 10
3273.0505173155211196
 20
221.6394068149735972
 30
0.0
 40
0.0274999999999997
 50
255.3069115852711093
 51
30.2155974658899709
  0
ARC
  5
9072
  8
0
 10
3272.9997792833219137
 20
221.5645738159736027
 30
0.0
 40
0.0274999999999997
 50
261.5240000504222166
 51
36.4129692713938979
  0
ARC
  5
9073
  8
0
 10
3272.9574295500219705
 20
221.4846937450735993
 30
0.0
 40
0.0274999999999998
 50
267.742167605314819
 51
42.6091923863842084
  0
ARC
  5
9074
  8
0
 10
3272.9239646275218547
 20
221.4007031228736082
 30
0.0
 40
0.0275000000000009
 50
273.9612821407839078
 51
48.8043919378519533
  0
ARC
  5
9075
  8
0
 10
3272.8997768614221968
 20
221.3135866628736039
 30
0.0
 40
0.0275000000000006
 50
280.1812008329889068
 51
54.9987046104581196
  0
ARC
  5
9076
  8
0
 10
3273.6700490367211387
 20
220.3004289963735971
 30
0.0
 40
0.0274999999999998
 50
19.414755211838191
 51
154.3798589648093014
  0
ARC
  5
9077
  8
0
 10
3273.6700490367211387
 20
220.3004289963735971
 30
0.0
 40
0.0274999999999998
 50
19.414755211838191
 51
154.3798589648093014
  0
ARC
  5
9078
  8
0
 10
3273.5801670583218765
 20
220.3102042505736051
 30
0.0
 40
0.0274999999999992
 50
13.2055402892223395
 51
148.1743859202863973
  0
ARC
  5
9079
  8
0
 10
3273.4918688627208212
 20
220.3296401531736137
 30
0.0
 40
0.0274999999999996
 50
6.997902630340656
 51
141.9673283747632127
  0
ARC
  5
907A
  8
0
 10
3273.4061896657221951
 20
220.3585088358736073
 30
0.0
 40
0.0275
 50
0.7918510928141956
 51
135.7586880769264894
  0
ARC
  5
907B
  8
0
 10
3273.3241339774208427
 20
220.3964718397735965
 30
0.0
 40
0.027499999999999
 50
354.587375866676382
 51
129.5484853574830026
  0
ARC
  5
907C
  8
0
 10
3273.2466638258210878
 20
220.4430840834735079
 30
0.0
 40
0.0274999999999993
 50
348.3844483739720204
 51
123.3367591732073976
  0
ARC
  5
907D
  8
0
 10
3273.1746874776208642
 20
220.4977990808735058
 30
0.0
 40
0.0275000000000005
 50
342.1830224996058973
 51
117.1235657418024942
  0
ARC
  5
907E
  8
0
 10
3273.1090487896208288
 20
220.5599753487736052
 30
0.0
 40
0.0274999999999993
 50
335.9830341458865064
 51
110.9089788322510941
  0
ARC
  5
907F
  8
0
 10
3273.0505173155211196
 20
220.6288839271736038
 30
0.0
 40
0.0274999999999997
 50
329.7844025341099723
 51
104.6930884147288054
  0
ARC
  5
9080
  8
0
 10
3272.9997792833219137
 20
220.7037169261735983
 30
0.0
 40
0.0274999999999997
 50
323.5870307286061234
 51
98.475999949577826
  0
ARC
  5
9081
  8
0
 10
3272.9574295500219705
 20
220.7835969970736016
 30
0.0
 40
0.0274999999999998
 50
317.3908076136157774
 51
92.2578323946852237
  0
ARC
  5
9082
  8
0
 10
3272.9239646275218547
 20
220.8675876192735927
 30
0.0
 40
0.0275000000000009
 50
311.1956080621479828
 51
86.038717859216078
  0
ARC
  5
9083
  8
0
 10
3272.8997768614221968
 20
220.954704079273597
 30
0.0
 40
0.0275000000000006
 50
305.0012953895418946
 51
79.8187991670110932
  0
ARC
  5
9084
  8
0
 10
3273.1445171497448428
 20
221.340580822211308
 30
0.0
 40
0.0570030449725701
 50
277.6356706247548232
 51
339.3276078063494765
  0
ARC
  5
9085
  8
0
 10
3273.7152408021720476
 20
221.1341453710736005
 30
0.0
 40
0.8248000607136292
 50
190.4824196566736134
 51
169.5261406079239066
  0
LINE
  5
9086
  8
0
 10
3284.4652311358181578
 20
221.0150863452736019
 30
0.0
 11
3284.4652311358181578
 21
221.253083222707204
 31
0.0
  0
ARC
  5
9087
  8
0
 10
3281.7152191624682018
 20
221.1341453710736005
 30
0.0
 40
1.2999749156164899
 50
6.6232381768410056
 51
353.3714472764859806
  0
LINE
  5
9088
  8
0
 10
3284.4342311358191182
 20
221.2840832227072099
 30
0.0
 11
3281.1861406867701589
 21
221.2840832227072099
 31
0.0
  0
LINE
  5
9089
  8
0
 10
3284.4342311358191182
 20
220.984086345273596
 30
0.0
 11
3281.1861750418361225
 21
220.984086345273596
 31
0.0
  0
ARC
  5
908A
  8
0
 10
3284.4342311358191182
 20
221.0150863452736019
 30
0.0
 40
0.031
 50
270.0
 51
359.9999999999869829
  0
ARC
  5
908B
  8
0
 10
3284.4342311358191182
 20
221.253083222707204
 30
0.0
 40
0.031
 50
0.0000000000065138
 51
90.0
  0
ARC
  5
908C
  8
0
 10
3281.7152191632180802
 20
221.1341453710736005
 30
0.0
 40
0.549913987450001
 50
19.8039073242855217
 51
340.6388838683499785
  0
ARC
  5
908D
  8
0
 10
3282.2846962023190827
 20
220.9281825229037111
 30
0.0
 40
0.0559122189559775
 50
90.9929813088923254
 51
154.9713637641081903
  0
ARC
  5
908E
  8
0
 10
3281.6700273985179592
 20
221.9678617457736038
 30
0.0
 40
0.0274999999999998
 50
205.6201410351906134
 51
340.5852447881617877
  0
ARC
  5
908F
  8
0
 10
3281.6700273985179592
 20
221.9678617457736038
 30
0.0
 40
0.0274999999999998
 50
205.6201410351906134
 51
340.5852447881617877
  0
ARC
  5
9090
  8
0
 10
3281.5801454201177876
 20
221.9580864915735958
 30
0.0
 40
0.0274999999999992
 50
211.8256140797136027
 51
346.7944597107775735
  0
ARC
  5
9091
  8
0
 10
3281.4918472245180965
 20
221.9386505889735872
 30
0.0
 40
0.0274999999999996
 50
218.0326716252367021
 51
353.0020973696592819
  0
ARC
  5
9092
  8
0
 10
3281.4061680275181061
 20
221.9097819062735084
 30
0.0
 40
0.0275
 50
224.2413119230733969
 51
359.2081489071857732
  0
ARC
  5
9093
  8
0
 10
3281.324112339218118
 20
221.8718189023736045
 30
0.0
 40
0.027499999999999
 50
230.4515146425169974
 51
5.4126241333220033
  0
ARC
  5
9094
  8
0
 10
3281.2466421876179083
 20
221.8252066586736078
 30
0.0
 40
0.0274999999999993
 50
236.6632408267925882
 51
11.6155516260279796
  0
ARC
  5
9095
  8
0
 10
3281.174665839419049
 20
221.7704916612736099
 30
0.0
 40
0.0275000000000005
 50
242.8764342581974915
 51
17.8169775003940387
  0
ARC
  5
9096
  8
0
 10
3281.109027151418104
 20
221.7083153933735957
 30
0.0
 40
0.0274999999999993
 50
249.0910211677488917
 51
24.0169658541134687
  0
ARC
  5
9097
  8
0
 10
3281.0504956773179401
 20
221.6394068149735972
 30
0.0
 40
0.0274999999999997
 50
255.3069115852711093
 51
30.2155974658899709
  0
ARC
  5
9098
  8
0
 10
3280.9997576451178247
 20
221.5645738159736027
 30
0.0
 40
0.0274999999999997
 50
261.5240000504222166
 51
36.4129692713938979
  0
ARC
  5
9099
  8
0
 10
3280.9574079118178815
 20
221.4846937450735993
 30
0.0
 40
0.0274999999999998
 50
267.742167605314819
 51
42.6091923863842084
  0
ARC
  5
909A
  8
0
 10
3280.9239429893182205
 20
221.4007031228736082
 30
0.0
 40
0.0275000000000009
 50
273.9612821407839078
 51
48.8043919378519533
  0
ARC
  5
909B
  8
0
 10
3280.8997552232190174
 20
221.3135866628736039
 30
0.0
 40
0.0275000000000006
 50
280.1812008329889068
 51
54.9987046104581196
  0
ARC
  5
909C
  8
0
 10
3280.8851281930178629
 20
221.2243657256736071
 30
0.0
 40
0.0274999999999999
 50
286.4017709224439159
 51
61.1922780562481705
  0
ARC
  5
909D
  8
0
 10
3280.8802333872181407
 20
221.1340863452736016
 30
0.0
 40
0.0275000000000009
 50
292.6228324387504927
 51
67.3852681285508197
  0
ARC
  5
909E
  8
0
 10
3281.6700273985179592
 20
220.3004289963735971
 30
0.0
 40
0.0274999999999998
 50
19.414755211838191
 51
154.3798589648093014
  0
ARC
  5
909F
  8
0
 10
3281.6700273985179592
 20
220.3004289963735971
 30
0.0
 40
0.0274999999999998
 50
19.414755211838191
 51
154.3798589648093014
  0
ARC
  5
90A0
  8
0
 10
3281.5801454201177876
 20
220.3102042505736051
 30
0.0
 40
0.0274999999999992
 50
13.2055402892223395
 51
148.1743859202863973
  0
ARC
  5
90A1
  8
0
 10
3281.4918472245180965
 20
220.3296401531736137
 30
0.0
 40
0.0274999999999996
 50
6.997902630340656
 51
141.9673283747632127
  0
ARC
  5
90A2
  8
0
 10
3281.4061680275181061
 20
220.3585088358736073
 30
0.0
 40
0.0275
 50
0.7918510928141956
 51
135.7586880769264894
  0
ARC
  5
90A3
  8
0
 10
3281.324112339218118
 20
220.3964718397735965
 30
0.0
 40
0.027499999999999
 50
354.587375866676382
 51
129.5484853574830026
  0
ARC
  5
90A4
  8
0
 10
3281.2466421876179083
 20
220.4430840834735079
 30
0.0
 40
0.0274999999999993
 50
348.3844483739720204
 51
123.3367591732073976
  0
ARC
  5
90A5
  8
0
 10
3281.174665839419049
 20
220.4977990808735058
 30
0.0
 40
0.0275000000000005
 50
342.1830224996058973
 51
117.1235657418024942
  0
ARC
  5
90A6
  8
0
 10
3281.109027151418104
 20
220.5599753487736052
 30
0.0
 40
0.0274999999999993
 50
335.9830341458865064
 51
110.9089788322510941
  0
ARC
  5
90A7
  8
0
 10
3281.0504956773179401
 20
220.6288839271736038
 30
0.0
 40
0.0274999999999997
 50
329.7844025341099723
 51
104.6930884147288054
  0
ARC
  5
90A8
  8
0
 10
3280.9997576451178247
 20
220.7037169261735983
 30
0.0
 40
0.0274999999999997
 50
323.5870307286061234
 51
98.475999949577826
  0
ARC
  5
90A9
  8
0
 10
3280.9574079118178815
 20
220.7835969970736016
 30
0.0
 40
0.0274999999999998
 50
317.3908076136157774
 51
92.2578323946852237
  0
ARC
  5
90AA
  8
0
 10
3280.9239429893182205
 20
220.8675876192735927
 30
0.0
 40
0.0275000000000009
 50
311.1956080621479828
 51
86.038717859216078
  0
ARC
  5
90AB
  8
0
 10
3280.8997552232190174
 20
220.954704079273597
 30
0.0
 40
0.0275000000000006
 50
305.0012953895418946
 51
79.8187991670110932
  0
ARC
  5
90AC
  8
0
 10
3280.8851281930178629
 20
221.0439250164735938
 30
0.0
 40
0.0274999999999999
 50
298.8077219437518011
 51
73.5982290775560983
  0
ARC
  5
90AD
  8
0
 10
3281.7152191632180802
 20
221.1341453710736005
 30
0.0
 40
0.8248000606500003
 50
10.4738593928955002
 51
10.6460274378134798
  0
ARC
  5
90AE
  8
0
 10
3281.7152191632180802
 20
221.1341453710736005
 30
0.0
 40
0.8248000606500003
 50
349.3539725621865273
 51
349.5175803425086087
  0
ARC
  5
90AF
  8
0
 10
3281.7604109279182012
 20
221.9678617457736038
 30
0.0
 40
0.0274999999999998
 50
199.4147552118382123
 51
334.3798589648093866
  0
ARC
  5
90B0
  8
0
 10
3281.7604109279182012
 20
221.9678617457736038
 30
0.0
 40
0.0274999999999998
 50
199.4147552118382123
 51
334.3798589648093866
  0
ARC
  5
90B1
  8
0
 10
3281.8502929063179181
 20
221.9580864915735958
 30
0.0
 40
0.0274999999999992
 50
193.2055402892223128
 51
328.1743859202863973
  0
ARC
  5
90B2
  8
0
 10
3281.9385911019180639
 20
221.9386505889735872
 30
0.0
 40
0.0274999999999996
 50
186.9979026303406044
 51
321.9673283747633263
  0
ARC
  5
90B3
  8
0
 10
3282.0242702989189638
 20
221.9097819062735084
 30
0.0
 40
0.0275
 50
180.7918510928141131
 51
315.7586880769266031
  0
ARC
  5
90B4
  8
0
 10
3282.1063259872180424
 20
221.8718189023736045
 30
0.0
 40
0.027499999999999
 50
174.587375866678002
 51
309.5484853574830026
  0
ARC
  5
90B5
  8
0
 10
3282.1837961388191616
 20
221.8252066586736078
 30
0.0
 40
0.0274999999999993
 50
168.3844483739719919
 51
303.3367591732073834
  0
ARC
  5
90B6
  8
0
 10
3282.2557724870180209
 20
221.7704916612736099
 30
0.0
 40
0.0275000000000005
 50
162.1830224996058973
 51
297.1235657418023948
  0
ARC
  5
90B7
  8
0
 10
3282.3214111750180564
 20
221.7083153933735957
 30
0.0
 40
0.0274999999999993
 50
155.9830341458865064
 51
290.9089788322510799
  0
ARC
  5
90B8
  8
0
 10
3282.3799426491182203
 20
221.6394068149735972
 30
0.0
 40
0.0274999999999997
 50
149.7844025341100007
 51
284.693088414728777
  0
ARC
  5
90B9
  8
0
 10
3282.430680681317881
 20
221.5645738159736027
 30
0.0
 40
0.0274999999999997
 50
143.5870307286047876
 51
278.4759999495777834
  0
ARC
  5
90BA
  8
0
 10
3282.4730304146178241
 20
221.4846937450735993
 30
0.0
 40
0.0274999999999998
 50
137.3908076136158058
 51
272.257832394685181
  0
ARC
  5
90BB
  8
0
 10
3282.5064953371188494
 20
221.4007031228736082
 30
0.0
 40
0.0275000000000009
 50
131.1956080621480112
 51
266.0387178592160922
  0
ARC
  5
90BC
  8
0
 10
3282.5306831032180526
 20
221.3135866628736039
 30
0.0
 40
0.0275000000000006
 50
125.0012953895417951
 51
259.8187991670109795
  0
ARC
  5
90BD
  8
0
 10
3281.7604109279182012
 20
220.3004289963735971
 30
0.0
 40
0.0274999999999998
 50
25.6201410351906311
 51
160.5852447881617877
  0
ARC
  5
90BE
  8
0
 10
3281.7604109279182012
 20
220.3004289963735971
 30
0.0
 40
0.0274999999999998
 50
25.6201410351906311
 51
160.5852447881617877
  0
ARC
  5
90BF
  8
0
 10
3281.8502929063179181
 20
220.3102042505736051
 30
0.0
 40
0.0274999999999992
 50
31.8256140797135707
 51
166.7944597107776019
  0
ARC
  5
90C0
  8
0
 10
3281.9385911019180639
 20
220.3296401531736137
 30
0.0
 40
0.0274999999999996
 50
38.0326716252367234
 51
173.0020973696593103
  0
ARC
  5
90C1
  8
0
 10
3282.0242702989189638
 20
220.3585088358736073
 30
0.0
 40
0.0275
 50
44.2413119230734324
 51
179.2081489071858016
  0
ARC
  5
90C2
  8
0
 10
3282.1063259872180424
 20
220.3964718397735965
 30
0.0
 40
0.027499999999999
 50
50.4515146425169902
 51
185.412624133321998
  0
ARC
  5
90C3
  8
0
 10
3282.1837961388191616
 20
220.4430840834735079
 30
0.0
 40
0.0274999999999993
 50
56.6632408267926166
 51
191.6155516260280081
  0
ARC
  5
90C4
  8
0
 10
3282.2557724870180209
 20
220.4977990808735058
 30
0.0
 40
0.0275000000000005
 50
62.8764342581975129
 51
197.816977500393989
  0
ARC
  5
90C5
  8
0
 10
3282.3214111750180564
 20
220.5599753487736052
 30
0.0
 40
0.0274999999999993
 50
69.0910211677488917
 51
204.0169658541134936
  0
ARC
  5
90C6
  8
0
 10
3282.3799426491182203
 20
220.6288839271736038
 30
0.0
 40
0.0274999999999997
 50
75.3069115852711519
 51
210.2155974658884929
  0
ARC
  5
90C7
  8
0
 10
3282.430680681317881
 20
220.7037169261735983
 30
0.0
 40
0.0274999999999997
 50
81.5240000504221882
 51
216.412969271393905
  0
ARC
  5
90C8
  8
0
 10
3282.4730304146178241
 20
220.7835969970736016
 30
0.0
 40
0.0274999999999998
 50
87.7421676053147763
 51
222.6091923863841942
  0
ARC
  5
90C9
  8
0
 10
3282.5064953371188494
 20
220.8675876192735927
 30
0.0
 40
0.0275000000000009
 50
93.9612821407839363
 51
228.8043919378519888
  0
ARC
  5
90CA
  8
0
 10
3282.5306831032180526
 20
220.954704079273597
 30
0.0
 40
0.0275000000000006
 50
100.1812008329889068
 51
234.9987046104581054
  0
ARC
  5
90CB
  8
0
 10
3282.2859428148940424
 20
221.340580822211308
 30
0.0
 40
0.0570030449725701
 50
200.6723921936504951
 51
262.3643293752451768
  0
ARC
  5
90CC
  8
0
 10
3281.7152191624682018
 20
221.1341453710736005
 30
0.0
 40
0.8248000607136292
 50
10.4738593920760401
 51
349.517580343326415
  0
LINE
  5
90CD
  8
0
 10
3277.0852678238197768
 20
221.1502358158018069
 30
0.0
 11
3277.0852678238197768
 21
213.6189191477564862
 31
0.0
  0
LINE
  5
90CE
  8
0
 10
3278.3453941934199065
 20
221.1341453710736005
 30
0.0
 11
3278.3453941934199065
 21
213.6186312561810894
 31
0.0
  0
ARC
  5
90CF
  8
0
 10
3277.7152282798710985
 20
221.1341453710736005
 30
0.0
 40
0.630165913549195
 50
0.0
 51
178.5368697997419929
  0
ARC
  5
90D0
  8
0
 10
3277.7152282798710985
 20
221.1341453710736005
 30
0.0
 40
0.6516756722085288
 50
345.2381258875453796
 51
194.8326024889732082
  0
ARC
  5
90D1
  8
0
 10
3277.7541847167258311
 20
213.6591213980840962
 30
0.0
 40
0.6701238919382934
 50
183.4393688036892058
 51
201.2114702263764912
  0
ARC
  5
90D2
  8
0
 10
3277.699804293570196
 20
213.6380160966197082
 30
0.0
 40
0.6117915323727435
 50
201.2114702263764912
 51
234.2532071792215902
  0
ARC
  5
90D3
  8
0
 10
3277.7228052471641604
 20
213.6699702087805122
 30
0.0
 40
0.6511629579274933
 50
234.2532071792215902
 51
261.6215846563462151
  0
ARC
  5
90D4
  8
0
 10
3277.7179512664702088
 20
213.6370132084898046
 30
0.0
 40
0.6178504227981224
 50
261.6215846563462151
 51
298.6160478112507235
  0
ARC
  5
90D5
  8
0
 10
3277.7048634734301231
 20
213.6610019298861118
 30
0.0
 40
0.6451771328247902
 50
298.6160478112507235
 51
331.0159802084339731
  0
ARC
  5
90D6
  8
0
 10
3277.7332703072052027
 20
213.645266120441903
 30
0.0
 40
0.6127030831225705
 50
331.0159802084339731
 51
357.5085054990017852
  0
ARC
  5
90D7
  8
0
 10
3277.7153291474201069
 20
221.1341002893736061
 30
0.0
 40
0.7924999998000003
 50
322.6585388023115115
 51
217.3419048754360858
  0
LINE
  5
90D8
  8
0
 10
3277.6259134818060375
 20
221.9215398672097024
 30
0.0
 11
3277.6369827005200932
 21
221.9326090882736082
 31
0.0
  0
LINE
  5
90D9
  8
0
 10
3277.6369827005200932
 20
221.9326090882736082
 30
0.0
 11
3277.7936541195199425
 21
221.9326090948736123
 31
0.0
  0
LINE
  5
90DA
  8
0
 10
3277.7936541195199425
 20
221.9326090948736123
 30
0.0
 11
3277.8047480338382229
 21
221.9215395014728927
 31
0.0
  0
ENDSEC
  0
EOF
