  0
SECTION
  2
HEADER
  9
$ACADVER
  1
AC1009
  9
$INSBASE
 10
3705.4348171429419381
 20
134.0184319043158894
 30
0.0
  9
$EXTMIN
 10
3702.1725401211519966
 20
130.9906869958622053
 30
-0.0000000349181948
  9
$EXTMAX
 10
3708.6916428140189055
 20
137.044022757500386
 30
0.0000000814935746
  9
$LIMMIN
 10
0.0
 20
0.0
  9
$LIMMAX
 10
11.6929133858000007
 20
8.2677165353999982
  9
$ORTHOMODE
 70
     1
  9
$REGENMODE
 70
     1
  9
$FILLMODE
 70
     1
  9
$QTEXTMODE
 70
     0
  9
$MIRRTEXT
 70
     0
  9
$DRAGMODE
 70
     2
  9
$LTSCALE
 40
0.6431102362
  9
$OSMODE
 70
  4095
  9
$ATTMODE
 70
     1
  9
$TEXTSIZE
 40
0.2
  9
$TRACEWID
 40
0.05
  9
$TEXTSTYLE
  7
STANDARD
  9
$CLAYER
  8
0
  9
$CELTYPE
  6
BYLAYER
  9
$CECOLOR
 62
   256
  9
$DIMSCALE
 40
1.0
  9
$DIMASZ
 40
0.1875
  9
$DIMEXO
 40
0.0625
  9
$DIMDLI
 40
0.4443307087
  9
$DIMRND
 40
0.0
  9
$DIMDLE
 40
0.0
  9
$DIMEXE
 40
0.125
  9
$DIMTP
 40
0.01
  9
$DIMTM
 40
0.01
  9
$DIMTXT
 40
2.0
  9
$DIMCEN
 40
0.1052362205
  9
$DIMTSZ
 40
0.0
  9
$DIMTOL
 70
     1
  9
$DIMLIM
 70
     0
  9
$DIMTIH
 70
     1
  9
$DIMTOH
 70
     1
  9
$DIMSE1
 70
     0
  9
$DIMSE2
 70
     0
  9
$DIMTAD
 70
     0
  9
$DIMZIN
 70
     0
  9
$DIMBLK
  1

  9
$DIMASO
 70
     1
  9
$DIMSHO
 70
     1
  9
$DIMPOST
  1
\X
  9
$DIMAPOST
  1

  9
$DIMALT
 70
     1
  9
$DIMALTD
 70
     2
  9
$DIMALTF
 40
25.3999999999999986
  9
$DIMLFAC
 40
1.0
  9
$DIMTOFL
 70
     0
  9
$DIMTVP
 40
0.0
  9
$DIMTIX
 70
     0
  9
$DIMSOXD
 70
     0
  9
$DIMSAH
 70
     0
  9
$DIMBLK1
  1

  9
$DIMBLK2
  1

  9
$DIMSTYLE
  2
STANDARD
  9
$DIMCLRD
 70
     0
  9
$DIMCLRE
 70
     0
  9
$DIMCLRT
 70
     0
  9
$DIMTFAC
 40
1.0
  9
$DIMGAP
 40
0.09
  9
$LUNITS
 70
     2
  9
$LUPREC
 70
     4
  9
$SKETCHINC
 40
0.1
  9
$FILLETRAD
 40
0.0
  9
$AUNITS
 70
     0
  9
$AUPREC
 70
     0
  9
$MENU
  1
.
  9
$ELEVATION
 40
0.0
  9
$PELEVATION
 40
0.0
  9
$THICKNESS
 40
0.0
  9
$LIMCHECK
 70
     0
  9
$BLIPMODE
 70
     0
  9
$CHAMFERA
 40
0.0
  9
$CHAMFERB
 40
0.0
  9
$SKPOLY
 70
     0
  9
$TDCREATE
 40
2458060.468368056230247
  9
$TDUPDATE
 40
2459398.5431134258396924
  9
$TDINDWG
 40
0.3418010417
  9
$TDUSRTIMER
 40
0.3418010417
  9
$USRTIMER
 70
     1
  9
$ANGBASE
 50
0.0
  9
$ANGDIR
 70
     0
  9
$PDMODE
 70
     0
  9
$PDSIZE
 40
0.3125
  9
$PLINEWID
 40
0.0
  9
$COORDS
 70
     1
  9
$SPLFRAME
 70
     0
  9
$SPLINETYPE
 70
     6
  9
$SPLINESEGS
 70
     8
  9
$ATTDIA
 70
     1
  9
$ATTREQ
 70
     1
  9
$HANDLING
 70
     1
  9
$HANDSEED
  5
16286
  9
$SURFTAB1
 70
     6
  9
$SURFTAB2
 70
     6
  9
$SURFTYPE
 70
     6
  9
$SURFU
 70
     6
  9
$SURFV
 70
     6
  9
$UCSNAME
  2

  9
$UCSORG
 10
0.0
 20
0.0
 30
0.0
  9
$UCSXDIR
 10
1.0
 20
0.0
 30
0.0
  9
$UCSYDIR
 10
0.0
 20
1.0
 30
0.0
  9
$PUCSNAME
  2

  9
$PUCSORG
 10
0.0
 20
0.0
 30
0.0
  9
$PUCSXDIR
 10
1.0
 20
0.0
 30
0.0
  9
$PUCSYDIR
 10
0.0
 20
1.0
 30
0.0
  9
$USERI1
 70
     0
  9
$USERI2
 70
     0
  9
$USERI3
 70
     0
  9
$USERI4
 70
     0
  9
$USERI5
 70
     0
  9
$USERR1
 40
0.0
  9
$USERR2
 40
0.0
  9
$USERR3
 40
0.0
  9
$USERR4
 40
0.0
  9
$USERR5
 40
0.0
  9
$WORLDVIEW
 70
     1
  9
$SHADEDGE
 70
     3
  9
$SHADEDIF
 70
    70
  9
$TILEMODE
 70
     1
  9
$MAXACTVP
 70
    64
  9
$PLIMCHECK
 70
     0
  9
$PEXTMIN
 10
1.0000000000000000E+20
 20
1.0000000000000000E+20
 30
1.0000000000000000E+20
  9
$PEXTMAX
 10
-1.0000000000000000E+20
 20
-1.0000000000000000E+20
 30
-1.0000000000000000E+20
  9
$PLIMMIN
 10
0.0
 20
0.0
  9
$PLIMMAX
 10
12.0
 20
9.0
  9
$UNITMODE
 70
     0
  9
$VISRETAIN
 70
     1
  9
$PLINEGEN
 70
     0
  9
$PSLTSCALE
 70
     1
  0
ENDSEC
  0
SECTION
  2
TABLES
  0
TABLE
  2
VPORT
 70
     1
  0
VPORT
  2
*ACTIVE
 70
     0
 10
0.0
 20
0.0
 11
1.0
 21
1.0
 12
-98.1119759152270632
 22
8.0220926799314185
 13
0.0
 23
0.0
 14
1.0
 24
1.0
 15
0.0
 25
0.0
 16
0.0
 26
0.0
 36
17.1152628219792007
 17
3803.5440673828129547
 27
125.9952621967499056
 37
0.0
 40
6.1030892062544133
 41
2.6159122085048012
 42
50.0
 43
0.0
 44
0.0
 50
0.0
 51
0.0
 71
     0
 72
   100
 73
     1
 74
     1
 75
     0
 76
     0
 77
     0
 78
     1
  0
ENDTAB
  0
TABLE
  2
LTYPE
 70
     2
  0
LTYPE
  2
CONTINUOUS
 70
     0
  3
Solid line
 72
    65
 73
     0
 40
0.0
  0
LTYPE
  2
PHANTOM2
 70
     0
  3
___ _ _ ___ _ _ ___ _ _ ___ _ _
 72
    65
 73
     6
 40
1.25
 49
0.625
 49
-0.125
 49
0.125
 49
-0.125
 49
0.125
 49
-0.125
  0
ENDTAB
  0
TABLE
  2
LAYER
 70
     2
  0
LAYER
  2
0
 70
     0
 62
   255
  6
CONTINUOUS
  0
LAYER
  2
DEFPOINTS
 70
     0
 62
     7
  6
CONTINUOUS
  0
ENDTAB
  0
TABLE
  2
STYLE
 70
     1
  0
STYLE
  2
STANDARD
 70
     0
 40
0.0
 41
0.8
 50
0.0
 71
     0
 42
0.2
  3
txt
  4

  0
ENDTAB
  0
TABLE
  2
VIEW
 70
     0
  0
ENDTAB
  0
TABLE
  2
UCS
 70
     0
  0
ENDTAB
  0
TABLE
  2
APPID
 70
     9
  0
APPID
  2
ACAD
 70
     0
  0
APPID
  2
ACAD_MLEADERVER
 70
     0
  0
APPID
  2
ACAD_EXEMPT_FROM_CAD_STANDARDS
 70
     0
  0
APPID
  2
ACAD_NAV_VCDISPLAY
 70
     0
  0
APPID
  2
ACAECLAYERSTANDARD
 70
     0
  0
APPID
  2
ACCMTRANSPARENCY
 70
     0
  0
APPID
  2
ACAD_DSTYLE_DIMJAG
 70
     0
  0
APPID
  2
ACAD_DSTYLE_DIMTALN
 70
     0
  0
APPID
  2
ACDBATTR
 70
     0
  0
ENDTAB
  0
TABLE
  2
DIMSTYLE
 70
     1
  0
DIMSTYLE
  2
STANDARD
 70
     0
  3

  4

  5

  6

  7

 40
1.0
 41
0.1875
 42
0.0625
 43
0.38
 44
0.125
 45
0.0
 46
0.0
 47
0.01
 48
0.01
140
0.15625
141
0.09
142
0.0
143
25.3999999999999986
144
1.0
145
0.0
146
1.0
147
0.09
 71
     1
 72
     0
 73
     1
 74
     1
 75
     0
 76
     0
 77
     0
 78
     4
170
     0
171
     2
172
     0
173
     0
174
     0
175
     0
176
     0
177
     0
178
     0
  0
ENDTAB
  0
ENDSEC
  0
SECTION
  2
BLOCKS
  0
BLOCK
  8
0
  2
$MODEL_SPACE
 70
     0
 10
0.0
 20
0.0
 30
0.0
  3
$MODEL_SPACE
  1

  0
ENDBLK
  5
21
  8
0
  0
BLOCK
 67
     1
  8
0
  2
$PAPER_SPACE
 70
     0
 10
0.0
 20
0.0
 30
0.0
  3
$PAPER_SPACE
  1

  0
ENDBLK
  5
1D
 67
     1
  8
0
  0
ENDSEC
  0
SECTION
  2
ENTITIES
  0
CIRCLE
  5
15DE6
  8
0
 10
3705.4348171429419381
 20
134.0184319043158894
 30
0.0
 40
3.0200073179000002
  0
ARC
  5
15DE7
  8
0
 10
3705.4348189558440936
 20
134.0184319043158894
 30
0.0
 40
1.046943203046554
 50
180.0
 51
199.6960454868394095
  0
ARC
  5
15DE8
  8
0
 10
3705.4348189558440936
 20
134.0184319043158894
 30
0.0
 40
1.046943203046554
 50
220.3194535875014992
 51
259.6684963404781001
  0
ARC
  5
15DE9
  8
0
 10
3705.4348189558440936
 20
134.0184319043158894
 30
0.0
 40
1.046943203046554
 50
280.3252231868912077
 51
319.6522768939007051
  0
ARC
  5
15DEA
  8
0
 10
3705.4348189558440936
 20
134.0184319043158894
 30
0.0
 40
1.046943203046554
 50
340.2898461105052093
 51
0.0
  0
ARC
  5
15DEB
  8
0
 10
3705.4348189767438271
 20
134.018439399715902
 30
0.0
 40
1.1673046567025509
 50
180.0003679029140073
 51
201.2261850434933876
  0
ARC
  5
15DEC
  8
0
 10
3705.4348189767438271
 20
134.018439399715902
 30
0.0
 40
1.1673046567025509
 50
218.7597085443202047
 51
261.2320807617330161
  0
ARC
  5
15DED
  8
0
 10
3705.4348189767438271
 20
134.018439399715902
 30
0.0
 40
1.1673046567025509
 50
278.7523930633666964
 51
321.2411124715965798
  0
ARC
  5
15DEE
  8
0
 10
3705.4348189767438271
 20
134.018439399715902
 30
0.0
 40
1.1673046567025509
 50
338.7781451736921099
 51
359.9996320970843158
  0
ARC
  5
15E99
  8
0
 10
3705.434816669735028
 20
134.0184301204519102
 30
0.0
 40
1.4999987039605589
 50
205.2901625653987878
 51
214.7095837573818926
  0
ARC
  5
15E9A
  8
0
 10
3704.2510672285930013
 20
133.1984702716115123
 30
0.0
 40
0.0599997827416125
 50
214.7096601697379867
 51
301.668240683314707
  0
ARC
  5
15E9B
  8
0
 10
3707.2457381813492248
 20
128.3436676592550896
 30
0.0
 40
5.6441357801824648
 50
119.3639063667371971
 51
121.6682406833148065
  0
ARC
  5
15E9C
  8
0
 10
3705.1497416815977886
 20
132.068947381737587
 30
0.0
 40
1.3696872382410581
 50
117.1567611870571994
 51
119.3639063667371971
  0
ARC
  5
15E9D
  8
0
 10
3705.2229214914491422
 20
131.9662733611999101
 30
0.0
 40
1.4945552180834261
 50
113.0988961942267963
 51
117.8563935411805943
  0
ARC
  5
15E9E
  8
0
 10
3704.7724710800480352
 20
133.0328774991571947
 30
0.0
 40
0.336766414439531
 50
110.807446488465601
 51
113.7985285483512996
  0
ARC
  5
15E9F
  8
0
 10
3704.9009349396710604
 20
132.7458931431588098
 30
0.0
 40
0.6509203548301682
 50
101.5800059127870014
 51
112.4044184133757938
  0
ARC
  5
15EA0
  8
0
 10
3704.846511604699117
 20
133.0579254420588029
 30
0.0
 40
0.3344445367224569
 50
74.0819935340922768
 51
103.1769778377075966
  0
ARC
  5
15EA1
  8
0
 10
3704.8124259845230881
 20
132.9384095121451992
 30
0.0
 40
0.4587260196790023
 50
51.366752392748559
 51
74.0819935340922768
  0
ARC
  5
15EA2
  8
0
 10
3704.8743872367431322
 20
133.0159347238740111
 30
0.0
 40
0.359482101828523
 50
26.7356733001376199
 51
51.366752392748559
  0
ARC
  5
15EA3
  8
0
 10
3704.8107242407299964
 20
132.983865892823502
 30
0.0
 40
0.4307659498328367
 50
12.7230249846976502
 51
26.7356733001376199
  0
ARC
  5
15EA4
  8
0
 10
3704.1938516346640426
 20
132.844587135914594
 30
0.0
 40
1.063166443381967
 50
8.726191984747647
 51
12.7230249846976502
  0
ARC
  5
15EA5
  8
0
 10
3704.7743873090080342
 20
132.9336931944474998
 30
0.0
 40
0.4758321613464128
 50
6.609606143702198
 51
8.726191984747647
  0
ARC
  5
15EA6
  8
0
 10
3703.5384403593520801
 20
132.7904792576493946
 30
0.0
 40
1.7200488201556241
 50
2.475635860214771
 51
6.609606143702198
  0
ARC
  5
15EA7
  8
0
 10
3703.0667846897049458
 20
132.7700872692404062
 30
0.0
 40
2.1921451068408859
 50
1.096321961044614
 51
2.475635860214771
  0
ARC
  5
15EA8
  8
0
 10
3701.147119197416032
 20
132.7333510848494029
 30
0.0
 40
4.1121620727883741
 50
357.9329669410896031
 51
1.096321961044614
  0
ARC
  5
15EA9
  8
0
 10
3705.3161206140821378
 20
132.5828826845398112
 30
0.0
 40
0.0595538273717115
 50
177.9329669410896031
 51
265.6985762580242181
  0
ARC
  5
15EAA
  8
0
 10
3705.4348171053838996
 20
134.0184316148825872
 30
0.0
 40
1.4999999563666371
 50
265.2902084739677093
 51
274.7097915260324044
  0
ARC
  5
15EAB
  8
0
 10
3705.5535139412208991
 20
132.5828781038844113
 30
0.0
 40
0.0595492337774804
 50
274.3014237419757819
 51
2.0807578442756518
  0
ARC
  5
15EAC
  8
0
 10
3710.2847678208618163
 20
132.7397371729502993
 30
0.0
 40
4.6743044730871777
 50
179.1138793674759029
 51
181.8965604827818936
  0
ARC
  5
15EAD
  8
0
 10
3707.2502028610238085
 20
132.7942565673365038
 30
0.0
 40
1.639276813349217
 50
172.803016083108389
 51
179.3789204795021988
  0
ARC
  5
15EAE
  8
0
 10
3706.1089983308238516
 20
132.9554910083338086
 30
0.0
 40
0.4871603391321712
 50
145.3685001195715927
 51
174.8019826350011101
  0
ARC
  5
15EAF
  8
0
 10
3706.0220940397748564
 20
132.9897891922136068
 30
0.0
 40
0.396726892585175
 50
117.4895141637070992
 51
142.3102275925697029
  0
ARC
  5
15EB0
  8
0
 10
3706.0265843996171498
 20
133.0144875404772051
 30
0.0
 40
0.377203627134602
 50
94.7658634620359379
 51
119.8269018116073994
  0
ARC
  5
15EB1
  8
0
 10
3706.0213471593560826
 20
132.9799207319788081
 30
0.0
 40
0.4112953831000793
 50
74.7051378157881771
 51
93.638656628010537
  0
ARC
  5
15EB2
  8
0
 10
3705.9459561077987928
 20
132.6855862999996987
 30
0.0
 40
0.7151088820390882
 50
68.2688349701744812
 51
75.0993947905964063
  0
ARC
  5
15EB3
  8
0
 10
3705.5403112859848989
 20
131.7261735210884126
 30
0.0
 40
1.756660999431251
 50
59.818344988777632
 51
67.5645793616154862
  0
ARC
  5
15EB4
  8
0
 10
3703.8778309254498708
 20
128.777891498975805
 30
0.0
 40
5.141260264724357
 50
58.199670369012459
 51
60.3211955222878586
  0
ARC
  5
15EB5
  8
0
 10
3706.6185635282740805
 20
133.1984711041851028
 30
0.0
 40
0.0600031595790906
 50
238.3441948344718071
 51
325.2873435455775848
  0
ARC
  5
15EB6
  8
0
 10
3705.4348171048218319
 20
134.018431659728293
 30
0.0
 40
1.500000002442462
 50
325.2902085591795185
 51
334.709612643778712
  0
ARC
  5
15EB7
  8
0
 10
3706.7367990705929515
 20
133.4032547185217936
 30
0.0
 40
0.0600001037672206
 50
334.7097067122526823
 51
61.6680081155857067
  0
ARC
  5
15EB8
  8
0
 10
3708.4600477884050633
 20
136.6727734642049086
 30
0.0
 40
3.635856898734537
 50
237.1153078961108918
 51
242.2167659085743878
  0
ARC
  5
15EB9
  8
0
 10
3706.9231070331561568
 20
134.3144062211347034
 30
0.0
 40
0.8209638701579091
 50
221.7814936685539919
 51
237.8267212158322934
  0
ARC
  5
15EBA
  8
0
 10
3706.5862009369679981
 20
134.0033246736072101
 30
0.0
 40
0.3625423473968185
 50
188.1561747530408013
 51
220.5972132554346956
  0
ARC
  5
15EBB
  8
0
 10
3706.6897947928491703
 20
134.0167274967602964
 30
0.0
 40
0.4669920270008071
 50
179.790883846686711
 51
187.9807513764721136
  0
ARC
  5
15EBC
  8
0
 10
3704.1862016655099978
 20
134.0165757019346131
 30
0.0
 40
0.4606315490734507
 50
350.5603021190569848
 51
0.230884858887754
  0
ARC
  5
15EBD
  8
0
 10
3704.2929732676511776
 20
133.998823763990714
 30
0.0
 40
0.3523942804252852
 50
319.2047616785221749
 51
350.5603021190569848
  0
ARC
  5
15EBE
  8
0
 10
3703.9778731823189446
 20
134.2826083459696918
 30
0.0
 40
0.7764052066981497
 50
303.3713127933223745
 51
318.5430994414780912
  0
ARC
  5
15EBF
  8
0
 10
3703.0060207620781512
 20
135.6926010748701117
 30
0.0
 40
2.4887636883020572
 50
299.3294942011614808
 51
304.2008696803636099
  0
ARC
  5
15EC0
  8
0
 10
3701.3106769515420638
 20
138.6489809965219138
 30
0.0
 40
5.8966949499722263
 50
298.2731835776818912
 51
299.6200461152080834
  0
ARC
  5
15EC1
  8
0
 10
3704.132838192762847
 20
133.4032573290878929
 30
0.0
 40
0.0600037326397629
 50
118.9428139118970051
 51
205.2868334704693893
  0
CIRCLE
  5
15EC2
  8
0
 10
3705.4348171429419381
 20
134.0184319043158894
 30
0.0
 40
0.5290427846
  0
ARC
  5
15F3D
  8
0
 10
3705.4348171429419381
 20
134.0184319043158894
 30
0.0
 40
1.0469432030465651
 50
160.3039545131605905
 51
180.0
  0
ARC
  5
15F3E
  8
0
 10
3705.4348171429419381
 20
134.0184319043158894
 30
0.0
 40
1.0469432030465571
 50
100.3315036595218999
 51
139.6805464124985008
  0
ARC
  5
15F3F
  8
0
 10
3705.4348189558440936
 20
134.0184319043158894
 30
0.0
 40
1.046943203046554
 50
40.347723106099302
 51
79.6747768131088208
  0
ARC
  5
15F40
  8
0
 10
3705.4348189558440936
 20
134.0184319043158894
 30
0.0
 40
1.046943203046554
 50
0.0
 51
19.7101538894947907
  0
ARC
  5
15F41
  8
0
 10
3705.4348171429419381
 20
134.0184243406158942
 30
0.0
 40
1.1673046567025109
 50
158.7738149565066124
 51
179.9996320970859074
  0
ARC
  5
15F42
  8
0
 10
3705.4348171429419381
 20
134.0184319043158894
 30
0.0
 40
1.1673046567025529
 50
98.7679192382669413
 51
141.24029145567971
  0
ARC
  5
15F43
  8
0
 10
3705.4348189767438271
 20
134.0184244089159051
 30
0.0
 40
1.1673046567025509
 50
38.7588875284021199
 51
81.2476069366333036
  0
ARC
  5
15F44
  8
0
 10
3705.4348189767438271
 20
134.0184244089159051
 30
0.0
 40
1.1673046567025509
 50
0.0003679029140336
 51
21.2218548263079398
  0
ARC
  5
15F45
  8
0
 10
3705.434816669735028
 20
134.0184336881800107
 30
0.0
 40
1.4999987039605589
 50
145.2904162426179937
 51
154.7098374345997058
  0
ARC
  5
15F46
  8
0
 10
3704.2510672285930013
 20
134.8383935370202948
 30
0.0
 40
0.0599997827416125
 50
58.3317593166852504
 51
145.2903398302620133
  0
ARC
  5
15F47
  8
0
 10
3707.2457381813492248
 20
139.6931961493766892
 30
0.0
 40
5.6441357801824648
 50
238.3317593166852078
 51
240.6360936332627887
  0
ARC
  5
15F48
  8
0
 10
3705.1497416815977886
 20
135.9679164268943055
 30
0.0
 40
1.3696872382410581
 50
240.6360936332627887
 51
242.8432388129427011
  0
ARC
  5
15F49
  8
0
 10
3705.2229214914491422
 20
136.0705904474320107
 30
0.0
 40
1.4945552180834261
 50
242.1436064588193062
 51
246.9011038057732037
  0
ARC
  5
15F4A
  8
0
 10
3704.7724710800480352
 20
135.0039863094746977
 30
0.0
 40
0.336766414439531
 50
246.2014714516487004
 51
249.1925535115344132
  0
ARC
  5
15F4B
  8
0
 10
3704.9009349396710604
 20
135.2909706654729973
 30
0.0
 40
0.6509203548301682
 50
247.5955815866240926
 51
258.4199940872128991
  0
ARC
  5
15F4C
  8
0
 10
3704.846511604699117
 20
134.9789383665730043
 30
0.0
 40
0.3344445367224569
 50
256.823022162292375
 51
285.9180064659078084
  0
ARC
  5
15F4D
  8
0
 10
3704.8124259845230881
 20
135.098454296486608
 30
0.0
 40
0.4587260196790023
 50
285.9180064659078084
 51
308.6332476072514055
  0
ARC
  5
15F4E
  8
0
 10
3704.8743872367431322
 20
135.0209290847579098
 30
0.0
 40
0.359482101828523
 50
308.6332476072514055
 51
333.2643266998624085
  0
ARC
  5
15F4F
  8
0
 10
3704.8107242407299964
 20
135.0529979158083052
 30
0.0
 40
0.4307659498328367
 50
333.2643266998624085
 51
347.276975015302412
  0
ARC
  5
15F50
  8
0
 10
3704.1938516346640426
 20
135.1922766727172132
 30
0.0
 40
1.063166443381967
 50
347.276975015302412
 51
351.2738080152523139
  0
ARC
  5
15F51
  8
0
 10
3704.7743873090080342
 20
135.1031706141843074
 30
0.0
 40
0.4758321613464128
 50
351.2738080152523139
 51
353.3903938562978055
  0
ARC
  5
15F52
  8
0
 10
3703.5384403593520801
 20
135.2463845509824978
 30
0.0
 40
1.7200488201556241
 50
353.3903938562978055
 51
357.5243641397852912
  0
ARC
  5
15F53
  8
0
 10
3703.0667846897049458
 20
135.2667765393914863
 30
0.0
 40
2.1921451068408859
 50
357.5243641397852912
 51
358.9036780389553769
  0
ARC
  5
15F54
  8
0
 10
3701.147119197416032
 20
135.3035127237824042
 30
0.0
 40
4.1121620727883741
 50
358.9036780389553769
 51
2.0670330589104191
  0
ARC
  5
15F55
  8
0
 10
3705.3161206140821378
 20
135.4539811240921097
 30
0.0
 40
0.0595538273717115
 50
94.3014237419757961
 51
182.0670330589103969
  0
ARC
  5
15F56
  8
0
 10
3705.4348171053838996
 20
134.0184321937493053
 30
0.0
 40
1.4999999563666371
 50
85.2902084739676098
 51
94.7097915260324044
  0
ARC
  5
15F57
  8
0
 10
3705.5535139412208991
 20
135.4539857047473959
 30
0.0
 40
0.0595492337774804
 50
357.9192421557244188
 51
85.6985762580242323
  0
ARC
  5
15F58
  8
0
 10
3710.2847678208618163
 20
135.2971266356815079
 30
0.0
 40
4.6743044730871777
 50
178.1034395172181064
 51
180.8861206325240119
  0
ARC
  5
15F59
  8
0
 10
3707.2502028610238085
 20
135.2426072412953886
 30
0.0
 40
1.639276813349217
 50
180.6210795204978012
 51
187.196983916891611
  0
ARC
  5
15F5A
  8
0
 10
3706.1089983308238516
 20
135.0813728002981122
 30
0.0
 40
0.4871603391321712
 50
185.1980173649988046
 51
214.6314998804284073
  0
ARC
  5
15F5B
  8
0
 10
3706.0220940397748564
 20
135.047074616418314
 30
0.0
 40
0.396726892585175
 50
217.6897724074302971
 51
242.5104858362929008
  0
ARC
  5
15F5C
  8
0
 10
3706.0265843996171498
 20
135.022376268154602
 30
0.0
 40
0.377203627134602
 50
240.1730981883926006
 51
265.2341365379641047
  0
ARC
  5
15F5D
  8
0
 10
3706.0213471593560826
 20
135.056943076652999
 30
0.0
 40
0.4112953831000793
 50
266.3613433719893919
 51
285.2948621842118087
  0
ARC
  5
15F5E
  8
0
 10
3705.9459561077987928
 20
135.3512775086321085
 30
0.0
 40
0.7151088820390882
 50
284.9006052094035795
 51
291.7311650298254904
  0
ARC
  5
15F5F
  8
0
 10
3705.5403112859848989
 20
136.3106902875433946
 30
0.0
 40
1.756660999431251
 50
292.435420638384528
 51
300.1816550112224036
  0
ARC
  5
15F60
  8
0
 10
3703.8778309254498708
 20
139.2589723096560022
 30
0.0
 40
5.141260264724357
 50
299.6788044777121058
 51
301.8003296309875054
  0
ARC
  5
15F61
  8
0
 10
3706.6185635282740805
 20
134.8383927044467043
 30
0.0
 40
0.0600031595790906
 50
34.7126564544223868
 51
121.6558051655281929
  0
ARC
  5
15F62
  8
0
 10
3705.4348171048218319
 20
134.0184321489035142
 30
0.0
 40
1.500000002442462
 50
25.2903873562212915
 51
34.7097914408205668
  0
ARC
  5
15F63
  8
0
 10
3706.7367990705929515
 20
134.6336090901100135
 30
0.0
 40
0.0600001037672206
 50
298.3319918844143217
 51
25.2902932877473106
  0
ARC
  5
15F64
  8
0
 10
3708.4600477884050633
 20
131.3640903444268986
 30
0.0
 40
3.635856898734537
 50
117.783234091425598
 51
122.884692103889094
  0
ARC
  5
15F65
  8
0
 10
3706.9231070331561568
 20
133.722457587497189
 30
0.0
 40
0.8209638701579091
 50
122.1732787841677066
 51
138.2185063314460081
  0
ARC
  5
15F66
  8
0
 10
3706.5862009369679981
 20
134.033539135024597
 30
0.0
 40
0.3625423473968185
 50
139.4027867445651907
 51
171.8438252469591987
  0
ARC
  5
15F67
  8
0
 10
3706.6897947928491703
 20
134.0201363118715108
 30
0.0
 40
0.4669920270008071
 50
172.0192486235278864
 51
180.2091161533132038
  0
ARC
  5
15F68
  8
0
 10
3704.1862016655099978
 20
134.0202881066973077
 30
0.0
 40
0.4606315490734507
 50
359.7691151411106034
 51
9.4396978809429477
  0
ARC
  5
15F69
  8
0
 10
3704.2929732676511776
 20
134.0380400446410931
 30
0.0
 40
0.3523942804252852
 50
9.4396978809429477
 51
40.7952383214777399
  0
ARC
  5
15F6A
  8
0
 10
3703.9778731823189446
 20
133.754255462662087
 30
0.0
 40
0.7764052066981497
 50
41.456900558521923
 51
56.6286872066776397
  0
ARC
  5
15F6B
  8
0
 10
3703.0060207620781512
 20
132.3442627337616955
 30
0.0
 40
2.4887636883020572
 50
55.7991303196364115
 51
60.6705057988384624
  0
ARC
  5
15F6C
  8
0
 10
3701.3106769515420638
 20
129.3878828121098934
 30
0.0
 40
5.8966949499722263
 50
60.3799538847918313
 51
61.7268164223180378
  0
ARC
  5
15F6D
  8
0
 10
3704.132838192762847
 20
134.6336064795438858
 30
0.0
 40
0.0600037326397629
 50
154.7131665295306107
 51
241.0571860881022133
  0
CIRCLE
  5
1602F
  8
0
 10
3705.4348171429419381
 20
134.0184319043158894
 30
0.0
 40
2.6819598292000002
  0
CIRCLE
  5
16030
  8
0
 10
3705.4348171429419381
 20
134.0184319043158894
 30
0.0
 40
0.3818891285452199
  0
ATTDEF
  5
16031
  8
DEFPOINTS
 10
3705.4358914897029535
 20
134.0148097670432037
 30
0.0
 40
0.001
  1
K-T72769-3M
  3

  2
MODELNUMBER
 70
     0
1001
ACDBATTR
1070
     0
1070
     1
  0
ATTDEF
  5
16032
  8
DEFPOINTS
 10
3705.4358914897029535
 20
134.0131431003765101
 30
0.0
 40
0.001
  1
ARTIFACTS
  3

  2
TRADENAME
 70
     0
1001
ACDBATTR
1070
     0
1070
     1
  0
ATTDEF
  5
16033
  8
DEFPOINTS
 10
3705.4358914897029535
 20
134.0114764337099018
 30
0.0
 40
0.001
  1
VALVE TRIM
  3

  2
PRODUCT
 70
     0
1001
ACDBATTR
1070
     0
1070
     1
  0
ENDSEC
  0
EOF
