  0
SECTION
  2
HEADER
  9
$ACADVER
  1
AC1009
  9
$INSBASE
 10
3685.1526773894011058
 20
141.2199107700384104
 30
0.0
  9
$EXTMIN
 10
3675.3708587661030833
 20
136.3828381669273995
 30
0.0
  9
$EXTMAX
 10
3687.4213866513391622
 20
143.4914772782987882
 30
0.0
  9
$LIMMIN
 10
0.0
 20
0.0
  9
$LIMMAX
 10
11.6929133858000007
 20
8.2677165353999982
  9
$ORTHOMODE
 70
     0
  9
$REGENMODE
 70
     1
  9
$FILLMODE
 70
     1
  9
$QTEXTMODE
 70
     0
  9
$MIRRTEXT
 70
     0
  9
$DRAGMODE
 70
     2
  9
$LTSCALE
 40
0.6431102362
  9
$OSMODE
 70
  4095
  9
$ATTMODE
 70
     1
  9
$TEXTSIZE
 40
0.2
  9
$TRACEWID
 40
0.05
  9
$TEXTSTYLE
  7
STANDARD
  9
$CLAYER
  8
0
  9
$CELTYPE
  6
BYLAYER
  9
$CECOLOR
 62
   256
  9
$DIMSCALE
 40
1.0
  9
$DIMASZ
 40
0.1875
  9
$DIMEXO
 40
0.0625
  9
$DIMDLI
 40
0.4443307087
  9
$DIMRND
 40
0.0
  9
$DIMDLE
 40
0.0
  9
$DIMEXE
 40
0.125
  9
$DIMTP
 40
0.01
  9
$DIMTM
 40
0.01
  9
$DIMTXT
 40
2.0
  9
$DIMCEN
 40
0.1052362205
  9
$DIMTSZ
 40
0.0
  9
$DIMTOL
 70
     1
  9
$DIMLIM
 70
     0
  9
$DIMTIH
 70
     1
  9
$DIMTOH
 70
     1
  9
$DIMSE1
 70
     0
  9
$DIMSE2
 70
     0
  9
$DIMTAD
 70
     0
  9
$DIMZIN
 70
     0
  9
$DIMBLK
  1

  9
$DIMASO
 70
     1
  9
$DIMSHO
 70
     1
  9
$DIMPOST
  1
\X
  9
$DIMAPOST
  1

  9
$DIMALT
 70
     1
  9
$DIMALTD
 70
     2
  9
$DIMALTF
 40
25.3999999999999986
  9
$DIMLFAC
 40
1.0
  9
$DIMTOFL
 70
     0
  9
$DIMTVP
 40
0.0
  9
$DIMTIX
 70
     0
  9
$DIMSOXD
 70
     0
  9
$DIMSAH
 70
     0
  9
$DIMBLK1
  1

  9
$DIMBLK2
  1

  9
$DIMSTYLE
  2
STANDARD
  9
$DIMCLRD
 70
     0
  9
$DIMCLRE
 70
     0
  9
$DIMCLRT
 70
     0
  9
$DIMTFAC
 40
1.0
  9
$DIMGAP
 40
0.09
  9
$LUNITS
 70
     2
  9
$LUPREC
 70
     4
  9
$SKETCHINC
 40
0.1
  9
$FILLETRAD
 40
0.0
  9
$AUNITS
 70
     0
  9
$AUPREC
 70
     0
  9
$MENU
  1
.
  9
$ELEVATION
 40
0.0
  9
$PELEVATION
 40
0.0
  9
$THICKNESS
 40
0.0
  9
$LIMCHECK
 70
     0
  9
$BLIPMODE
 70
     0
  9
$CHAMFERA
 40
0.0
  9
$CHAMFERB
 40
0.0
  9
$SKPOLY
 70
     0
  9
$TDCREATE
 40
2458060.468368056230247
  9
$TDUPDATE
 40
2459899.4962962968274951
  9
$TDINDWG
 40
0.3948334491
  9
$TDUSRTIMER
 40
0.3948334491
  9
$USRTIMER
 70
     1
  9
$ANGBASE
 50
0.0
  9
$ANGDIR
 70
     0
  9
$PDMODE
 70
     0
  9
$PDSIZE
 40
0.3125
  9
$PLINEWID
 40
0.0
  9
$COORDS
 70
     1
  9
$SPLFRAME
 70
     0
  9
$SPLINETYPE
 70
     6
  9
$SPLINESEGS
 70
     8
  9
$ATTDIA
 70
     1
  9
$ATTREQ
 70
     1
  9
$HANDLING
 70
     1
  9
$HANDSEED
  5
1468A
  9
$SURFTAB1
 70
     6
  9
$SURFTAB2
 70
     6
  9
$SURFTYPE
 70
     6
  9
$SURFU
 70
     6
  9
$SURFV
 70
     6
  9
$UCSNAME
  2

  9
$UCSORG
 10
0.0
 20
0.0
 30
0.0
  9
$UCSXDIR
 10
1.0
 20
0.0
 30
0.0
  9
$UCSYDIR
 10
0.0
 20
1.0
 30
0.0
  9
$PUCSNAME
  2

  9
$PUCSORG
 10
0.0
 20
0.0
 30
0.0
  9
$PUCSXDIR
 10
1.0
 20
0.0
 30
0.0
  9
$PUCSYDIR
 10
0.0
 20
1.0
 30
0.0
  9
$USERI1
 70
     0
  9
$USERI2
 70
     0
  9
$USERI3
 70
     0
  9
$USERI4
 70
     0
  9
$USERI5
 70
     0
  9
$USERR1
 40
0.0
  9
$USERR2
 40
0.0
  9
$USERR3
 40
0.0
  9
$USERR4
 40
0.0
  9
$USERR5
 40
0.0
  9
$WORLDVIEW
 70
     1
  9
$SHADEDGE
 70
     3
  9
$SHADEDIF
 70
    70
  9
$TILEMODE
 70
     1
  9
$MAXACTVP
 70
    64
  9
$PLIMCHECK
 70
     0
  9
$PEXTMIN
 10
1.0000000000000000E+20
 20
1.0000000000000000E+20
 30
1.0000000000000000E+20
  9
$PEXTMAX
 10
-1.0000000000000000E+20
 20
-1.0000000000000000E+20
 30
-1.0000000000000000E+20
  9
$PLIMMIN
 10
0.0
 20
0.0
  9
$PLIMMAX
 10
12.0
 20
9.0
  9
$UNITMODE
 70
     0
  9
$VISRETAIN
 70
     1
  9
$PLINEGEN
 70
     0
  9
$PSLTSCALE
 70
     1
  0
ENDSEC
  0
SECTION
  2
TABLES
  0
TABLE
  2
VPORT
 70
     1
  0
VPORT
  2
*ACTIVE
 70
     0
 10
0.0
 20
0.0
 11
1.0
 21
1.0
 12
-125.9131841004872996
 22
9.9270776985607192
 13
0.0
 23
0.0
 14
1.0
 24
1.0
 15
0.0
 25
0.0
 16
0.0
 26
0.0
 36
17.1152628219792007
 17
3803.5440673828129547
 27
125.9952621967499056
 37
0.0
 40
23.5276200323431297
 41
2.848348348348348
 42
50.0
 43
0.0
 44
0.0
 50
0.0
 51
0.0
 71
     0
 72
   100
 73
     1
 74
     1
 75
     0
 76
     0
 77
     0
 78
     0
  0
ENDTAB
  0
TABLE
  2
LTYPE
 70
     2
  0
LTYPE
  2
CONTINUOUS
 70
     0
  3
Solid line
 72
    65
 73
     0
 40
0.0
  0
LTYPE
  2
PHANTOM2
 70
     0
  3
___ _ _ ___ _ _ ___ _ _ ___ _ _
 72
    65
 73
     6
 40
1.25
 49
0.625
 49
-0.125
 49
0.125
 49
-0.125
 49
0.125
 49
-0.125
  0
ENDTAB
  0
TABLE
  2
LAYER
 70
     2
  0
LAYER
  2
0
 70
     0
 62
   255
  6
CONTINUOUS
  0
LAYER
  2
DEFPOINTS
 70
     0
 62
     7
  6
CONTINUOUS
  0
ENDTAB
  0
TABLE
  2
STYLE
 70
     1
  0
STYLE
  2
STANDARD
 70
     0
 40
0.0
 41
0.8
 50
0.0
 71
     0
 42
0.2
  3
txt
  4

  0
ENDTAB
  0
TABLE
  2
VIEW
 70
     0
  0
ENDTAB
  0
TABLE
  2
UCS
 70
     0
  0
ENDTAB
  0
TABLE
  2
APPID
 70
     9
  0
APPID
  2
ACAD
 70
     0
  0
APPID
  2
ACAD_MLEADERVER
 70
     0
  0
APPID
  2
ACAD_EXEMPT_FROM_CAD_STANDARDS
 70
     0
  0
APPID
  2
ACAD_NAV_VCDISPLAY
 70
     0
  0
APPID
  2
ACAECLAYERSTANDARD
 70
     0
  0
APPID
  2
ACCMTRANSPARENCY
 70
     0
  0
APPID
  2
ACAD_DSTYLE_DIMJAG
 70
     0
  0
APPID
  2
ACAD_DSTYLE_DIMTALN
 70
     0
  0
APPID
  2
ACDBATTR
 70
     0
  0
ENDTAB
  0
TABLE
  2
DIMSTYLE
 70
     1
  0
DIMSTYLE
  2
STANDARD
 70
     0
  3

  4

  5

  6

  7

 40
1.0
 41
0.1875
 42
0.0625
 43
0.38
 44
0.125
 45
0.0
 46
0.0
 47
0.01
 48
0.01
140
0.15625
141
0.09
142
0.0
143
25.3999999999999986
144
1.0
145
0.0
146
1.0
147
0.09
 71
     1
 72
     0
 73
     1
 74
     1
 75
     0
 76
     0
 77
     0
 78
     4
170
     0
171
     2
172
     0
173
     0
174
     0
175
     0
176
     0
177
     0
178
     0
  0
ENDTAB
  0
ENDSEC
  0
SECTION
  2
BLOCKS
  0
BLOCK
  8
0
  2
$MODEL_SPACE
 70
     0
 10
0.0
 20
0.0
 30
0.0
  3
$MODEL_SPACE
  1

  0
ENDBLK
  5
21
  8
0
  0
BLOCK
 67
     1
  8
0
  2
$PAPER_SPACE
 70
     0
 10
0.0
 20
0.0
 30
0.0
  3
$PAPER_SPACE
  1

  0
ENDBLK
  5
1D
 67
     1
  8
0
  0
BLOCK
  8
0
  2
_FILLED
 70
     0
 10
0.0
 20
0.0
 30
0.0
  3
_FILLED
  1

  0
SOLID
  5
1354A
  8
0
  6
BYBLOCK
 62
     0
 10
0.0
 20
0.0
 30
0.0
 11
-1.0
 21
0.1666666667
 31
0.0
 12
-1.0
 22
-0.1666666667
 32
0.0
 13
-1.0
 23
-0.1666666667
 33
0.0
  0
ENDBLK
  5
1354B
  8
0
  6
BYBLOCK
 62
     0
  0
ENDSEC
  0
SECTION
  2
ENTITIES
  0
ATTDEF
  5
1332F
  8
DEFPOINTS
 10
3685.1439819143151908
 20
141.2238680951016931
 30
0.0
 40
0.001
  1
K-72771-3M
  3

  2
MODELNUMBER
 70
     0
1001
ACDBATTR
1070
     0
1070
     1
  0
ATTDEF
  5
13330
  8
DEFPOINTS
 10
3685.1439819143151908
 20
141.2222014284349996
 30
0.0
 40
0.001
  1
ARTIFACTS
  3

  2
TRADENAME
 70
     0
1001
ACDBATTR
1070
     0
1070
     1
  0
ATTDEF
  5
13331
  8
DEFPOINTS
 10
3685.1439819143151908
 20
141.220534761768306
 30
0.0
 40
0.001
  1
VALVE TRIM
  3

  2
PRODUCT
 70
     0
1001
ACDBATTR
1070
     0
1070
     1
  0
ARC
  5
144A3
  8
0
 10
3686.9754808548577785
 20
141.2365022112221027
 30
0.0
 40
0.4275129817248513
 50
329.0505349072213903
 51
357.775837486975604
  0
ARC
  5
144A4
  8
0
 10
3686.9865077454469429
 20
141.3355394707251946
 30
0.0
 40
0.4776615147667176
 50
279.4094559616975744
 51
318.1158690789599177
  0
ARC
  5
144A5
  8
0
 10
3687.0705968769370884
 20
140.8114350742542911
 30
0.0
 40
0.0532087382831342
 50
96.4712072847292461
 51
173.8827707086464898
  0
ARC
  5
144A6
  8
0
 10
3687.0705968769370884
 20
140.8114350742542911
 30
0.0
 40
0.0532087382831342
 50
186.1172292913535102
 51
186.1466238779445064
  0
ARC
  5
144A7
  8
0
 10
3686.9578487017961379
 20
140.7782614350767858
 30
0.0
 40
0.0598426081057754
 50
272.3450257827732912
 51
359.8527036709870117
  0
ARC
  5
144A8
  8
0
 10
3684.2020447782301744
 20
221.3817779840566118
 30
0.0
 40
80.7104539849157447
 50
271.5405457341863098
 51
271.958445252052627
  0
LINE
  5
144A9
  8
0
 10
3686.2665647017320225
 20
140.6419160507469996
 30
0.0
 11
3684.0387901505700938
 21
140.6419160507469996
 31
0.0
  0
LINE
  5
144AA
  8
0
 10
3686.2166774263509978
 20
140.6419160507469996
 30
0.0
 11
3686.2166774263509978
 21
140.5544749353383907
 31
0.0
  0
ARC
  5
144AB
  8
0
 10
3686.2415515825678085
 20
140.5509316737997949
 30
0.0
 40
0.025125253229873
 50
171.8928999688596093
 51
257.4157673513824989
  0
ARC
  5
144AC
  8
0
 10
3686.1936760828889419
 20
140.4141467542758903
 30
0.0
 40
0.1200038026873877
 50
283.9021212498084878
 51
0.3668258580483558
  0
ARC
  5
144AD
  8
0
 10
3686.1936760828889419
 20
140.4141467542758903
 30
0.0
 40
0.1200038026873888
 50
0.3668258580483558
 51
69.308667320205231
  0
ARC
  5
144AE
  8
0
 10
3686.2256035959321707
 20
140.2717208900645005
 30
0.0
 40
0.0261212581024244
 50
96.8045528992945776
 51
187.0069192256241024
  0
ARC
  5
144AF
  8
0
 10
3703.59445980683995
 20
140.2410136234383913
 30
0.0
 40
17.3948041511413294
 50
179.9093508751020067
 51
180.0906491248979933
  0
ARC
  5
144B0
  8
0
 10
3686.1744759569201051
 20
140.2105400646690896
 30
0.0
 40
0.0253738666937951
 50
289.4920771610547945
 51
6.682757261335845
  0
ARC
  5
144B1
  8
0
 10
3686.4182928657310185
 20
139.7635167666983023
 30
0.0
 40
0.4841554001516926
 50
119.0848787938841014
 51
147.0038138372322862
  0
ARC
  5
144B2
  8
0
 10
3687.0807512442647749
 20
139.4103798061719885
 30
0.0
 40
1.233767836420451
 50
150.0045073336360133
 51
170.3283099465203065
  0
ARC
  5
144B3
  8
0
 10
3689.4421927715929996
 20
139.0556646010745112
 30
0.0
 40
3.6215439244048442
 50
171.0727661258466981
 51
179.1110566679136014
  0
ARC
  5
144B4
  8
0
 10
3684.4736492253941833
 20
139.1620932884219997
 30
0.0
 40
1.348371884591681
 50
347.315599999926917
 51
357.8645631553515045
  0
ARC
  5
144B5
  8
0
 10
3685.5016128276351992
 20
138.9230972413888026
 30
0.0
 40
0.2931119928946719
 50
309.4326363926946897
 51
348.7705417732520914
  0
ARC
  5
144B6
  8
0
 10
3685.7044200814461874
 20
138.6716383850587988
 30
0.0
 40
0.030082701839171
 50
123.5625744474428984
 51
237.985349286538991
  0
ARC
  5
144B7
  8
0
 10
3685.6693850461970214
 20
138.6187917659190987
 30
0.0
 40
0.0333428421229624
 50
3.152628368136698
 51
55.0787526996132186
  0
LINE
  5
144B8
  8
0
 10
3685.7026774264500091
 20
138.6206254883383906
 30
0.0
 11
3685.7026774264500091
 21
138.4690596307383998
 31
0.0
  0
ARC
  5
144B9
  8
0
 10
3685.6709806145568109
 20
138.4703579869602947
 30
0.0
 40
0.0317233922070987
 50
287.5009523285156092
 51
357.6543770931306767
  0
ARC
  5
144BA
  8
0
 10
3693.3263082264529658
 20
110.1816617563070935
 30
0.0
 40
29.2745208599603615
 50
105.1398237433245981
 51
105.2027179667562962
  0
ARC
  5
144BB
  8
0
 10
3685.6534214217140288
 20
138.4059640022124995
 30
0.0
 40
0.0260254029871671
 50
98.6538326365464684
 51
182.1816823460964088
  0
ARC
  5
144BC
  8
0
 10
3685.4456422226357972
 20
138.4113401943235999
 30
0.0
 40
0.1818841338043679
 50
312.176415121527782
 51
357.9939256010475788
  0
ARC
  5
144BD
  8
0
 10
3685.3518135176382202
 20
138.5388706043833906
 30
0.0
 40
0.3397738012732762
 50
278.6095024120982089
 51
309.4619484610303743
  0
LINE
  5
144BE
  8
0
 10
3685.402677426351147
 20
138.2029255213383863
 30
0.0
 11
3684.9026774313510941
 21
138.2029255213383863
 31
0.0
  0
LINE
  5
144BF
  8
0
 10
3684.0886774313507885
 20
140.6419160507469996
 30
0.0
 11
3684.0886774313507885
 21
140.5544749353383907
 31
0.0
  0
ARC
  5
144C0
  8
0
 10
3684.0638032751330684
 20
140.5509316737997949
 30
0.0
 40
0.025125253229873
 50
282.5842326486173874
 51
8.1071000311403996
  0
ARC
  5
144C1
  8
0
 10
3684.1116787748142087
 20
140.4141467542758903
 30
0.0
 40
0.1200038026873888
 50
110.6913326797946979
 51
179.639106072090101
  0
ARC
  5
144C2
  8
0
 10
3684.1116787748142087
 20
140.4141467542758903
 30
0.0
 40
0.1200038026873879
 50
179.6391060720893051
 51
256.0978787501915122
  0
ARC
  5
144C3
  8
0
 10
3684.0797512617700704
 20
140.2717208900645005
 30
0.0
 40
0.0261212581024244
 50
352.993080774375926
 51
83.1954471007054366
  0
ARC
  5
144C4
  8
0
 10
3666.7108950508609269
 20
140.2410136234383913
 30
0.0
 40
17.3948041511413294
 50
359.9093508751020067
 51
0.0906491248980053
  0
ARC
  5
144C5
  8
0
 10
3684.130878900782136
 20
140.2105400646690896
 30
0.0
 40
0.0253738666937951
 50
173.3172427386641061
 51
250.5079228389452055
  0
ARC
  5
144C6
  8
0
 10
3683.8870619919698584
 20
139.7635167666983023
 30
0.0
 40
0.4841554001516926
 50
32.9961861627676711
 51
60.9151212061158986
  0
ARC
  5
144C7
  8
0
 10
3683.2246036134370115
 20
139.4103798061719885
 30
0.0
 40
1.233767836420451
 50
9.6716900534796686
 51
29.9954926663640293
  0
ARC
  5
144C8
  8
0
 10
3680.8631620861078773
 20
139.0556646010745112
 30
0.0
 40
3.6215439244048442
 50
0.8889433320864513
 51
8.9272338741532611
  0
ARC
  5
144C9
  8
0
 10
3685.8317056323071483
 20
139.1620932884219997
 30
0.0
 40
1.348371884591681
 50
182.1354368446484955
 51
192.6844000000731114
  0
ARC
  5
144CA
  8
0
 10
3684.8037420300661324
 20
138.9230972413888026
 30
0.0
 40
0.2931119928946719
 50
191.2294582267477949
 51
230.5673636073051966
  0
ARC
  5
144CB
  8
0
 10
3684.6009347762560537
 20
138.6716383850587988
 30
0.0
 40
0.030082701839171
 50
302.0146507134609806
 51
56.4374255525570518
  0
ARC
  5
144CC
  8
0
 10
3684.6359698115038555
 20
138.6187917659190987
 30
0.0
 40
0.0333428421229624
 50
124.9212473003867956
 51
176.8473716318632967
  0
LINE
  5
144CD
  8
0
 10
3684.6026774312508678
 20
138.6206254883383906
 30
0.0
 11
3684.6026774312508678
 21
138.4690596307383998
 31
0.0
  0
ARC
  5
144CE
  8
0
 10
3684.634374243144066
 20
138.4703579869602947
 30
0.0
 40
0.0317233922070987
 50
182.3456229068692949
 51
252.4990476714843908
  0
ARC
  5
144CF
  8
0
 10
3676.9790466312488206
 20
110.1816617563070935
 30
0.0
 40
29.2745208599603615
 50
74.7972820332436612
 51
74.860176256675345
  0
ARC
  5
144D0
  8
0
 10
3684.6519334359882123
 20
138.4059640022124995
 30
0.0
 40
0.0260254029871671
 50
357.8183176539035912
 51
81.3461673634535316
  0
ARC
  5
144D1
  8
0
 10
3684.8597126350650797
 20
138.4113401943235999
 30
0.0
 40
0.1818841338043679
 50
182.0060743989523928
 51
227.8235848784721043
  0
ARC
  5
144D2
  8
0
 10
3684.9535413400640209
 20
138.5388706043833906
 30
0.0
 40
0.3397738012732762
 50
230.5380515389695972
 51
261.3904975879017911
  0
LINE
  5
144D3
  8
0
 10
3686.2166774263509978
 20
140.5544749353383907
 30
0.0
 11
3684.0886774313507885
 21
140.5544749353383907
 31
0.0
  0
LINE
  5
144D4
  8
0
 10
3686.1996774263511725
 20
140.2685343785383907
 30
0.0
 11
3684.1056774313510687
 21
140.2685343785383907
 31
0.0
  0
ARC
  5
144D5
  8
0
 10
3685.6696999084188064
 20
138.6034079147794955
 30
0.0
 40
0.0330241862361165
 50
3.046374366634149
 51
51.2360216111243716
  0
ARC
  5
144D6
  8
0
 10
3685.6760945394898954
 20
138.6113714791183043
 30
0.0
 40
0.0228109759907352
 50
51.2360216111451905
 51
74.771319814779531
  0
ARC
  5
144D7
  8
0
 10
3685.5626897633510453
 20
138.0713316364783054
 30
0.0
 40
0.5745916273625343
 50
78.0069046815783338
 51
90.092444378207702
  0
ARC
  5
144D8
  8
0
 10
3685.5398306646820856
 20
136.1304731246524113
 30
0.0
 40
2.515545001304111
 50
89.5004549493577457
 51
91.5332662543932543
  0
ARC
  5
144D9
  8
0
 10
3685.4863809499602212
 20
138.0897121715447042
 30
0.0
 40
0.5555781832861005
 50
91.4294644187016701
 51
101.8844678422260017
  0
ARC
  5
144DA
  8
0
 10
3685.1526773855898682
 20
136.7224700070692904
 30
0.0
 40
1.9234526123067861
 50
83.453606368083328
 51
96.546359104389694
  0
ARC
  5
144DB
  8
0
 10
3684.8126329340079792
 20
138.0605199438352031
 30
0.0
 40
0.5854509053034758
 50
78.0965213559415901
 51
90.739198498274817
  0
ARC
  5
144DC
  8
0
 10
3684.7783838250288682
 20
136.7146948322495916
 30
0.0
 40
1.9314118013710639
 50
89.2080271647487706
 51
92.4721062971351131
  0
ARC
  5
144DD
  8
0
 10
3684.8071406411040698
 20
137.6665207673584064
 30
0.0
 40
0.9841892816772441
 50
96.538147062420208
 51
100.7676101612611035
  0
ARC
  5
144DE
  8
0
 10
3684.6340394872449906
 20
138.6038999295707015
 30
0.0
 40
0.0313874831969739
 50
110.0696184457700042
 51
177.6935820907262951
  0
ARC
  5
144DF
  8
0
 10
3685.6696999084188064
 20
138.4824192484973082
 30
0.0
 40
0.0330241862361165
 50
308.7639783888756142
 51
356.9536256333659026
  0
ARC
  5
144E0
  8
0
 10
3685.6760945394898954
 20
138.4744556841584995
 30
0.0
 40
0.0228109759907352
 50
285.2286801852205258
 51
308.7639783888548095
  0
ARC
  5
144E1
  8
0
 10
3685.5626897633510453
 20
139.0144955267984983
 30
0.0
 40
0.5745916273625343
 50
269.9075556217923122
 51
281.9930953184216946
  0
ARC
  5
144E2
  8
0
 10
3685.5398306646820856
 20
140.9553540386243924
 30
0.0
 40
2.515545001304111
 50
268.4667337456068026
 51
270.4995450506423254
  0
ARC
  5
144E3
  8
0
 10
3685.4863809499602212
 20
138.9961149917320995
 30
0.0
 40
0.5555781832861005
 50
258.1155321577738846
 51
268.5705355812983157
  0
ARC
  5
144E4
  8
0
 10
3685.1526773855898682
 20
140.3633571562075133
 30
0.0
 40
1.9234526123067861
 50
263.453640895610306
 51
276.5463936319167146
  0
ARC
  5
144E5
  8
0
 10
3684.8126329340079792
 20
139.0253072194416006
 30
0.0
 40
0.5854509053034758
 50
269.2608015017252114
 51
281.9034786440583957
  0
ARC
  5
144E6
  8
0
 10
3684.7783838250288682
 20
140.3711323310272121
 30
0.0
 40
1.9314118013710639
 50
267.5278937028647874
 51
270.7919728352512152
  0
ARC
  5
144E7
  8
0
 10
3684.8071406411040698
 20
139.4193063959183974
 30
0.0
 40
0.9841892816772441
 50
259.2323898387389249
 51
263.4618529375798062
  0
ARC
  5
144E8
  8
0
 10
3684.6340394872449906
 20
138.4819272337059886
 30
0.0
 40
0.0313874831969739
 50
182.3064179092376094
 51
249.9303815542299958
  0
ARC
  5
144E9
  8
0
 10
3684.9511309267982142
 20
138.6030717869377042
 30
0.0
 40
0.0351200694056176
 50
120.341086927758198
 51
176.5863887083347095
  0
LINE
  5
144EA
  8
0
 10
3684.9160731705510443
 20
138.6051629593384007
 30
0.0
 11
3684.9160731705510443
 21
138.4806642034153867
 31
0.0
  0
ARC
  5
144EB
  8
0
 10
3684.9478420000350525
 20
138.4807370551021108
 30
0.0
 40
0.0317689130149375
 50
180.1313893816534062
 51
242.9411359289242114
  0
ARC
  5
144EC
  8
0
 10
3685.3517231119171811
 20
138.6015377265069048
 30
0.0
 40
0.0377331223006844
 50
5.5132310587001738
 51
57.5563762571443434
  0
LINE
  5
144ED
  8
0
 10
3685.3892816822499299
 20
138.6051629593384007
 30
0.0
 11
3685.3892816818511164
 21
138.480664203938403
 31
0.0
  0
ARC
  5
144EE
  8
0
 10
3685.3573505014128386
 20
138.4808362639014092
 30
0.0
 40
0.0319316440035874
 50
297.2391270259063276
 51
359.6912668382813081
  0
LINE
  5
144EF
  8
0
 10
3684.1056774313510687
 20
140.2134928683383919
 30
0.0
 11
3686.1996774263511725
 21
140.2134928683383919
 31
0.0
  0
ARC
  5
144F0
  8
0
 10
3686.2637848065460275
 20
140.7068380496139071
 30
0.0
 40
0.0649814877801303
 50
272.4518503555253233
 51
329.8742871466579913
  0
ARC
  5
144F1
  8
0
 10
3683.3118230970321747
 20
141.2311256752003032
 30
0.0
 40
0.4092937596915223
 50
181.5701367325609112
 51
211.6035289314243926
  0
ARC
  5
144F2
  8
0
 10
3683.3188473442960458
 20
141.3355397698572915
 30
0.0
 40
0.477661891249377
 50
221.8841386195553014
 51
260.5904910034445265
  0
ARC
  5
144F3
  8
0
 10
3683.2347580277619272
 20
140.8114350895677944
 30
0.0
 40
0.0532086878258184
 50
6.1172518071191382
 51
83.5291254287838285
  0
ARC
  5
144F4
  8
0
 10
3683.3457059980801205
 20
140.7765009446729891
 30
0.0
 40
0.0580709040540868
 50
181.7997373730970025
 51
269.3602857094359138
  0
ARC
  5
144F5
  8
0
 10
3686.9002636099758092
 20
246.3958575094632124
 30
0.0
 40
105.7372091597767962
 50
268.0731787909444961
 51
268.3921689755708258
  0
ARC
  5
144F6
  8
0
 10
3684.0415705059917855
 20
140.7068395733909938
 30
0.0
 40
0.0649830298523129
 50
210.1272440489165092
 51
267.5478016989317211
  0
LINE
  5
144F7
  8
0
 10
3687.4026717648998783
 20
141.2199107700384104
 30
0.0
 11
3682.9026830139009689
 21
141.2199107700384104
 31
0.0
  0
LINE
  5
144F8
  8
0
 10
3683.9334612569041383
 20
140.7002782041006128
 30
0.0
 11
3686.371893336496214
 21
140.7004967616726105
 31
0.0
  0
LINE
  5
144F9
  8
0
 10
3687.0646000445058235
 20
140.864304799338413
 30
0.0
 11
3683.2407545474961807
 21
140.864304799338413
 31
0.0
  0
LINE
  5
144FA
  8
0
 62
     7
 10
3684.91267742609989
 20
138.2029255213383863
 30
0.0
 11
3684.91267742609989
 21
138.1849107700384138
 31
0.0
  0
LINE
  5
144FB
  8
0
 62
     7
 10
3685.3926774261008177
 20
138.2029255213383863
 30
0.0
 11
3685.3926774261008177
 21
138.1849107700384138
 31
0.0
  0
LINE
  5
144FC
  8
0
 62
     7
 10
3685.4251874909000435
 20
138.1849107700384138
 30
0.0
 11
3684.8801673614011634
 21
138.1849107700384138
 31
0.0
  0
LINE
  5
144FD
  8
0
 62
     7
 10
3685.455073331901076
 20
138.1575254423383967
 30
0.0
 11
3684.8502815204010403
 21
138.1575254423383967
 31
0.0
  0
LINE
  5
144FE
  8
0
 62
     7
 10
3685.4885252044450681
 20
138.0561028149384128
 30
0.0
 11
3684.8168296477560943
 21
138.0561028149384128
 31
0.0
  0
LINE
  5
144FF
  8
0
 62
     7
 10
3685.5211134013720766
 20
137.9503159598384059
 30
0.0
 11
3684.7842414509291302
 21
137.9503159598384059
 31
0.0
  0
ARC
  5
14500
  8
0
 62
     7
 10
3684.8801673614011634
 20
138.1549107700384127
 30
0.0
 40
0.0299999999999994
 50
90.0
 51
174.99999996631621
  0
ARC
  5
14501
  8
0
 62
     7
 10
3684.8139057595831218
 20
138.0859599895001111
 30
0.0
 40
0.0299999999142631
 50
275.5930938569302953
 51
355.0000000591176104
  0
ARC
  5
14502
  8
0
 62
     7
 10
3684.8226774260729144
 20
137.9963884658633049
 30
0.0
 40
0.0599999999724926
 50
95.593095734279629
 51
230.1634563383913132
  0
ARC
  5
14503
  8
0
 62
     7
 10
3684.7650234632010324
 20
137.9272797069384069
 30
0.0
 40
0.0300000000000118
 50
358.8735915180698726
 51
50.1634559715629678
  0
LINE
  5
14504
  8
0
 62
     7
 10
3684.8502815204587932
 20
138.1575254423383967
 30
0.0
 11
3684.8437916003999817
 21
138.0833453172307941
 31
0.0
  0
ARC
  5
14505
  8
0
 62
     7
 10
3685.4251874908582067
 20
138.1549107699268859
 30
0.0
 40
0.0300000001114551
 50
5.0000002287364236
 51
90.0000004901746564
  0
ARC
  5
14506
  8
0
 62
     7
 10
3685.4914490926980761
 20
138.0859599894241114
 30
0.0
 40
0.0299999998463844
 50
184.9999998401850121
 51
264.4069059773780737
  0
ARC
  5
14507
  8
0
 62
     7
 10
3685.4826774260682214
 20
137.9963884658083089
 30
0.0
 40
0.0600000000331714
 50
309.8365438131044129
 51
84.4069042131775831
  0
ARC
  5
14508
  8
0
 62
     7
 10
3685.5403313891010839
 20
137.9272797069384069
 30
0.0
 40
0.0299999999999843
 50
129.8365440284055126
 51
181.1264084611279941
  0
LINE
  5
14509
  8
0
 62
     7
 10
3685.4550733319019855
 20
138.157525442323788
 30
0.0
 11
3685.4615632519080464
 21
138.0833453171570966
 31
0.0
  0
LINE
  5
1450A
  8
0
 62
     7
 10
3684.7950176659269346
 20
137.9266899588384092
 30
0.0
 11
3685.5103371863738175
 21
137.9266899588384092
 31
0.0
  0
ARC
  5
1450B
  8
0
 62
     7
 10
3684.1790102156810462
 20
137.9316249412042907
 30
0.0
 40
0.6160272175872235
 50
339.3333572110361729
 51
359.5409996855743202
  0
ARC
  5
1450C
  8
0
 62
     7
 10
3684.3952287790598348
 20
137.8565081592745969
 30
0.0
 40
0.3872583163700474
 50
283.1794232196725147
 51
338.4416029503137224
  0
ARC
  5
1450D
  8
0
 62
     7
 10
3686.1263446366237986
 20
137.9316249412055129
 30
0.0
 40
0.6160272175916565
 50
180.4590003134306926
 51
200.6666427889225019
  0
ARC
  5
1450E
  8
0
 62
     7
 10
3685.9101260732418268
 20
137.8565081592745969
 30
0.0
 40
0.3872583163700474
 50
201.558397049686306
 51
256.8205767803273716
  0
ARC
  5
1450F
  8
0
 62
     7
 10
3684.4914505015872237
 20
137.4505159588588867
 30
0.0
 40
0.029999999975458
 50
105.3201295037928986
 51
129.8853231521131875
  0
ARC
  5
14510
  8
0
 62
     7
 10
3685.8139043506012058
 20
137.4505159588383947
 30
0.0
 40
0.0299999999999887
 50
50.1367212402016378
 51
74.6798701906938192
  0
LINE
  5
14511
  8
0
 62
     7
 10
3684.4426774261619357
 20
137.4735358419839883
 30
0.0
 11
3684.4291301458911221
 21
137.4709926359919905
 31
0.0
  0
LINE
  5
14512
  8
0
 62
     7
 10
3684.4291301458911221
 20
137.4709926359919905
 30
0.0
 11
3684.4155568216010579
 21
137.4687545417384058
 31
0.0
  0
ARC
  5
14513
  8
0
 62
     7
 10
3684.4259179710261378
 20
137.4037459107854886
 30
0.0
 40
0.0658291388049537
 50
99.0557003444872208
 51
105.5015875860199941
  0
ARC
  5
14514
  8
0
 62
     7
 10
3684.3817484555229385
 20
137.5656675287040116
 30
0.0
 40
0.1020097265606799
 50
282.340139191029607
 51
285.100984316413701
  0
LINE
  5
14515
  8
0
 62
     7
 10
3684.4426774264520645
 20
137.4735358420383875
 30
0.0
 11
3684.9673653362051482
 21
137.4735358420383875
 31
0.0
  0
ARC
  5
14516
  8
0
 62
     7
 10
3684.4105890529058343
 20
137.5100328222426072
 30
0.0
 40
0.0445775474761683
 50
201.0239851949179126
 51
260.913916226474214
  0
ARC
  5
14517
  8
0
 62
     7
 10
3684.0673568212610007
 20
137.3863625004387075
 30
0.0
 40
0.3202662093587096
 50
19.6463308388218501
 51
29.9761264139011416
  0
ARC
  5
14518
  8
0
 62
     7
 10
3684.1231786048269896
 20
137.4175658126276005
 30
0.0
 40
0.2563225535180132
 50
30.1686725297300313
 51
54.6426182013807988
  0
ARC
  5
14519
  8
0
 62
     7
 10
3684.1390571496699522
 20
137.4404563962673933
 30
0.0
 40
0.2284656245068497
 50
54.5683055211869217
 51
89.4292471265986819
  0
ARC
  5
1451A
  8
0
 62
     7
 10
3684.1422671961468041
 20
137.4698731609117885
 30
0.0
 40
0.1990397168827907
 50
90.2689265109697914
 51
129.0803520077903102
  0
ARC
  5
1451B
  8
0
 62
     7
 10
3684.1966537809939837
 20
137.4136054096800876
 30
0.0
 40
0.2770862425201688
 50
130.4755367446709897
 51
212.8173709965508067
  0
ARC
  5
1451C
  8
0
 62
     7
 10
3684.2836356746611273
 20
137.5003222134866121
 30
0.0
 40
0.3980162574908962
 50
216.5247460869429972
 51
243.4302478732365103
  0
ARC
  5
1451D
  8
0
 62
     7
 10
3684.5124026703379059
 20
137.9355812568730073
 30
0.0
 40
0.8896876277518243
 50
242.7913025267968123
 51
256.7697963322315218
  0
ARC
  5
1451E
  8
0
 62
     7
 10
3684.6857862763990852
 20
138.5902859147344941
 30
0.0
 40
1.5668111681625281
 50
256.077051148983287
 51
262.0481837834263956
  0
ARC
  5
1451F
  8
0
 62
     7
 10
3684.7734889732300871
 20
139.2092778336435117
 30
0.0
 40
2.191984488914001
 50
262.0160878607268842
 51
267.6600077651082188
  0
ARC
  5
14520
  8
0
 62
     7
 10
3684.7751968446082174
 20
138.5732838448832069
 30
0.0
 40
1.5568365368715871
 50
266.6414916814042044
 51
275.8576457594032263
  0
ARC
  5
14521
  8
0
 62
     7
 10
3684.9181380483050816
 20
137.2008157365627028
 30
0.0
 40
0.1769593020958231
 50
275.1697328065162083
 51
299.4766359241106102
  0
ARC
  5
14522
  8
0
 62
     7
 10
3684.9688643503750427
 20
137.0978441241927044
 30
0.0
 40
0.0626946812427025
 50
305.435847409145822
 51
353.0170420504110211
  0
ARC
  5
14523
  8
0
 62
     7
 10
3684.3939634311082045
 20
137.1654323050225059
 30
0.0
 40
0.6415543011795517
 50
353.267661400839188
 51
5.3059874287161097
  0
ARC
  5
14524
  8
0
 62
     7
 10
3685.0369727929009969
 20
137.608927641093004
 30
0.0
 40
0.0600183217992701
 50
91.9625804247582437
 51
180.0249469274054945
  0
ARC
  5
14525
  8
0
 62
     7
 10
3685.268485002899979
 20
137.6089276410928903
 30
0.0
 40
0.0600183217992716
 50
359.9750530725970066
 51
88.0374195752678474
  0
ARC
  5
14526
  8
0
 62
     7
 10
3689.8382706944507845
 20
137.4016701333360118
 30
0.0
 40
4.8087572930280817
 50
176.814218010834594
 51
182.108341555972487
  0
ARC
  5
14527
  8
0
 62
     7
 10
3689.9684485134339411
 20
137.2554609351676902
 30
0.0
 40
5.0058355556860237
 50
177.0980659563313964
 51
177.5031686141803959
  0
ARC
  5
14528
  8
0
 62
     7
 10
3686.8517407732410902
 20
137.4100736149588897
 30
0.0
 40
1.8853000261780619
 50
173.9462033110143864
 51
176.9955253034873124
  0
LINE
  5
14529
  8
0
 62
     7
 10
3684.6835104440001487
 20
136.9959107700383925
 30
0.0
 11
3685.6218444083010581
 21
136.9959107700383925
 31
0.0
  0
LINE
  5
1452A
  8
0
 62
     7
 10
3684.0834714199868358
 20
137.6689107565383949
 30
0.0
 11
3684.0834714136899493
 21
137.6689107565383949
 31
0.0
  0
LINE
  5
1452B
  8
0
 62
     7
 10
3685.0349173578970294
 20
137.6689107565383949
 30
0.0
 11
3685.2705404379048559
 21
137.6689107565383949
 31
0.0
  0
LINE
  5
1452C
  8
0
 62
     7
 10
3684.1413329762008289
 20
137.6689106853384033
 30
0.0
 11
3684.021213549201093
 21
137.6688210391384075
 31
0.0
  0
ARC
  5
1452D
  8
0
 62
     7
 10
3684.0263055597738457
 20
137.453169050012292
 30
0.0
 40
0.2157120974486934
 50
91.3526261178072616
 51
114.2915362894011935
  0
ARC
  5
1452E
  8
0
 62
     7
 10
3684.0401035057220724
 20
137.4276401904728004
 30
0.0
 40
0.244665723482338
 50
114.7772958741802967
 51
141.0891175172737917
  0
ARC
  5
1452F
  8
0
 62
     7
 10
3684.0690535996250219
 20
137.4099315957579961
 30
0.0
 40
0.2783502909627131
 50
141.9957571080423122
 51
180.0049492882961886
  0
ARC
  5
14530
  8
0
 62
     7
 10
3684.0346958669811102
 20
137.4082568659513015
 30
0.0
 40
0.2439981409172237
 50
179.6123821476772946
 51
217.5059579235662
  0
ARC
  5
14531
  8
0
 62
     7
 10
3684.1321092066800702
 20
137.4855842607562977
 30
0.0
 40
0.3683610999322084
 50
217.8222599940100963
 51
235.9784469787776118
  0
ARC
  5
14532
  8
0
 62
     7
 10
3684.2563903118311828
 20
137.6591603820479008
 30
0.0
 40
0.581791394031399
 50
235.3982918954336014
 51
242.2868121325967081
  0
ARC
  5
14533
  8
0
 62
     7
 10
3684.367191642420039
 20
137.8735625749961002
 30
0.0
 40
0.8231280667775934
 50
242.3992914981035085
 51
248.9408833620728956
  0
ARC
  5
14534
  8
0
 62
     7
 10
3684.5139252293220125
 20
138.255367507519594
 30
0.0
 40
1.232158269196332
 50
248.9530234554266031
 51
254.617360735146093
  0
ARC
  5
14535
  8
0
 62
     7
 10
3684.6447486024999307
 20
138.7070624335894138
 30
0.0
 40
1.702386050882396
 50
254.4047092212454118
 51
256.8164796559171918
  0
ARC
  5
14536
  8
0
 62
     7
 10
3684.8126996509458877
 20
139.4280333603248891
 30
0.0
 40
2.442660363214086
 50
256.8377737613899967
 51
259.0549667247440198
  0
ARC
  5
14537
  8
0
 62
     7
 10
3682.2804118836629641
 20
125.8183745736076986
 30
0.0
 40
11.4006536584685403
 50
79.2049870281812645
 51
79.5464954844958498
  0
ARC
  5
14538
  8
0
 62
     7
 10
3684.8826848115700159
 20
141.2843179600156134
 30
0.0
 40
4.2925173729410568
 50
263.7544948592753826
 51
267.4924659625777963
  0
ARC
  5
14539
  8
0
 62
     7
 10
3684.775308260501788
 20
136.9959107700387904
 30
0.0
 40
0.0917978165011408
 50
180.0000000002426077
 51
255.1190622635980958
  0
ARC
  5
1453A
  8
0
 62
     7
 10
3684.7475875698419259
 20
136.881884712406702
 30
0.0
 40
0.0256443589191535
 50
11.3359874660878699
 51
80.6960362346589193
  0
ARC
  5
1453B
  8
0
 62
     7
 10
3684.7206613595508315
 20
136.8706051629957869
 30
0.0
 40
0.0545679869100717
 50
296.414006377242174
 51
17.4024236308508584
  0
ARC
  5
1453C
  8
0
 62
     7
 10
3684.6601613703560361
 20
136.983530936414013
 30
0.0
 40
0.1826610037604539
 50
271.9320531009549882
 51
297.652632675796383
  0
ARC
  5
1453D
  8
0
 62
     7
 10
3684.6508804023660559
 20
136.7713694080271125
 30
0.0
 40
0.0297771672388406
 50
83.8243812225104534
 51
141.4941758871997877
  0
ARC
  5
1453E
  8
0
 62
     7
 10
3684.6553437129809936
 20
136.7745386444595113
 30
0.0
 40
0.0317355198481915
 50
151.0326727773187088
 51
177.7502054606335093
  0
ARC
  5
1453F
  8
0
 62
     7
 10
3684.6553437129809936
 20
136.7745386444595113
 30
0.0
 40
0.0317355198481915
 50
182.2497945393664054
 51
205.3014988538861019
  0
LINE
  5
14540
  8
0
 62
     7
 10
3685.5536213052992025
 20
136.9071917078383933
 30
0.0
 11
3684.7517335470010948
 21
136.9071917078383933
 31
0.0
  0
LINE
  5
14541
  8
0
 62
     7
 10
3684.6266525380838175
 20
136.7609754699398081
 30
0.0
 11
3685.6787022902490207
 21
136.7609754192370133
 31
0.0
  0
LINE
  5
14542
  8
0
 62
     7
 10
3685.6512400272708874
 20
136.8009737733383986
 30
0.0
 11
3684.6540837199108864
 21
136.8009737733383986
 31
0.0
  0
ARC
  5
14543
  8
0
 62
     7
 10
3685.5300465917989641
 20
136.9959107700387904
 30
0.0
 40
0.0917978165011408
 50
284.8809377364019042
 51
359.9999999997573923
  0
ARC
  5
14544
  8
0
 62
     7
 10
3685.5577672824588262
 20
136.8818847124063041
 30
0.0
 40
0.0256443589199878
 50
99.3039637709382106
 51
168.6640125333292133
  0
ARC
  5
14545
  8
0
 62
     7
 10
3685.58469349275083
 20
136.8706051629957869
 30
0.0
 40
0.0545679869100757
 50
162.5975763691521934
 51
243.5859936227575133
  0
ARC
  5
14546
  8
0
 62
     7
 10
3685.6451934819460803
 20
136.983530936414013
 30
0.0
 40
0.1826610037604539
 50
242.3473673242035886
 51
268.0679468990450118
  0
ARC
  5
14547
  8
0
 62
     7
 10
3685.6544660248291621
 20
136.7713582516321935
 30
0.0
 40
0.0297907063725393
 50
38.5125266521143601
 51
96.216677348198516
  0
ARC
  5
14548
  8
0
 62
     7
 10
3685.6500111393202133
 20
136.7745386444595113
 30
0.0
 40
0.0317355198481909
 50
334.6983998935434101
 51
357.7502008616156104
  0
ARC
  5
14549
  8
0
 62
     7
 10
3685.6500111393202133
 20
136.7745386444595113
 30
0.0
 40
0.0317355198481909
 50
2.2497991383843692
 51
28.9673272226827017
  0
ARC
  5
1454A
  8
0
 62
     7
 10
3684.8275695085430925
 20
136.8450032551293134
 30
0.0
 40
0.2177803887001017
 50
202.6957272926647988
 51
255.819731633048093
  0
ARC
  5
1454B
  8
0
 62
     7
 10
3684.7708206914658149
 20
136.6087408277288944
 30
0.0
 40
0.0253467116098817
 50
30.3134911223650612
 51
82.2947963367342652
  0
ARC
  5
1454C
  8
0
 62
     7
 10
3685.4777843521610521
 20
136.8450040117581921
 30
0.0
 40
0.2177815929018961
 50
284.1827433408620891
 51
337.3041749779441716
  0
ARC
  5
1454D
  8
0
 62
     7
 10
3685.5345368877210603
 20
136.6087382342068963
 30
0.0
 40
0.0253503954028241
 50
97.6910835291381972
 51
149.6845866481930045
  0
LINE
  5
1454E
  8
0
 62
     7
 10
3685.5311441944841135
 20
136.6338605784384015
 30
0.0
 11
3684.7742190819121788
 21
136.6338586845604937
 31
0.0
  0
ARC
  5
1454F
  8
0
 62
     7
 10
3684.956955380735053
 20
136.737353106225612
 30
0.0
 40
0.2009807033438822
 50
215.1885707608284122
 51
250.9859125040867127
  0
ARC
  5
14550
  8
0
 62
     7
 10
3685.0757266290679581
 20
137.0549909520445055
 30
0.0
 40
0.5400552692556593
 50
250.0518011785034105
 51
268.5613573013055202
  0
LINE
  5
14551
  8
0
 62
     7
 10
3685.0621677781441576
 20
136.5151059166782943
 30
0.0
 11
3685.1191085255059079
 21
136.513137279045111
 31
0.0
  0
LINE
  5
14552
  8
0
 62
     7
 10
3685.1191085255059079
 20
136.513137279045111
 30
0.0
 11
3685.1526771234780426
 21
136.5129107720804029
 31
0.0
  0
ARC
  5
14553
  8
0
 62
     7
 10
3685.348396536150176
 20
136.737357495210091
 30
0.0
 40
0.2009856119990681
 50
289.014307859717519
 51
324.8108849863759815
  0
ARC
  5
14554
  8
0
 62
     7
 10
3685.2296276178881271
 20
137.0549909520445055
 30
0.0
 40
0.5400552692556593
 50
271.4386426986944798
 51
289.9481988214965895
  0
LINE
  5
14555
  8
0
 62
     7
 10
3685.2431864688128371
 20
136.5151059166782943
 30
0.0
 11
3685.1862457214510869
 21
136.513137279045111
 31
0.0
  0
LINE
  5
14556
  8
0
 62
     7
 10
3685.1862457214510869
 20
136.513137279045111
 30
0.0
 11
3685.1526771234780426
 21
136.5129107720804029
 31
0.0
  0
ARC
  5
14557
  8
0
 62
     7
 10
3683.9450863862580263
 20
140.6543645506258997
 30
0.0
 40
0.0449087887227507
 50
26.244249305776151
 51
80.471523211084957
  0
ARC
  5
14558
  8
0
 62
     7
 10
3683.9307977278549515
 20
140.5564072286481121
 30
0.0
 40
0.1438956287196548
 50
81.3173249359577142
 51
88.9393862035015843
  0
ARC
  5
14559
  8
0
 62
     7
 10
3686.3602664811451177
 20
140.6543669034610957
 30
0.0
 40
0.0449063023630258
 50
99.5277120021478936
 51
153.7564635747129103
  0
ARC
  5
1455A
  8
0
 62
     7
 10
3686.3834173665059097
 20
140.4818397699656884
 30
0.0
 40
0.218960460563122
 50
93.0169076565018145
 51
98.0292204681828139
  0
LINE
  5
1455B
  8
0
 62
     7
 10
3685.8627803696390401
 20
137.4735358419839883
 30
0.0
 11
3685.876327649911218
 21
137.4709926359919905
 31
0.0
  0
LINE
  5
1455C
  8
0
 62
     7
 10
3685.876327649911218
 20
137.4709926359919905
 30
0.0
 11
3685.889900974199918
 21
137.4687545417384058
 31
0.0
  0
ARC
  5
1455D
  8
0
 62
     7
 10
3685.8795398247748381
 20
137.4037459107854886
 30
0.0
 40
0.0658291388049537
 50
74.4984124139799917
 51
80.9442996555127934
  0
ARC
  5
1455E
  8
0
 62
     7
 10
3685.9237093402789469
 20
137.5656675287040116
 30
0.0
 40
0.1020097265606799
 50
254.899015683586299
 51
257.659860808970393
  0
LINE
  5
1455F
  8
0
 62
     7
 10
3685.8627803693498208
 20
137.4735358420383875
 30
0.0
 11
3685.3380924595958277
 21
137.4735358420383875
 31
0.0
  0
ARC
  5
14560
  8
0
 62
     7
 10
3685.8948687428951416
 20
137.5100328222426072
 30
0.0
 40
0.0445775474761683
 50
279.086083773525786
 51
338.9760148050820021
  0
ARC
  5
14561
  8
0
 62
     7
 10
3686.2381009745399751
 20
137.3863625004387075
 30
0.0
 40
0.3202662093587096
 50
150.0238735860988015
 51
160.3536691611780896
  0
ARC
  5
14562
  8
0
 62
     7
 10
3686.1822791909739863
 20
137.4175658126276005
 30
0.0
 40
0.2563225535180132
 50
125.3573817986192012
 51
149.8313274702699118
  0
ARC
  5
14563
  8
0
 62
     7
 10
3686.1664006461301142
 20
137.4404563962673933
 30
0.0
 40
0.2284656245068497
 50
90.5707528734013465
 51
125.4316944788130996
  0
ARC
  5
14564
  8
0
 62
     7
 10
3686.1631905996541718
 20
137.4698731609117885
 30
0.0
 40
0.1990397168827907
 50
50.9196479922096685
 51
89.7310734890301944
  0
ARC
  5
14565
  8
0
 62
     7
 10
3686.1088040148069922
 20
137.4136054096800876
 30
0.0
 40
0.2770862425201688
 50
327.1826290034492217
 51
49.5244632553290174
  0
ARC
  5
14566
  8
0
 62
     7
 10
3686.0218221211412128
 20
137.5003222134866121
 30
0.0
 40
0.3980162574908962
 50
296.5697521267634897
 51
323.4752539130569744
  0
ARC
  5
14567
  8
0
 62
     7
 10
3685.79305512546307
 20
137.9355812568730073
 30
0.0
 40
0.8896876277518243
 50
283.2302036677684782
 51
297.2086974732031877
  0
ARC
  5
14568
  8
0
 62
     7
 10
3685.6196715194028002
 20
138.5902859147344941
 30
0.0
 40
1.5668111681625281
 50
277.9518162165736044
 51
283.9229488510165993
  0
ARC
  5
14569
  8
0
 62
     7
 10
3685.5319688225717982
 20
139.2092778336435117
 30
0.0
 40
2.191984488914001
 50
272.3399922348917812
 51
277.9839121392731158
  0
ARC
  5
1456A
  8
0
 62
     7
 10
3685.5302609511941228
 20
138.5732838448832069
 30
0.0
 40
1.5568365368715871
 50
264.1423542405966032
 51
273.3585083185957956
  0
ARC
  5
1456B
  8
0
 62
     7
 10
3685.3873197474958943
 20
137.2008157365627028
 30
0.0
 40
0.1769593020958231
 50
240.5233640758893898
 51
264.8302671934837917
  0
ARC
  5
1456C
  8
0
 62
     7
 10
3685.3365934454268427
 20
137.0978441241927044
 30
0.0
 40
0.062694681242701
 50
186.9829579495890073
 51
234.5641525908758922
  0
ARC
  5
1456D
  8
0
 62
     7
 10
3685.9114943646941356
 20
137.1654323050225059
 30
0.0
 40
0.6415543011796041
 50
174.6940125712847021
 51
186.7323385991599025
  0
ARC
  5
1456E
  8
0
 62
     7
 10
3680.4671871013511009
 20
137.4016701333360118
 30
0.0
 40
4.8087572930280817
 50
357.8916584440274846
 51
3.1857819891653509
  0
ARC
  5
1456F
  8
0
 62
     7
 10
3680.3370092823151936
 20
137.2554609351653028
 30
0.0
 40
5.005835555738142
 50
2.4968313858211881
 51
2.9019340436661021
  0
ARC
  5
14570
  8
0
 62
     7
 10
3683.4537170225598857
 20
137.4100736149588897
 30
0.0
 40
1.8853000261780619
 50
3.0044746965126361
 51
6.0537966889855817
  0
LINE
  5
14571
  8
0
 62
     7
 10
3686.22198637581414
 20
137.6689107565383949
 30
0.0
 11
3686.2219863821110266
 21
137.6689107565383949
 31
0.0
  0
LINE
  5
14572
  8
0
 62
     7
 10
3686.1641248196010565
 20
137.6689106853384033
 30
0.0
 11
3686.2842442465998829
 21
137.6688210391384075
 31
0.0
  0
ARC
  5
14573
  8
0
 62
     7
 10
3686.2791522360280396
 20
137.453169050012292
 30
0.0
 40
0.2157120974486934
 50
65.7084637105988207
 51
88.6473738821927242
  0
ARC
  5
14574
  8
0
 62
     7
 10
3686.2653542900798129
 20
137.4276401904728004
 30
0.0
 40
0.244665723482338
 50
38.9108824827261728
 51
65.2227041258196323
  0
ARC
  5
14575
  8
0
 62
     7
 10
3686.2371712880790255
 20
137.4103512250354129
 30
0.0
 40
0.2774875113621309
 50
359.5856249194388283
 51
38.0334930222982308
  0
ARC
  5
14576
  8
0
 62
     7
 10
3686.2716385832291053
 20
137.4077819653905976
 30
0.0
 40
0.2430136101137885
 50
322.457023097586216
 51
0.1326051465552103
  0
ARC
  5
14577
  8
0
 62
     7
 10
3686.1733485891209057
 20
137.4855842607562977
 30
0.0
 40
0.3683610999322084
 50
304.0215530212224166
 51
322.17774000598979
  0
ARC
  5
14578
  8
0
 62
     7
 10
3686.0490674839697931
 20
137.6591603820479008
 30
0.0
 40
0.581791394031399
 50
297.7131878674032919
 51
304.6017081045663986
  0
ARC
  5
14579
  8
0
 62
     7
 10
3685.9382661533809369
 20
137.8735625749961002
 30
0.0
 40
0.8231280667775934
 50
291.0591166379271044
 51
297.6007085018964062
  0
ARC
  5
1457A
  8
0
 62
     7
 10
3685.7915325664789634
 20
138.255367507519594
 30
0.0
 40
1.232158269196332
 50
285.3826392648538786
 51
291.0469765445732833
  0
ARC
  5
1457B
  8
0
 62
     7
 10
3685.6607091933019547
 20
138.7070624335894138
 30
0.0
 40
1.702386050882396
 50
283.1835203440828082
 51
285.5952907787545882
  0
ARC
  5
1457C
  8
0
 62
     7
 10
3685.4927581448569072
 20
139.4280333603248891
 30
0.0
 40
2.442660363214086
 50
280.9450332752559802
 51
283.162226238610117
  0
ARC
  5
1457D
  8
0
 62
     7
 10
3688.0250459121389213
 20
125.8183745736076986
 30
0.0
 40
11.4006536584685403
 50
100.4535045155040933
 51
100.7950129718443009
  0
ARC
  5
1457E
  8
0
 62
     7
 10
3685.4227729842318695
 20
141.2843179600156134
 30
0.0
 40
4.2925173729410568
 50
272.5075340374222037
 51
276.2455051407246174
  0
LINE
  5
1457F
  8
0
 62
     7
 10
3684.6236326555999767
 20
136.7757844614069995
 30
0.0
 11
3684.6236326555999767
 21
136.7732928275119093
 31
0.0
  0
LINE
  5
14580
  8
0
 62
     7
 10
3685.6817221966011857
 20
136.775784463952391
 30
0.0
 11
3685.6817221966011857
 21
136.7732928249666031
 31
0.0
  0
LINE
  5
14581
  8
0
 62
     7
 10
3683.287663740150947
 20
140.8171051915776957
 30
0.0
 11
3683.287663740150947
 21
140.7746771595448081
 31
0.0
  0
LINE
  5
14582
  8
0
 62
     7
 10
3687.0176911121511694
 20
140.8171051608505024
 30
0.0
 11
3687.0176911121511694
 21
140.778107591515294
 31
0.0
  0
ENDSEC
  0
EOF
