  0
SECTION
  2
HEADER
  9
$ACADVER
  1
AC1009
  9
$INSBASE
 10
3675.9376484529398112
 20
135.675530516259812
 30
0.0
  9
$EXTMIN
 10
3664.8794915628650415
 20
132.0075527768532027
 30
0.0
  9
$EXTMAX
 10
3677.4680879762959194
 20
137.9313804878192116
 30
0.0
  9
$LIMMIN
 10
0.0
 20
0.0
  9
$LIMMAX
 10
11.6929133858000007
 20
8.2677165353999982
  9
$ORTHOMODE
 70
     0
  9
$REGENMODE
 70
     1
  9
$FILLMODE
 70
     1
  9
$QTEXTMODE
 70
     0
  9
$MIRRTEXT
 70
     0
  9
$DRAGMODE
 70
     2
  9
$LTSCALE
 40
0.6431102362
  9
$OSMODE
 70
  4095
  9
$ATTMODE
 70
     1
  9
$TEXTSIZE
 40
0.2
  9
$TRACEWID
 40
0.05
  9
$TEXTSTYLE
  7
STANDARD
  9
$CLAYER
  8
0
  9
$CELTYPE
  6
BYLAYER
  9
$CECOLOR
 62
   256
  9
$DIMSCALE
 40
1.0
  9
$DIMASZ
 40
0.1875
  9
$DIMEXO
 40
0.0625
  9
$DIMDLI
 40
0.4443307087
  9
$DIMRND
 40
0.0
  9
$DIMDLE
 40
0.0
  9
$DIMEXE
 40
0.125
  9
$DIMTP
 40
0.01
  9
$DIMTM
 40
0.01
  9
$DIMTXT
 40
2.0
  9
$DIMCEN
 40
0.1052362205
  9
$DIMTSZ
 40
0.0
  9
$DIMTOL
 70
     1
  9
$DIMLIM
 70
     0
  9
$DIMTIH
 70
     1
  9
$DIMTOH
 70
     1
  9
$DIMSE1
 70
     0
  9
$DIMSE2
 70
     0
  9
$DIMTAD
 70
     0
  9
$DIMZIN
 70
     0
  9
$DIMBLK
  1

  9
$DIMASO
 70
     1
  9
$DIMSHO
 70
     1
  9
$DIMPOST
  1
\X
  9
$DIMAPOST
  1

  9
$DIMALT
 70
     1
  9
$DIMALTD
 70
     2
  9
$DIMALTF
 40
25.3999999999999986
  9
$DIMLFAC
 40
1.0
  9
$DIMTOFL
 70
     0
  9
$DIMTVP
 40
0.0
  9
$DIMTIX
 70
     0
  9
$DIMSOXD
 70
     0
  9
$DIMSAH
 70
     0
  9
$DIMBLK1
  1

  9
$DIMBLK2
  1

  9
$DIMSTYLE
  2
STANDARD
  9
$DIMCLRD
 70
     0
  9
$DIMCLRE
 70
     0
  9
$DIMCLRT
 70
     0
  9
$DIMTFAC
 40
1.0
  9
$DIMGAP
 40
0.09
  9
$LUNITS
 70
     2
  9
$LUPREC
 70
     4
  9
$SKETCHINC
 40
0.1
  9
$FILLETRAD
 40
0.0
  9
$AUNITS
 70
     0
  9
$AUPREC
 70
     0
  9
$MENU
  1
.
  9
$ELEVATION
 40
0.0
  9
$PELEVATION
 40
0.0
  9
$THICKNESS
 40
0.0
  9
$LIMCHECK
 70
     0
  9
$BLIPMODE
 70
     0
  9
$CHAMFERA
 40
0.0
  9
$CHAMFERB
 40
0.0
  9
$SKPOLY
 70
     0
  9
$TDCREATE
 40
2458060.468368056230247
  9
$TDUPDATE
 40
2459899.506701388861984
  9
$TDINDWG
 40
0.3946366898
  9
$TDUSRTIMER
 40
0.3946366898
  9
$USRTIMER
 70
     1
  9
$ANGBASE
 50
0.0
  9
$ANGDIR
 70
     0
  9
$PDMODE
 70
     0
  9
$PDSIZE
 40
0.3125
  9
$PLINEWID
 40
0.0
  9
$COORDS
 70
     1
  9
$SPLFRAME
 70
     0
  9
$SPLINETYPE
 70
     6
  9
$SPLINESEGS
 70
     8
  9
$ATTDIA
 70
     1
  9
$ATTREQ
 70
     1
  9
$HANDLING
 70
     1
  9
$HANDSEED
  5
13F78
  9
$SURFTAB1
 70
     6
  9
$SURFTAB2
 70
     6
  9
$SURFTYPE
 70
     6
  9
$SURFU
 70
     6
  9
$SURFV
 70
     6
  9
$UCSNAME
  2

  9
$UCSORG
 10
0.0
 20
0.0
 30
0.0
  9
$UCSXDIR
 10
1.0
 20
0.0
 30
0.0
  9
$UCSYDIR
 10
0.0
 20
1.0
 30
0.0
  9
$PUCSNAME
  2

  9
$PUCSORG
 10
0.0
 20
0.0
 30
0.0
  9
$PUCSXDIR
 10
1.0
 20
0.0
 30
0.0
  9
$PUCSYDIR
 10
0.0
 20
1.0
 30
0.0
  9
$USERI1
 70
     0
  9
$USERI2
 70
     0
  9
$USERI3
 70
     0
  9
$USERI4
 70
     0
  9
$USERI5
 70
     0
  9
$USERR1
 40
0.0
  9
$USERR2
 40
0.0
  9
$USERR3
 40
0.0
  9
$USERR4
 40
0.0
  9
$USERR5
 40
0.0
  9
$WORLDVIEW
 70
     1
  9
$SHADEDGE
 70
     3
  9
$SHADEDIF
 70
    70
  9
$TILEMODE
 70
     1
  9
$MAXACTVP
 70
    64
  9
$PLIMCHECK
 70
     0
  9
$PEXTMIN
 10
1.0000000000000000E+20
 20
1.0000000000000000E+20
 30
1.0000000000000000E+20
  9
$PEXTMAX
 10
-1.0000000000000000E+20
 20
-1.0000000000000000E+20
 30
-1.0000000000000000E+20
  9
$PLIMMIN
 10
0.0
 20
0.0
  9
$PLIMMAX
 10
12.0
 20
9.0
  9
$UNITMODE
 70
     0
  9
$VISRETAIN
 70
     1
  9
$PLINEGEN
 70
     0
  9
$PSLTSCALE
 70
     1
  0
ENDSEC
  0
SECTION
  2
TABLES
  0
TABLE
  2
VPORT
 70
     1
  0
VPORT
  2
*ACTIVE
 70
     0
 10
0.0
 20
0.0
 11
1.0
 21
1.0
 12
-127.6027968204960956
 22
8.5626913843519539
 13
0.0
 23
0.0
 14
1.0
 24
1.0
 15
0.0
 25
0.0
 16
0.0
 26
0.0
 36
17.1152628219792007
 17
3803.5440673828129547
 27
125.9952621967499056
 37
0.0
 40
11.1485844680244401
 41
2.848348348348348
 42
50.0
 43
0.0
 44
0.0
 50
0.0
 51
0.0
 71
     0
 72
   100
 73
     1
 74
     1
 75
     0
 76
     0
 77
     0
 78
     0
  0
ENDTAB
  0
TABLE
  2
LTYPE
 70
     2
  0
LTYPE
  2
CONTINUOUS
 70
     0
  3
Solid line
 72
    65
 73
     0
 40
0.0
  0
LTYPE
  2
PHANTOM2
 70
     0
  3
___ _ _ ___ _ _ ___ _ _ ___ _ _
 72
    65
 73
     6
 40
1.25
 49
0.625
 49
-0.125
 49
0.125
 49
-0.125
 49
0.125
 49
-0.125
  0
ENDTAB
  0
TABLE
  2
LAYER
 70
     2
  0
LAYER
  2
0
 70
     0
 62
   255
  6
CONTINUOUS
  0
LAYER
  2
DEFPOINTS
 70
     0
 62
     7
  6
CONTINUOUS
  0
ENDTAB
  0
TABLE
  2
STYLE
 70
     1
  0
STYLE
  2
STANDARD
 70
     0
 40
0.0
 41
0.8
 50
0.0
 71
     0
 42
0.2
  3
txt
  4

  0
ENDTAB
  0
TABLE
  2
VIEW
 70
     0
  0
ENDTAB
  0
TABLE
  2
UCS
 70
     0
  0
ENDTAB
  0
TABLE
  2
APPID
 70
     9
  0
APPID
  2
ACAD
 70
     0
  0
APPID
  2
ACAD_MLEADERVER
 70
     0
  0
APPID
  2
ACAD_EXEMPT_FROM_CAD_STANDARDS
 70
     0
  0
APPID
  2
ACAD_NAV_VCDISPLAY
 70
     0
  0
APPID
  2
ACAECLAYERSTANDARD
 70
     0
  0
APPID
  2
ACCMTRANSPARENCY
 70
     0
  0
APPID
  2
ACAD_DSTYLE_DIMJAG
 70
     0
  0
APPID
  2
ACAD_DSTYLE_DIMTALN
 70
     0
  0
APPID
  2
ACDBATTR
 70
     0
  0
ENDTAB
  0
TABLE
  2
DIMSTYLE
 70
     1
  0
DIMSTYLE
  2
STANDARD
 70
     0
  3

  4

  5

  6

  7

 40
1.0
 41
0.1875
 42
0.0625
 43
0.38
 44
0.125
 45
0.0
 46
0.0
 47
0.01
 48
0.01
140
0.15625
141
0.09
142
0.0
143
25.3999999999999986
144
1.0
145
0.0
146
1.0
147
0.09
 71
     1
 72
     0
 73
     1
 74
     1
 75
     0
 76
     0
 77
     0
 78
     4
170
     0
171
     2
172
     0
173
     0
174
     0
175
     0
176
     0
177
     0
178
     0
  0
ENDTAB
  0
ENDSEC
  0
SECTION
  2
BLOCKS
  0
BLOCK
  8
0
  2
$MODEL_SPACE
 70
     0
 10
0.0
 20
0.0
 30
0.0
  3
$MODEL_SPACE
  1

  0
ENDBLK
  5
21
  8
0
  0
BLOCK
 67
     1
  8
0
  2
$PAPER_SPACE
 70
     0
 10
0.0
 20
0.0
 30
0.0
  3
$PAPER_SPACE
  1

  0
ENDBLK
  5
1D
 67
     1
  8
0
  0
BLOCK
  8
0
  2
_FILLED
 70
     0
 10
0.0
 20
0.0
 30
0.0
  3
_FILLED
  1

  0
SOLID
  5
134C8
  8
0
  6
BYBLOCK
 62
     0
 10
0.0
 20
0.0
 30
0.0
 11
-1.0
 21
0.1666666667
 31
0.0
 12
-1.0
 22
-0.1666666667
 32
0.0
 13
-1.0
 23
-0.1666666667
 33
0.0
  0
ENDBLK
  5
134C9
  8
0
  6
BYBLOCK
 62
     0
  0
ENDSEC
  0
SECTION
  2
ENTITIES
  0
ATTDEF
  5
12FEB
  8
DEFPOINTS
 10
3675.9381719400098518
 20
135.6739495498428028
 30
0.0
 40
0.001
  1
K-72771-9M
  3

  2
MODELNUMBER
 70
     0
1001
ACDBATTR
1070
     0
1070
     1
  0
ATTDEF
  5
12FEC
  8
DEFPOINTS
 10
3675.9381719400098518
 20
135.6722828831761092
 30
0.0
 40
0.001
  1
ARTIFACTS
  3

  2
TRADENAME
 70
     0
1001
ACDBATTR
1070
     0
1070
     1
  0
ATTDEF
  5
12FED
  8
DEFPOINTS
 10
3675.9381719400098518
 20
135.6706162165095009
 30
0.0
 40
0.001
  1
VALVE TRIM
  3

  2
PRODUCT
 70
     0
1001
ACDBATTR
1070
     0
1070
     1
  0
LINE
  5
13DE6
  8
0
 10
3675.9376484529398112
 20
137.9255323468597965
 30
0.0
 11
3675.9376484529398112
 21
133.4309450254359035
 31
0.0
  0
ARC
  5
13DE7
  8
0
 10
3675.9353047205659095
 20
137.4986922205187057
 30
0.0
 40
0.426844730309054
 50
90.2661149079525558
 51
99.3566459489860421
  0
ARC
  5
13DE8
  8
0
 10
3675.9122686228652128
 20
137.6239901828612915
 30
0.0
 40
0.2994778933673863
 50
98.9053688130269535
 51
136.7176105156721064
  0
ARC
  5
13DE9
  8
0
 10
3676.0800436925110262
 20
137.5033053068455047
 30
0.0
 40
0.5050875352061125
 50
139.8010872448166992
 51
170.4082806974537903
  0
ARC
  5
13DEA
  8
0
 10
3675.5231498627581459
 20
137.5953022079187065
 30
0.0
 40
0.0593866073607057
 50
313.9473528578773767
 51
352.4177104525439859
  0
ARC
  5
13DEB
  8
0
 10
3675.5301381405251959
 20
137.5945872177987042
 30
0.0
 40
0.0542120192165656
 50
271.2961094483158035
 51
309.148563118496611
  0
LINE
  5
13DEC
  8
0
 10
3675.582017215841006
 20
137.587466145460013
 30
0.0
 11
3675.5820172320409256
 21
133.7635957733955934
 31
0.0
  0
ARC
  5
13DED
  8
0
 10
3675.4877388273230281
 20
137.4882634799893992
 30
0.0
 40
0.0522679180337337
 50
94.2292716211546946
 51
177.2699058829612966
  0
ARC
  5
13DEE
  8
0
 10
3667.4135823537671968
 20
138.0016241982216059
 30
0.0
 40
8.0381986233722671
 50
356.3017818561892796
 51
356.3560863595478168
  0
ARC
  5
13DEF
  8
0
 10
3393.0352432220010996
 20
145.3604629751038999
 30
0.0
 40
282.5096434647285832
 50
358.2828110101194738
 51
358.4021951318068204
  0
ARC
  5
13DF0
  8
0
 10
3675.9353047205659095
 20
133.8523697942007971
 30
0.0
 40
0.426844730309054
 50
260.6433540510138869
 51
263.5896859407839088
  0
ARC
  5
13DF1
  8
0
 10
3675.9122686228652128
 20
133.7270718318582112
 30
0.0
 40
0.2994778933673863
 50
223.2823894843475045
 51
261.0946311869731176
  0
ARC
  5
13DF2
  8
0
 10
3676.0800436925110262
 20
133.8477567078741117
 30
0.0
 40
0.5050875352061125
 50
189.5917193025462097
 51
220.1989127551833008
  0
ARC
  5
13DF3
  8
0
 10
3675.5231498627581459
 20
133.7557598068009099
 30
0.0
 40
0.0593866073607057
 50
7.5822895474560088
 51
46.0526471421220904
  0
ARC
  5
13DF4
  8
0
 10
3675.5301420655291622
 20
133.7564818652774932
 30
0.0
 40
0.0542040596566744
 50
50.8499373634947105
 51
88.6995502466051846
  0
ARC
  5
13DF5
  8
0
 10
3675.4877388273230281
 20
133.8627985347301035
 30
0.0
 40
0.0522679180337337
 50
182.7300941170377939
 51
265.7853531491066974
  0
ARC
  5
13DF6
  8
0
 10
3393.0352432220010996
 20
125.9905990396157023
 30
0.0
 40
282.5096434647285832
 50
1.59780486819325
 51
1.717188989879721
  0
ARC
  5
13DF7
  8
0
 10
3667.4135823537671968
 20
133.3494378164978968
 30
0.0
 40
8.0381986233722671
 50
3.6439136404522139
 51
3.6982181438106529
  0
LINE
  5
13DF8
  8
0
 10
3675.3596539917411974
 20
134.5616274552068035
 30
0.0
 11
3675.3596540727407955
 21
136.7894204669568978
 31
0.0
  0
ARC
  5
13DF9
  8
0
 10
3675.3724824740211261
 20
136.8828531664246952
 30
0.0
 40
0.0444999386739618
 50
298.1111995419760206
 51
351.5099683930308174
  0
ARC
  5
13DFA
  8
0
 10
3675.4202391604890181
 20
136.7892618340553952
 30
0.0
 40
0.0605852954256089
 50
116.2424325132034966
 51
179.8499799953893898
  0
ARC
  5
13DFB
  8
0
 10
3675.2734239919359425
 20
136.897364676637693
 30
0.0
 40
0.144615591770347
 50
351.6178297625090181
 51
358.9626234453228903
  0
ARC
  5
13DFC
  8
0
 10
3675.3724824732821617
 20
134.4682088479906952
 30
0.0
 40
0.0444999394494557
 50
8.4900318538552106
 51
64.0436500799409743
  0
ARC
  5
13DFD
  8
0
 10
3675.4202394584381182
 20
134.5618004964937029
 30
0.0
 40
0.0605857138128665
 50
180.1636449960597872
 51
242.1747617248794882
  0
ARC
  5
13DFE
  8
0
 10
3675.2734239919359425
 20
134.4536973380818949
 30
0.0
 40
0.144615591770347
 50
1.0373765546771461
 51
8.3821702374909695
  0
LINE
  5
13DFF
  8
0
 10
3675.2721976445409382
 20
136.7395305162598049
 30
0.0
 11
3675.2721976445409382
 21
134.6115305162597906
 31
0.0
  0
LINE
  5
13E00
  8
0
 10
3674.986257555541215
 20
134.628531498531089
 30
0.0
 11
3674.986257555541215
 21
136.722530516259809
 31
0.0
  0
ARC
  5
13E01
  8
0
 10
3675.2681322161038224
 20
136.7640468486912937
 30
0.0
 40
0.0245407183331193
 50
192.0587949137413091
 51
272.5544615653565188
  0
ARC
  5
13E02
  8
0
 10
3675.1318711587791768
 20
136.7165331789391018
 30
0.0
 40
0.1199973373387985
 50
20.6850440229226287
 51
166.114452954149499
  0
ARC
  5
13E03
  8
0
 10
3675.1318709955521626
 20
134.6345278144017925
 30
0.0
 40
0.1199971694789678
 50
193.8857799691620016
 51
339.3153131377441127
  0
ARC
  5
13E04
  8
0
 10
3674.9906140696589318
 20
136.7473196879257102
 30
0.0
 40
0.0248461818058817
 50
273.8821019015280172
 51
355.4080264883647828
  0
LINE
  5
13E05
  8
0
 10
3675.2692259712921441
 20
136.7395305162598049
 30
0.0
 11
3675.3596540709268083
 21
136.7395305162598049
 31
0.0
  0
ARC
  5
13E06
  8
0
 10
3674.9282639778848534
 20
136.6973291532038104
 30
0.0
 40
0.0253736815898561
 50
96.6812538428947761
 51
160.5779395284619966
  0
ARC
  5
13E07
  8
0
 10
3675.2681322161038224
 20
134.5870151660996044
 30
0.0
 40
0.0245407183331193
 50
87.4455384346434954
 51
167.941831440276502
  0
ARC
  5
13E08
  8
0
 10
3674.9906140696589318
 20
134.6037423268651878
 30
0.0
 40
0.0248461818058817
 50
4.588608075142238
 51
86.1178980984719971
  0
LINE
  5
13E09
  8
0
 10
3675.2692259712921441
 20
134.6115314985310931
 30
0.0
 11
3675.3596539935551846
 21
134.6115314985310931
 31
0.0
  0
ARC
  5
13E0A
  8
0
 10
3674.9282639778848534
 20
134.6537328615870024
 30
0.0
 40
0.0253736815898561
 50
199.4208944724377091
 51
263.3187461571051813
  0
LINE
  5
13E0B
  8
0
 10
3675.4184159807800825
 20
136.9081027571656932
 30
0.0
 11
3675.41822943939178
 21
134.4491890826982115
 31
0.0
  0
LINE
  5
13E0C
  8
0
 10
3674.9043341933411284
 20
136.7057665182597077
 30
0.0
 11
3674.9043340216408069
 21
134.6452959835164904
 31
0.0
  0
ARC
  5
13E0D
  8
0
 10
3674.4840443990387939
 20
136.9332068076303131
 30
0.0
 40
0.4778834548535489
 50
293.4402289084001154
 51
331.5799146143206144
  0
ARC
  5
13E0E
  8
0
 10
3674.0135640750909261
 20
137.9582523558742935
 30
0.0
 40
1.605668944017173
 50
270.0
 51
294.2930622739280011
  0
ARC
  5
13E0F
  8
0
 10
3673.9860892859101114
 20
134.2642892762787881
 30
0.0
 40
2.088474864759271
 50
89.2462275225692423
 51
99.9012396333746722
  0
ARC
  5
13E10
  8
0
 10
3673.700055101046928
 20
135.8722855403887877
 30
0.0
 40
0.4552756317930204
 50
99.2369638558892433
 51
119.7703995518770057
  0
ARC
  5
13E11
  8
0
 10
3673.5750237699808167
 20
136.1019406960847959
 30
0.0
 40
0.1939266301630176
 50
121.3955093229999989
 51
145.9071445729281891
  0
ARC
  5
13E12
  8
0
 10
3673.3893553178318143
 20
136.2271249499164867
 30
0.0
 40
0.030004009539756
 50
213.6222888704535876
 51
326.6804359420617061
  0
ARC
  5
13E13
  8
0
 10
3673.3382776427301906
 20
136.1953550493454088
 30
0.0
 40
0.0301755498053968
 50
30.1501669912270991
 51
89.8656227673860855
  0
ARC
  5
13E14
  8
0
 10
3674.4840451583509093
 20
134.4178568644940981
 30
0.0
 40
0.4778820790395546
 50
28.4200151029424717
 51
66.5597987986978126
  0
ARC
  5
13E15
  8
0
 10
3674.0135640750909261
 20
133.3928101459019899
 30
0.0
 40
1.605668944017173
 50
65.7069377260719705
 51
90.0
  0
ARC
  5
13E16
  8
0
 10
3673.9860892859101114
 20
137.0867732254974101
 30
0.0
 40
2.088474864759271
 50
260.0987603666252994
 51
270.7537724774306866
  0
ARC
  5
13E17
  8
0
 10
3673.700055101046928
 20
135.4787769613874104
 30
0.0
 40
0.4552756317930204
 50
240.2296004481229943
 51
260.7630361441107993
  0
ARC
  5
13E18
  8
0
 10
3673.5750237699808167
 20
135.2491218056914875
 30
0.0
 40
0.1939266301630176
 50
214.0928554270716972
 51
238.6044906770000011
  0
ARC
  5
13E19
  8
0
 10
3673.3893553178318143
 20
135.1239375518597967
 30
0.0
 40
0.030004009539756
 50
33.3195640579382797
 51
146.3777111295464124
  0
ARC
  5
13E1A
  8
0
 10
3673.3382776427301906
 20
135.155707452430903
 30
0.0
 40
0.0301755498053968
 50
270.1343772326138719
 51
329.8498330087721797
  0
LINE
  5
13E1B
  8
0
 10
3673.3383484141409099
 20
136.2255305161598073
 30
0.0
 11
3673.1866812730791025
 21
136.2255305161598073
 31
0.0
  0
ARC
  5
13E1C
  8
0
 10
3673.1867893823368831
 20
136.1955218621789925
 30
0.0
 40
0.0300088487174337
 50
90.206413036873073
 51
164.8321335578457933
  0
LINE
  5
13E1D
  8
0
 10
3673.1578259402431286
 20
136.2033736150646916
 30
0.0
 11
3673.1494127918408594
 21
136.1723411307598042
 31
0.0
  0
LINE
  5
13E1E
  8
0
 10
3673.1226962296400416
 20
136.1502679764597872
 30
0.0
 11
3673.1226962296400416
 21
135.2007930560598084
 31
0.0
  0
ARC
  5
13E1F
  8
0
 10
3673.1134759221968125
 20
136.1803380476827954
 30
0.0
 40
0.0368158835291509
 50
328.0904018708237118
 51
347.4545630821207283
  0
ARC
  5
13E20
  8
0
 10
3673.1257125782740331
 20
136.1736210382121044
 30
0.0
 40
0.0228907350393935
 50
283.6167674761451281
 51
326.1724984768007971
  0
ARC
  5
13E21
  8
0
 10
3673.120437193997077
 20
136.1997768045112025
 30
0.0
 40
0.0495640015855343
 50
272.615363173192975
 51
282.4252411487871086
  0
ARC
  5
13E22
  8
0
 10
3673.1338790882127796
 20
135.9511674033865916
 30
0.0
 40
0.1994106918588606
 50
93.2140555192199542
 51
125.4714387861478997
  0
ARC
  5
13E23
  8
0
 10
3673.1776061046448376
 20
135.9199597974902076
 30
0.0
 40
0.2508123655824016
 50
129.472819181469589
 51
165.9486343868337883
  0
ARC
  5
13E24
  8
0
 10
3673.4904339251120291
 20
135.8142957073146988
 30
0.0
 40
0.5805417013600037
 50
163.327357370196296
 51
168.9535233114002892
  0
LINE
  5
13E25
  8
0
 10
3672.9206484529408954
 20
135.9255305164224126
 30
0.0
 11
3672.9206484529408954
 21
135.4255305160970977
 31
0.0
  0
LINE
  5
13E26
  8
0
 10
3672.9206484529408954
 20
135.9155305162597926
 30
0.0
 11
3672.9026484529408663
 21
135.9155305162597926
 31
0.0
  0
LINE
  5
13E27
  8
0
 10
3672.9026484529408663
 20
135.9230305162597858
 30
0.0
 11
3672.9026484529408663
 21
135.4280305162598097
 31
0.0
  0
ARC
  5
13E28
  8
0
 10
2909.3865908416241837
 20
-43602.5199345210567117
 30
0.0
 40
43745.1065809200226795
 50
88.9999231340452042
 51
89.000077126878935
  0
CIRCLE
  5
13E29
  8
0
 10
3672.4126484529410845
 20
135.675530516259812
 30
0.0
 40
0.238825325101298
  0
CIRCLE
  5
13E2A
  8
0
 10
3672.4126484529410845
 20
135.675530516259812
 30
0.0
 40
0.2662505656
  0
ARC
  5
13E2B
  8
0
 10
3672.0693575878449337
 20
135.9853527381654885
 30
0.0
 40
0.0291606877927718
 50
271.1461367044749977
 51
323.8393024393611768
  0
ARC
  5
13E2C
  8
0
 10
3672.5611506003328941
 20
120.6489727386562976
 30
0.0
 40
15.3151045919255306
 50
91.8379940900215246
 51
92.0502044642173871
  0
ARC
  5
13E2D
  8
0
 10
3672.0137734281711346
 20
135.9392827112768032
 30
0.0
 40
0.0149999958481636
 50
91.9999964648301329
 51
142.2690866099729874
  0
ARC
  5
13E2E
  8
0
 10
3672.3546484277558193
 20
135.6755305269379903
 30
0.0
 40
0.4459999727453584
 50
142.2690720103948934
 51
161.9417533563731979
  0
ARC
  5
13E2F
  8
0
 10
3672.3546484529401823
 20
135.6755305162600109
 30
0.0
 40
0.4459999999994258
 50
161.9417530550823869
 51
165.8986751356804916
  0
ARC
  5
13E30
  8
0
 10
3672.1792060198590661
 20
135.7122391019881888
 30
0.0
 40
0.2665797152657835
 50
164.3408250278743026
 51
187.9253618868380045
  0
LINE
  5
13E31
  8
0
 10
3672.0019100293411611
 20
135.9484620164598141
 30
0.0
 11
3672.0019100293411611
 21
135.4025990160598099
 31
0.0
  0
LINE
  5
13E32
  8
0
 10
3672.0132499367409764
 20
135.9542735695598026
 30
0.0
 11
3672.0132499367409764
 21
135.3967874629597929
 31
0.0
  0
LINE
  5
13E33
  8
0
 10
3672.0929009817918995
 20
135.3829145232838869
 30
0.0
 11
3672.0929009139040318
 21
135.9681464163425915
 31
0.0
  0
LINE
  5
13E34
  8
0
 10
3672.0668956329409411
 20
135.3949611731777054
 30
0.0
 11
3672.0668956329409411
 21
135.9561469185597957
 31
0.0
  0
LINE
  5
13E35
  8
0
 10
3673.3383484141409099
 20
135.1255305163597882
 30
0.0
 11
3673.1866812730791025
 21
135.1255305163597882
 31
0.0
  0
ARC
  5
13E36
  8
0
 10
3673.1867893823368831
 20
135.1555391703404894
 30
0.0
 40
0.0300088487174337
 50
195.1678664421534108
 51
269.793586963126927
  0
LINE
  5
13E37
  8
0
 10
3673.1578259402431286
 20
135.1476874174549039
 30
0.0
 11
3673.1494127918408594
 21
135.1787199017597914
 31
0.0
  0
ARC
  5
13E38
  8
0
 10
3673.1134759221968125
 20
135.1707229848366865
 30
0.0
 40
0.0368158835291509
 50
12.54543691787927
 51
31.9095981291762882
  0
ARC
  5
13E39
  8
0
 10
3673.1257125782740331
 20
135.1774399943074911
 30
0.0
 40
0.0228907350393935
 50
33.8275015231985918
 51
76.3832325238548577
  0
ARC
  5
13E3A
  8
0
 10
3673.120437193997077
 20
135.151284228008393
 30
0.0
 40
0.0495640015855343
 50
77.5747588512129198
 51
87.384636826806954
  0
ARC
  5
13E3B
  8
0
 10
3673.1338790882127796
 20
135.399893629133004
 30
0.0
 40
0.1994106918588606
 50
234.5285612138515887
 51
266.7859444807800173
  0
ARC
  5
13E3C
  8
0
 10
3673.1776061046448376
 20
135.4311012350293026
 30
0.0
 40
0.2508123655824016
 50
194.0513656131662117
 51
230.527180818530411
  0
ARC
  5
13E3D
  8
0
 10
3673.4904339251120291
 20
135.5367653252048115
 30
0.0
 40
0.5805417013600037
 50
191.0464766885988865
 51
196.672642629803704
  0
LINE
  5
13E3E
  8
0
 10
3672.9206484529408954
 20
135.4355305162598029
 30
0.0
 11
3672.9026484529408663
 21
135.4355305162598029
 31
0.0
  0
ARC
  5
13E3F
  8
0
 10
2910.4193594847920394
 20
43814.7056012224566075
 30
0.0
 40
43685.9321734669429134
 50
270.9999227255746064
 51
271.0000769270112073
  0
ARC
  5
13E40
  8
0
 10
3672.0688799910158195
 20
135.3651523839747028
 30
0.0
 40
0.0298747651157329
 50
36.4807923254521427
 51
93.8085357947784075
  0
ARC
  5
13E41
  8
0
 10
3672.5611506003128852
 20
150.7020882933034898
 30
0.0
 40
15.3151045913654507
 50
267.9497955357825845
 51
268.1506073653575868
  0
ARC
  5
13E42
  8
0
 10
3672.0137734281711346
 20
135.4117783212427923
 30
0.0
 40
0.0149999958481636
 50
217.7309133900270126
 51
268.0000035351699239
  0
ARC
  5
13E43
  8
0
 10
3672.3546484277558193
 20
135.6755305055814915
 30
0.0
 40
0.445999972745218
 50
198.0582466436252105
 51
217.7309279896076077
  0
ARC
  5
13E44
  8
0
 10
3672.3546484529401823
 20
135.675530516259613
 30
0.0
 40
0.4459999999994258
 50
194.1013248643193947
 51
198.0582469449174994
  0
ARC
  5
13E45
  8
0
 10
3672.1788940310598264
 20
135.6387682296144135
 30
0.0
 40
0.2662648134764938
 50
172.074490189259194
 51
195.666168973789496
  0
LINE
  5
13E46
  8
0
 10
3675.8876484357410845
 20
133.4281492057598086
 30
0.0
 11
3675.8876484357410845
 21
133.4316840966598932
 31
0.0
  0
ARC
  5
13E47
  8
0
 10
3675.9369406350101599
 20
133.9703001500541859
 30
0.0
 40
0.5393555890673449
 50
267.1415088610061161
 51
270.0751915666879768
  0
ARC
  5
13E48
  8
0
 10
3675.8839096809479088
 20
132.8409988773053101
 30
0.0
 40
0.59119467574177
 50
87.4664291442317818
 51
89.2687793016235958
  0
ARC
  5
13E49
  8
0
 10
3675.891184190380045
 20
133.4098292720717893
 30
0.0
 40
0.022317772663587
 50
89.3062468563419145
 51
97.869508484555837
  0
ARC
  5
13E4A
  8
0
 10
3675.887795368857951
 20
133.4316677273913001
 30
0.0
 40
0.0001478421250849
 50
114.6862826115648062
 51
173.6431044226364975
  0
ARC
  5
13E4B
  8
0
 10
3675.8883524744092028
 20
133.4306350717291139
 30
0.0
 40
0.0013209217781475
 50
99.7622347861878183
 51
117.9369671283596972
  0
LINE
  5
13E4C
  8
0
 10
3672.7850934240409515
 20
135.9250824466597862
 30
0.0
 11
3672.7850934240409515
 21
135.9250824466597862
 31
0.0
  0
LINE
  5
13E4D
  8
0
 10
3672.7850934240409515
 20
135.9250824466548124
 30
0.0
 11
3672.7850934240409515
 21
135.4259785859597969
 31
0.0
  0
LINE
  5
13E4E
  8
0
 10
3672.756393151741122
 20
135.9395421350818083
 30
0.0
 11
3672.7563932393409232
 21
135.4115190114935103
 31
0.0
  0
ARC
  5
13E4F
  8
0
 10
3672.4126484355788307
 20
135.6755305160995135
 30
0.0
 40
0.433431153525792
 50
37.525906191700102
 51
66.5215742646932
  0
ARC
  5
13E50
  8
0
 10
3672.5963039915031914
 20
136.106075203184389
 30
0.0
 40
0.0347745195833261
 50
213.6917376937755932
 51
251.6027357856615936
  0
ARC
  5
13E51
  8
0
 10
3672.599320048565005
 20
136.1044083027163083
 30
0.0
 40
0.0364878490345907
 50
172.7499256351007944
 51
208.8810629232098108
  0
ARC
  5
13E52
  8
0
 10
3672.7834890480498871
 20
136.0992754099175102
 30
0.0
 40
0.2205801633428611
 50
166.9812744263587092
 51
177.4698146512793073
  0
ARC
  5
13E53
  8
0
 10
3672.6863672257918552
 20
136.1239417339531883
 30
0.0
 40
0.1204174041056654
 50
117.3935902775636038
 51
168.0060947739588926
  0
ARC
  5
13E54
  8
0
 10
3672.7112405858820239
 20
136.0799929109635116
 30
0.0
 40
0.1708925111756876
 50
109.4617310810221937
 51
118.0183379027728989
  0
ARC
  5
13E55
  8
0
 10
3672.6482938568360623
 20
136.2711319419555025
 30
0.0
 40
0.0306063190727633
 50
281.3230130283556036
 51
359.4980573816492893
  0
LINE
  5
13E56
  8
0
 10
3672.6788990014410956
 20
136.3461358818967142
 30
0.0
 11
3672.6788990014410956
 21
136.2708638171554014
 31
0.0
  0
ARC
  5
13E57
  8
0
 10
3672.6484327565958665
 20
136.3453858660766116
 30
0.0
 40
0.0304754753638235
 50
1.4102185330995061
 51
84.2687397948269847
  0
ARC
  5
13E58
  8
0
 10
3672.7233909075030169
 20
136.5828504159119063
 30
0.0
 40
0.2192699306448717
 50
225.8605153706893134
 51
250.8541612688669886
  0
ARC
  5
13E59
  8
0
 10
3671.21542333713478
 20
134.9703425180831005
 30
0.0
 40
1.988518841821715
 50
47.0354569909353089
 51
49.8420187222236066
  0
ARC
  5
13E5A
  8
0
 10
3672.4126486785721681
 20
135.6755302803933887
 30
0.0
 40
0.4334314663570215
 50
113.4783655549489936
 51
137.5369095135773989
  0
ARC
  5
13E5B
  8
0
 10
3672.2289933407478202
 20
136.1060748032037964
 30
0.0
 40
0.0347739429506892
 50
288.3977096584093829
 51
326.3084209421270998
  0
ARC
  5
13E5C
  8
0
 10
3672.2259768573157999
 20
136.1044083027163083
 30
0.0
 40
0.0364878490345907
 50
331.1189370767901892
 51
7.2500743648992207
  0
ARC
  5
13E5D
  8
0
 10
3672.0418078578309178
 20
136.0992754099175102
 30
0.0
 40
0.2205801633428611
 50
2.53018534872069
 51
13.0187255736412997
  0
ARC
  5
13E5E
  8
0
 10
3672.1389296800898592
 20
136.1239417339531883
 30
0.0
 40
0.1204174041056654
 50
11.9939052260410399
 51
62.6064097224364033
  0
ARC
  5
13E5F
  8
0
 10
3672.114056660273036
 20
136.0799936123864882
 30
0.0
 40
0.1708917321163688
 50
61.9816523395207284
 51
70.539374491809852
  0
ARC
  5
13E60
  8
0
 10
3672.1770020467179165
 20
136.271131576232392
 30
0.0
 40
0.0306053135822885
 50
180.5012744179232982
 51
258.6727416305573115
  0
LINE
  5
13E61
  8
0
 10
3672.1463979044410735
 20
136.3461358818967142
 30
0.0
 11
3672.1463979044410735
 21
136.2708638171554014
 31
0.0
  0
ARC
  5
13E62
  8
0
 10
3672.1768666654488698
 20
136.3453849499555872
 30
0.0
 40
0.0304780133235803
 50
95.7363002876762437
 51
178.5881761789318034
  0
ARC
  5
13E63
  8
0
 10
3672.1053334619227826
 20
136.5772944254875938
 30
0.0
 40
0.2129004479097142
 50
288.7648687674928851
 51
314.5188191432253006
  0
ARC
  5
13E64
  8
0
 10
3673.6098735687469343
 20
134.9703425180831005
 30
0.0
 40
1.988518841821715
 50
130.1579812777764005
 51
132.964543009064613
  0
ARC
  5
13E65
  8
0
 10
3672.4126484359640017
 20
135.6755305159983038
 30
0.0
 40
0.4334311529634928
 50
297.3520474286913213
 51
322.4741128324732813
  0
ARC
  5
13E66
  8
0
 10
3672.7825543250401097
 20
135.9557553950562863
 30
0.0
 40
0.0307778619689626
 50
211.7883637458637054
 51
274.7321410079090924
  0
ARC
  5
13E67
  8
0
 10
3672.7827300378758082
 20
135.3949569034494971
 30
0.0
 40
0.0311115795152168
 50
85.6433382626702411
 51
147.8359346276185136
  0
ARC
  5
13E68
  8
0
 10
3672.4126484529410845
 20
136.401683992499386
 30
0.0
 40
0.1227666048603836
 50
46.0748164398916913
 51
133.9251835601087919
  0
LINE
  5
13E69
  8
0
 10
3672.6543031014812186
 20
136.2411213480598065
 30
0.0
 11
3672.1709907760418901
 21
136.2411224135597934
 31
0.0
  0
LINE
  5
13E6A
  8
0
 10
3672.1738203832410363
 20
136.3757103429597919
 30
0.0
 11
3672.6514761177409127
 21
136.3757090016597999
 31
0.0
  0
ARC
  5
13E6B
  8
0
 10
3672.4126482140541157
 20
135.675530167470896
 30
0.0
 40
0.4334307415978455
 50
222.4630900444761039
 51
242.6479573610506861
  0
ARC
  5
13E6C
  8
0
 10
3672.2064340879919655
 20
135.2713552453602119
 30
0.0
 40
0.0204623822487327
 50
357.9263585228131888
 51
69.7823168697824769
  0
ARC
  5
13E6D
  8
0
 10
3670.668200221330153
 20
135.2383735755811074
 30
0.0
 40
1.5590162676138981
 50
356.1851880330561926
 51
1.1849907131997659
  0
ARC
  5
13E6E
  8
0
 10
3672.0664381115511787
 20
135.1383128648604952
 30
0.0
 40
0.1573667175944227
 50
333.2811852313157033
 51
358.6660248090012146
  0
ARC
  5
13E6F
  8
0
 10
3672.1518127266840565
 20
135.1013669998746138
 30
0.0
 40
0.0647211395212565
 50
271.4825321831394831
 51
328.5088762288013982
  0
ARC
  5
13E70
  8
0
 10
3672.618862849235029
 20
135.2713552364369036
 30
0.0
 40
0.0204624132507678
 50
110.2178481617912951
 51
182.0736133321030081
  0
ARC
  5
13E71
  8
0
 10
3674.1570966845520161
 20
135.2383735755811074
 30
0.0
 40
1.5590162676138981
 50
178.8150092868002048
 51
183.8148119669438074
  0
ARC
  5
13E72
  8
0
 10
3672.7588587943309903
 20
135.1383128648604952
 30
0.0
 40
0.1573667175944227
 50
181.3339751909987001
 51
206.7188147686842967
  0
ARC
  5
13E73
  8
0
 10
3672.6734875438219206
 20
135.1013704533305031
 30
0.0
 40
0.0647258125867976
 50
211.4921747502775986
 51
268.5145954073187795
  0
LINE
  5
13E74
  8
0
 10
3672.671809702093924
 20
135.0366663911538865
 30
0.0
 11
3672.1534872036968409
 21
135.0366675251651998
 31
0.0
  0
ARC
  5
13E75
  8
0
 10
3672.6728691236207851
 20
135.0159635382977967
 30
0.0
 40
0.0207299418800831
 50
357.4433492754527038
 51
92.9294262664233202
  0
LINE
  5
13E76
  8
0
 10
3672.6936484357411246
 20
134.9505696155598002
 30
0.0
 11
3672.6935784310189774
 21
135.0150388343290899
 31
0.0
  0
ARC
  5
13E77
  8
0
 10
3672.1524340285382095
 20
135.0159583370723908
 30
0.0
 40
0.0207359506505266
 50
87.088705207797446
 51
182.541523572372995
  0
LINE
  5
13E78
  8
0
 10
3672.1316484357412264
 20
134.9505696155598002
 30
0.0
 11
3672.1317184748631917
 21
135.0150388343290899
 31
0.0
  0
LINE
  5
13E79
  8
0
 10
3672.6936484357411246
 20
134.9505696155598002
 30
0.0
 11
3672.1316484357412264
 21
134.9505696155598002
 31
0.0
  0
ARC
  5
13E7A
  8
0
 10
3672.1016484352730913
 20
134.9505696157027899
 30
0.0
 40
0.0300000004676944
 50
291.3344475905811919
 51
359.99999972680979
  0
ARC
  5
13E7B
  8
0
 10
3672.7236967719181848
 20
134.9505844194167992
 30
0.0
 40
0.0300483398238714
 50
180.02822780123239
 51
248.2005299338568989
  0
ARC
  5
13E7C
  8
0
 10
3672.2126528598341793
 20
134.6707796569874063
 30
0.0
 40
0.2710061275207102
 50
111.6741642015160068
 51
143.6454449336156927
  0
ARC
  5
13E7D
  8
0
 10
3672.6128031486641703
 20
134.6709352555980956
 30
0.0
 40
0.2707857303251894
 50
36.3479999392274422
 51
68.3881615696689096
  0
ARC
  5
13E7E
  8
0
 10
3672.0163352706708793
 20
134.8104624051931069
 30
0.0
 40
0.0303465535040025
 50
136.3040688473282955
 51
227.6439169704979122
  0
ARC
  5
13E7F
  8
0
 10
3672.8089636823601722
 20
134.8104624166631993
 30
0.0
 40
0.0303450407081393
 50
312.354901248573583
 51
43.6986307437521972
  0
ARC
  5
13E80
  8
0
 10
3673.2754327132288381
 20
134.4161394346162979
 30
0.0
 40
0.5807294447036556
 50
140.1784383268633007
 51
167.5345994934355929
  0
ARC
  5
13E81
  8
0
 10
3673.9838844919167968
 20
134.2977146148535041
 30
0.0
 40
1.2985779680300129
 50
169.1799646784978108
 51
191.2283537656749104
  0
ARC
  5
13E82
  8
0
 10
3717.8257908710211268
 20
141.8253140691334124
 30
0.0
 40
45.7816058543187978
 50
189.7847523817534068
 51
190.6402480580840972
  0
ARC
  5
13E83
  8
0
 10
3671.3152618753661045
 20
133.1000678651249132
 30
0.0
 40
1.540312114500292
 50
347.5135991451030009
 51
10.1729128582969093
  0
ARC
  5
13E84
  8
0
 10
3672.412650943312201
 20
132.7424094466198881
 30
0.0
 40
0.3661693375529802
 50
213.6836062119236885
 51
326.3164910822371212
  0
ARC
  5
13E85
  8
0
 10
3672.1340717630428117
 20
132.936686710456712
 30
0.0
 40
0.7057623596876763
 50
325.7352610283610943
 51
346.0914226934546036
  0
ARC
  5
13E86
  8
0
 10
3671.5498784692049412
 20
134.4161422238244938
 30
0.0
 40
0.5807166745706857
 50
12.4653464492068
 51
39.8221630130209476
  0
ARC
  5
13E87
  8
0
 10
3670.8414147536409473
 20
134.2977119467340117
 30
0.0
 40
1.2985779680300129
 50
348.7717435284940279
 51
10.8201326156679194
  0
ARC
  5
13E88
  8
0
 10
3626.9994955919560198
 20
141.8252369529060957
 30
0.0
 40
45.7816058543187978
 50
349.3598492360849264
 51
350.2153449124102167
  0
ARC
  5
13E89
  8
0
 10
3673.510039403916835
 20
133.1000697286046091
 30
0.0
 40
1.540312114500292
 50
169.8271844358708051
 51
192.4864981490634079
  0
ARC
  5
13E8A
  8
0
 10
3672.6912297936792129
 20
132.9366871835127029
 30
0.0
 40
0.7057623596876763
 50
193.9086746007122031
 51
214.2648362657998007
  0
LINE
  5
13E8B
  8
0
 10
3672.8309026508459283
 20
134.8314267472597976
 30
0.0
 11
3671.994394220662798
 21
134.83142674715981
 31
0.0
  0
LINE
  5
13E8C
  8
0
 10
3672.8294077712412218
 20
134.7880378603597933
 30
0.0
 11
3671.9958897000410616
 21
134.7880371526597969
 31
0.0
  0
LINE
  5
13E8D
  8
0
 10
3672.6117912329650608
 20
135.2905568665597968
 30
0.0
 11
3672.2135056382408038
 21
135.2905568667598004
 31
0.0
  0
LINE
  5
13E8E
  8
0
 10
3672.5853290234408632
 20
136.0730779716598136
 30
0.0
 11
3672.2399683836388249
 21
136.0730782042597866
 31
0.0
  0
ARC
  5
13E8F
  8
0
 10
3673.3228027069571908
 20
136.1957847125451053
 30
0.0
 40
0.0297459259200524
 50
17.9274615060178988
 51
89.8356964833589586
  0
ARC
  5
13E90
  8
0
 10
3672.4144062745472183
 20
136.0498903523962895
 30
0.0
 40
0.9494440507596233
 50
350.6001885186719278
 51
9.3988787928062774
  0
ARC
  5
13E91
  8
0
 10
3671.6194479067248722
 20
135.6577920516700999
 30
0.0
 40
1.7478014215768121
 50
4.428534355937237
 51
7.7943304201494454
  0
ARC
  5
13E92
  8
0
 10
3669.5935620742061474
 20
135.6755281094305872
 30
0.0
 40
3.770291750114922
 50
358.2190068372665905
 51
1.781659302876976
  0
ARC
  5
13E93
  8
0
 10
3671.6059526095318688
 20
135.6946551558571059
 30
0.0
 40
1.761361835244994
 50
352.2207246719314071
 51
355.5616738931316831
  0
ARC
  5
13E94
  8
0
 10
3673.3210702095971101
 20
135.4735359040323033
 30
0.0
 40
0.0346572654326019
 50
273.0030777351902884
 51
330.0665711531013926
  0
ARC
  5
13E95
  8
0
 10
3672.4667047092812027
 20
135.2859419389967002
 30
0.0
 40
0.9006469724042256
 50
6.2307928310201222
 51
10.8994803408684309
  0
ARC
  5
13E96
  8
0
 10
3671.4740766785171218
 20
135.3008004160531925
 30
0.0
 40
1.889773521829996
 50
357.4870219135281104
 51
2.5139978969246068
  0
ARC
  5
13E97
  8
0
 10
3672.4936952060861586
 20
135.3133299931469935
 30
0.0
 40
0.8735611627242642
 50
348.9649129634012752
 51
353.7311218398272104
  0
ARC
  5
13E98
  8
0
 10
3673.3228031364651542
 20
135.1552750748516019
 30
0.0
 40
0.029744673609935
 50
270.1594061060503122
 51
342.0771600033713753
  0
ARC
  5
13E99
  8
0
 10
3673.3210693639998681
 20
135.8775224113510944
 30
0.0
 40
0.0346599943076868
 50
29.9468779720933007
 51
86.9957237342548666
  0
ARC
  5
13E9A
  8
0
 10
3673.1984411943599298
 20
136.1956597097639872
 30
0.0
 40
0.0298708594643226
 50
90.1080021859431355
 51
166.2164316973218945
  0
ARC
  5
13E9B
  8
0
 10
3674.1911462437487899
 20
136.0483497301217142
 30
0.0
 40
1.03332020268185
 50
171.4051049250234939
 51
188.594888285270514
  0
ARC
  5
13E9C
  8
0
 10
3673.1988409535661049
 20
135.879286889487588
 30
0.0
 40
0.0328510151402153
 50
90.7915336710473753
 51
153.5427674640305895
  0
LINE
  5
13E9D
  8
0
 10
3673.3228859112409737
 20
135.9121347698597901
 30
0.0
 11
3673.1983871355409974
 21
135.9121347698597901
 31
0.0
  0
LINE
  5
13E9E
  8
0
 10
3673.3228858898410181
 20
135.43892623265981
 30
0.0
 11
3673.1983871202410228
 21
135.4389262617598035
 31
0.0
  0
ARC
  5
13E9F
  8
0
 10
3673.1988409570972181
 20
135.4717741486471994
 30
0.0
 40
0.0328510219150097
 50
206.4572436343686093
 51
269.2084336471576762
  0
ARC
  5
13EA0
  8
0
 10
3675.2186889797121694
 20
135.6755305161173055
 30
0.0
 40
2.0608628084682108
 50
173.9168652110020048
 51
186.0831348677037909
  0
ARC
  5
13EA1
  8
0
 10
3674.1911467180289037
 20
135.3027112638089022
 30
0.0
 40
1.0333206766428249
 50
171.4051136967023865
 51
188.594889011761893
  0
ARC
  5
13EA2
  8
0
 10
3673.198441176812139
 20
135.1554013164158903
 30
0.0
 40
0.0298708489407966
 50
193.783563696415996
 51
269.8963426612249918
  0
LINE
  5
13EA3
  8
0
 10
3671.9841890305410743
 20
135.5355151729598049
 30
0.0
 11
3671.984189038841123
 21
135.4978462354168869
 31
0.0
  0
ARC
  5
13EA4
  8
0
 10
3671.9312527764400329
 20
135.5323820019783909
 30
0.0
 40
0.0530288955068457
 50
3.3872492353292958
 51
26.7744741759751896
  0
ARC
  5
13EA5
  8
0
 10
3671.7613537920788076
 20
135.4542008997017888
 30
0.0
 40
0.2400260083366012
 50
25.1660905365873084
 51
36.7455302223063569
  0
ARC
  5
13EA6
  8
0
 10
3672.1425248280029336
 20
135.7344305365921002
 30
0.0
 40
0.2330834570714654
 50
199.9193932439453079
 51
215.8870976166481057
  0
ARC
  5
13EA7
  8
0
 10
3672.102691925129875
 20
135.7192718061195933
 30
0.0
 40
0.1904703135443176
 50
180.6946354124625884
 51
199.7145864293269142
  0
ARC
  5
13EA8
  8
0
 10
3671.9759887136920042
 20
135.4974312989808993
 30
0.0
 40
0.0082108163291709
 50
326.8000122570346093
 51
2.8966958186929812
  0
ARC
  5
13EA9
  8
0
 10
3671.9795349523778896
 20
135.4955977467189996
 30
0.0
 40
0.0042590076555305
 50
269.9999999999739089
 51
321.3090653480132914
  0
ARC
  5
13EAA
  8
0
 10
3671.9806791078949573
 20
135.5074742189111987
 30
0.0
 40
0.0161759946143857
 50
228.8649153042443061
 51
265.9439855719102184
  0
ARC
  5
13EAB
  8
0
 10
3672.0197402796948154
 20
135.5586857944126962
 30
0.0
 40
0.0805556312781327
 50
214.9177947940401907
 51
231.9030566579741048
  0
ARC
  5
13EAC
  8
0
 10
3672.1247140408568157
 20
135.6402354982178906
 30
0.0
 40
0.2134182714028462
 50
190.312630859057407
 51
216.7387397752059996
  0
LINE
  5
13EAD
  8
0
 10
3675.9376484529398112
 20
137.9255323468597965
 30
0.0
 11
3675.9333222126269902
 21
137.9255323468597965
 31
0.0
  0
LINE
  5
13EAE
  8
0
 10
3675.4838841884948124
 20
137.5403890688598096
 30
0.0
 11
3675.5313643864778896
 21
137.5403890688598096
 31
0.0
  0
LINE
  5
13EAF
  8
0
 10
3675.5313722364858222
 20
133.8106719636597859
 30
0.0
 11
3675.4838974936969862
 21
133.8106719636597859
 31
0.0
  0
LINE
  5
13EB0
  8
0
 10
3674.9253118570291008
 20
136.722530516259809
 30
0.0
 11
3674.9922962463588192
 21
136.722530516259809
 31
0.0
  0
LINE
  5
13EB1
  8
0
 10
3674.9253118570291008
 20
134.628531498531089
 30
0.0
 11
3674.9922962463588192
 21
134.628531498531089
 31
0.0
  0
ENDSEC
  0
EOF
