  0
SECTION
  2
HEADER
  9
$ACADVER
  1
AC1009
  9
$INSBASE
 10
3971.5542693743182099
 20
67.4616020721260554
 30
0.0
  9
$EXTMIN
 10
3968.5409520909538514
 20
64.193885536682842
 30
0.0
  9
$EXTMAX
 10
3971.5670486827229979
 20
70.7293186075692688
 30
0.0
  9
$LIMMIN
 10
0.0
 20
0.0
  9
$LIMMAX
 10
11.6929133858000007
 20
8.2677165353999982
  9
$ORTHOMODE
 70
     0
  9
$REGENMODE
 70
     1
  9
$FILLMODE
 70
     1
  9
$QTEXTMODE
 70
     0
  9
$MIRRTEXT
 70
     0
  9
$DRAGMODE
 70
     2
  9
$LTSCALE
 40
0.6431102362
  9
$OSMODE
 70
  4095
  9
$ATTMODE
 70
     1
  9
$TEXTSIZE
 40
0.2
  9
$TRACEWID
 40
0.05
  9
$TEXTSTYLE
  7
STANDARD
  9
$CLAYER
  8
0
  9
$CELTYPE
  6
BYLAYER
  9
$CECOLOR
 62
   256
  9
$DIMSCALE
 40
1.0
  9
$DIMASZ
 40
0.1875
  9
$DIMEXO
 40
0.0625
  9
$DIMDLI
 40
0.4443307087
  9
$DIMRND
 40
0.0
  9
$DIMDLE
 40
0.0
  9
$DIMEXE
 40
0.125
  9
$DIMTP
 40
0.01
  9
$DIMTM
 40
0.01
  9
$DIMTXT
 40
2.0
  9
$DIMCEN
 40
0.1052362205
  9
$DIMTSZ
 40
0.0
  9
$DIMTOL
 70
     1
  9
$DIMLIM
 70
     0
  9
$DIMTIH
 70
     1
  9
$DIMTOH
 70
     1
  9
$DIMSE1
 70
     0
  9
$DIMSE2
 70
     0
  9
$DIMTAD
 70
     0
  9
$DIMZIN
 70
     0
  9
$DIMBLK
  1

  9
$DIMASO
 70
     1
  9
$DIMSHO
 70
     1
  9
$DIMPOST
  1
\X
  9
$DIMAPOST
  1

  9
$DIMALT
 70
     1
  9
$DIMALTD
 70
     2
  9
$DIMALTF
 40
25.3999999999999986
  9
$DIMLFAC
 40
1.0
  9
$DIMTOFL
 70
     0
  9
$DIMTVP
 40
0.0
  9
$DIMTIX
 70
     0
  9
$DIMSOXD
 70
     0
  9
$DIMSAH
 70
     0
  9
$DIMBLK1
  1

  9
$DIMBLK2
  1

  9
$DIMSTYLE
  2
STANDARD
  9
$DIMCLRD
 70
     0
  9
$DIMCLRE
 70
     0
  9
$DIMCLRT
 70
     0
  9
$DIMTFAC
 40
1.0
  9
$DIMGAP
 40
0.09
  9
$LUNITS
 70
     2
  9
$LUPREC
 70
     4
  9
$SKETCHINC
 40
0.1
  9
$FILLETRAD
 40
0.0
  9
$AUNITS
 70
     0
  9
$AUPREC
 70
     0
  9
$MENU
  1
.
  9
$ELEVATION
 40
0.0
  9
$PELEVATION
 40
0.0
  9
$THICKNESS
 40
0.0
  9
$LIMCHECK
 70
     0
  9
$BLIPMODE
 70
     0
  9
$CHAMFERA
 40
0.0
  9
$CHAMFERB
 40
0.0
  9
$SKPOLY
 70
     0
  9
$TDCREATE
 40
2458060.468368056230247
  9
$TDUPDATE
 40
2459237.4963541668839753
  9
$TDINDWG
 40
0.426546412
  9
$TDUSRTIMER
 40
0.426546412
  9
$USRTIMER
 70
     1
  9
$ANGBASE
 50
0.0
  9
$ANGDIR
 70
     0
  9
$PDMODE
 70
     0
  9
$PDSIZE
 40
0.3125
  9
$PLINEWID
 40
0.0
  9
$COORDS
 70
     1
  9
$SPLFRAME
 70
     0
  9
$SPLINETYPE
 70
     6
  9
$SPLINESEGS
 70
     8
  9
$ATTDIA
 70
     1
  9
$ATTREQ
 70
     1
  9
$HANDLING
 70
     1
  9
$HANDSEED
  5
8519
  9
$SURFTAB1
 70
     6
  9
$SURFTAB2
 70
     6
  9
$SURFTYPE
 70
     6
  9
$SURFU
 70
     6
  9
$SURFV
 70
     6
  9
$UCSNAME
  2

  9
$UCSORG
 10
0.0
 20
0.0
 30
0.0
  9
$UCSXDIR
 10
1.0
 20
0.0
 30
0.0
  9
$UCSYDIR
 10
0.0
 20
1.0
 30
0.0
  9
$PUCSNAME
  2

  9
$PUCSORG
 10
0.0
 20
0.0
 30
0.0
  9
$PUCSXDIR
 10
1.0
 20
0.0
 30
0.0
  9
$PUCSYDIR
 10
0.0
 20
1.0
 30
0.0
  9
$USERI1
 70
     0
  9
$USERI2
 70
     0
  9
$USERI3
 70
     0
  9
$USERI4
 70
     0
  9
$USERI5
 70
     0
  9
$USERR1
 40
0.0
  9
$USERR2
 40
0.0
  9
$USERR3
 40
0.0
  9
$USERR4
 40
0.0
  9
$USERR5
 40
0.0
  9
$WORLDVIEW
 70
     1
  9
$SHADEDGE
 70
     3
  9
$SHADEDIF
 70
    70
  9
$TILEMODE
 70
     1
  9
$MAXACTVP
 70
    64
  9
$PLIMCHECK
 70
     0
  9
$PEXTMIN
 10
1.0000000000000000E+20
 20
1.0000000000000000E+20
 30
1.0000000000000000E+20
  9
$PEXTMAX
 10
-1.0000000000000000E+20
 20
-1.0000000000000000E+20
 30
-1.0000000000000000E+20
  9
$PLIMMIN
 10
0.0
 20
0.0
  9
$PLIMMAX
 10
12.0
 20
9.0
  9
$UNITMODE
 70
     0
  9
$VISRETAIN
 70
     1
  9
$PLINEGEN
 70
     0
  9
$PSLTSCALE
 70
     1
  0
ENDSEC
  0
SECTION
  2
TABLES
  0
TABLE
  2
VPORT
 70
     1
  0
VPORT
  2
*ACTIVE
 70
     0
 10
0.0
 20
0.0
 11
1.0
 21
1.0
 12
177.6960902305885952
 22
-52.7190543609794204
 13
0.0
 23
0.0
 14
1.0
 24
1.0
 15
0.0
 25
0.0
 16
0.0
 26
0.0
 36
5.1040778033513332
 17
3792.35791015625
 27
120.1806564331053977
 37
0.0
 40
6.6255695042833356
 41
2.9182795698924728
 42
50.0
 43
0.0
 44
0.0
 50
0.0
 51
0.0
 71
     0
 72
   100
 73
     1
 74
     1
 75
     0
 76
     0
 77
     0
 78
     0
  0
ENDTAB
  0
TABLE
  2
LTYPE
 70
     2
  0
LTYPE
  2
CONTINUOUS
 70
     0
  3
Solid line
 72
    65
 73
     0
 40
0.0
  0
LTYPE
  2
PHANTOM2
 70
     0
  3
___ _ _ ___ _ _ ___ _ _ ___ _ _
 72
    65
 73
     6
 40
1.25
 49
0.625
 49
-0.125
 49
0.125
 49
-0.125
 49
0.125
 49
-0.125
  0
ENDTAB
  0
TABLE
  2
LAYER
 70
     2
  0
LAYER
  2
0
 70
     0
 62
   255
  6
CONTINUOUS
  0
LAYER
  2
DEFPOINTS
 70
     0
 62
     7
  6
CONTINUOUS
  0
ENDTAB
  0
TABLE
  2
STYLE
 70
     1
  0
STYLE
  2
STANDARD
 70
     0
 40
0.0
 41
0.8
 50
0.0
 71
     0
 42
0.2
  3
txt
  4

  0
ENDTAB
  0
TABLE
  2
VIEW
 70
     0
  0
ENDTAB
  0
TABLE
  2
UCS
 70
     0
  0
ENDTAB
  0
TABLE
  2
APPID
 70
     9
  0
APPID
  2
ACAD
 70
     0
  0
APPID
  2
ACAD_MLEADERVER
 70
     0
  0
APPID
  2
ACAD_EXEMPT_FROM_CAD_STANDARDS
 70
     0
  0
APPID
  2
ACAD_NAV_VCDISPLAY
 70
     0
  0
APPID
  2
ACAECLAYERSTANDARD
 70
     0
  0
APPID
  2
ACCMTRANSPARENCY
 70
     0
  0
APPID
  2
ACAD_DSTYLE_DIMJAG
 70
     0
  0
APPID
  2
ACAD_DSTYLE_DIMTALN
 70
     0
  0
APPID
  2
ACDBATTR
 70
     0
  0
ENDTAB
  0
TABLE
  2
DIMSTYLE
 70
     1
  0
DIMSTYLE
  2
STANDARD
 70
     0
  3

  4

  5

  6

  7

 40
1.0
 41
0.1875
 42
0.0625
 43
0.38
 44
0.125
 45
0.0
 46
0.0
 47
0.01
 48
0.01
140
0.15625
141
0.09
142
0.0
143
25.3999999999999986
144
1.0
145
0.0
146
1.0
147
0.09
 71
     1
 72
     0
 73
     1
 74
     1
 75
     0
 76
     0
 77
     0
 78
     4
170
     0
171
     2
172
     0
173
     0
174
     0
175
     0
176
     0
177
     0
178
     0
  0
ENDTAB
  0
ENDSEC
  0
SECTION
  2
BLOCKS
  0
BLOCK
  8
0
  2
$MODEL_SPACE
 70
     0
 10
0.0
 20
0.0
 30
0.0
  3
$MODEL_SPACE
  1

  0
ENDBLK
  5
21
  8
0
  0
BLOCK
 67
     1
  8
0
  2
$PAPER_SPACE
 70
     0
 10
0.0
 20
0.0
 30
0.0
  3
$PAPER_SPACE
  1

  0
ENDBLK
  5
1D
 67
     1
  8
0
  0
ENDSEC
  0
SECTION
  2
ENTITIES
  0
ATTDEF
  5
7F24
  8
DEFPOINTS
 10
3971.5563820160541582
 20
67.4616240601244215
 30
0.0
 40
0.001
  1
K-T74039BR-4
  3

  2
MODELNUMBER
 70
     0
1001
ACDBATTR
1070
     0
1070
     1
  0
ATTDEF
  5
7F25
  8
DEFPOINTS
 10
3971.5563820160541582
 20
67.4599573934577563
 30
0.0
 40
0.001
  1
TAUT
  3

  2
TRADENAME
 70
     0
1001
ACDBATTR
1070
     0
1070
     1
  0
ATTDEF
  5
7F26
  8
DEFPOINTS
 10
3971.5563820160541582
 20
67.4582907267910912
 30
0.0
 40
0.001
  1
VALVE TRIM
  3

  2
PRODUCT
 70
     0
1001
ACDBATTR
1070
     0
1070
     1
  0
LINE
  5
83E7
  8
0
 10
3971.1741041696118373
 20
64.2271456824046396
 30
0.0
 11
3971.5542693743182099
 21
64.193885536682842
 31
0.0
  0
LINE
  5
83E8
  8
0
 10
3969.7208199488432001
 20
69.3702860770596743
 30
0.0
 11
3969.7382138157731788
 21
69.4352008722056127
 31
0.0
  0
LINE
  5
83E9
  8
0
 10
3969.6236456742540213
 20
67.538356588869263
 30
0.0
 11
3969.6236456741539769
 21
68.4849825976839952
 31
0.0
  0
LINE
  5
83EA
  8
0
 10
3969.7382138136540561
 20
67.57461745332958
 30
0.0
 11
3969.7382138136540561
 21
69.4352008642984373
 31
0.0
  0
LINE
  5
83EB
  8
0
 10
3969.7814933205550005
 20
69.4576760880399746
 30
0.0
 11
3969.7814933205531815
 21
67.5521422295880569
 31
0.0
  0
LINE
  5
83EC
  8
0
 10
3969.7208199488432001
 20
67.6395322404372195
 30
0.0
 11
3969.7382138157731788
 21
67.5746174452912811
 31
0.0
  0
LINE
  5
83ED
  8
0
 10
3969.1793879301540073
 20
67.538356588869263
 30
0.0
 11
3969.6236456742540213
 21
67.538356588869263
 31
0.0
  0
LINE
  5
83EE
  8
0
 10
3969.757228103754187
 20
67.5600272689984536
 30
0.0
 11
3969.781493320554091
 21
67.5600272689984536
 31
0.0
  0
LINE
  5
83EF
  8
0
 10
3969.1654959710831463
 20
69.4694760880399684
 30
0.0
 11
3969.6236456741539769
 21
68.4849825976839952
 31
0.0
  0
LINE
  5
83F0
  8
0
 10
3971.5542693743182099
 20
70.7293186075692688
 30
0.0
 11
3971.5542693743182099
 21
64.193885536682842
 31
0.0
  0
LINE
  5
83F1
  8
0
 10
3969.757228103754187
 20
69.4497910484984402
 30
0.0
 11
3969.781493320554091
 21
69.4497910484984402
 31
0.0
  0
LINE
  5
83F2
  8
0
 10
3971.5542693743182099
 20
70.7293186075692688
 30
0.0
 11
3971.1760839021890206
 21
70.6962316660639232
 31
0.0
  0
ARC
  5
83F3
  8
0
 10
4823.4917780079176737
 20
67.4616018872192598
 30
0.0
 40
852.3375535963998573
 50
179.8301045488032059
 51
180.1698954262986092
  0
ARC
  5
83F4
  8
0
 10
3969.6559306604540325
 20
68.5049091587984407
 30
0.0
 40
0.8070866141999999
 50
267.7074491084422903
 51
269.2777887813978168
  0
ARC
  5
83F5
  8
0
 10
3969.6559306604540325
 20
68.5049091587984407
 30
0.0
 40
0.8070866141999999
 50
90.7226715982605185
 51
117.631431756969107
  0
ARC
  5
83F6
  8
0
 10
3969.6447627972552255
 20
67.6191527880984466
 30
0.0
 40
0.0787401575
 50
14.9999999941746598
 51
89.2760825736374244
  0
ARC
  5
83F7
  8
0
 10
3969.6447627972552255
 20
69.3906655293984471
 30
0.0
 40
0.0787401575
 50
270.7191985359173145
 51
345.0000000058233809
  0
ARC
  5
83F8
  8
0
 10
3969.757228103754187
 20
69.4301060090984237
 30
0.0
 40
0.0196850394
 50
90.0
 51
165.0000000058240914
  0
ARC
  5
83F9
  8
0
 10
3969.757228103754187
 20
67.5797123083984417
 30
0.0
 40
0.0196850394
 50
194.9999999941734075
 51
270.0
  0
ARC
  5
83FA
  8
0
 10
3969.0524574258070061
 20
66.6085387240988922
 30
0.0
 40
0.9384415882622382
 50
82.2265366317474928
 51
97.7734633682525356
  0
ARC
  5
83FB
  8
0
 10
4451.4685015146387741
 20
70.2278644923186448
 30
0.0
 40
480.3105893717703907
 50
179.9463584130809863
 51
180.028496377408004
  0
ARC
  5
83FC
  8
0
 10
3971.1777930512189414
 20
70.6766136785178531
 30
0.0
 40
0.0196922986405028
 50
94.9791237450179864
 51
177.2982458475769931
  0
ARC
  5
83FD
  8
0
 10
3971.1759672805028458
 20
70.6763744344651599
 30
0.0
 40
0.0198383608486905
 50
90.2591986545439369
 51
174.9915957957713886
  0
ARC
  5
83FE
  8
0
 10
4000.3960780695610993
 20
68.1156270954468823
 30
0.0
 40
29.3519419584294212
 50
174.9915957957713886
 51
177.356312415878989
  0
ARC
  5
83FF
  8
0
 10
3932.577873112270936
 20
69.5407683254272087
 30
0.0
 40
38.4975685621457799
 50
356.9327793463452281
 51
359.8938959833432136
  0
ARC
  5
8400
  8
0
 10
4009.4752210276419646
 20
67.475395888397756
 30
0.0
 40
38.4549295944955389
 50
179.9918611908535979
 51
184.8191685825937043
  0
ARC
  5
8401
  8
0
 10
3971.1758198606758015
 20
64.246756121004637
 30
0.0
 40
0.0196853472948911
 50
185.8481623043423951
 51
264.9999999990063202
  0
ARC
  5
8402
  8
0
 10
4010.4322619422600837
 20
64.6011020239379121
 30
0.0
 40
39.2757031359708932
 50
179.5140313991186929
 51
180.5180157636328886
  0
ARC
  5
8403
  8
0
 10
3971.177406420636089
 20
64.2461721992824124
 30
0.0
 40
0.0192430712482167
 50
180.4768109293383134
 51
264.3747259850356954
  0
LINE
  5
8404
  8
0
 10
3968.5409520909538514
 20
65.4285663699692606
 30
0.0
 11
3968.5409520911539403
 21
69.4379760880415233
 31
0.0
  0
ARC
  5
8405
  8
0
 10
3968.5724481539550652
 20
65.4285663699692606
 30
0.0
 40
0.0314960630000121
 50
179.9999999971510078
 51
224.9999999999907914
  0
ARC
  5
8406
  8
0
 10
3968.5724481539550652
 20
65.4285663699692464
 30
0.0
 40
0.0314960629999914
 50
224.9999999999907914
 51
270.0
  0
LINE
  5
8407
  8
0
 10
3968.5724481539550652
 20
65.3970703069692547
 30
0.0
 11
3968.7000586722388107
 21
65.3970703069692689
 31
0.0
  0
ARC
  5
8408
  8
0
 10
3968.7009377876379403
 20
65.4285925848804624
 30
0.0
 40
0.0315345342219608
 50
268.402509186513214
 51
356.3909339326060035
  0
LINE
  5
8409
  8
0
 10
3968.7324097819541748
 20
65.4266075351692535
 30
0.0
 11
3968.8627638987318278
 21
67.5087677108632391
 31
0.0
  0
ARC
  5
840A
  8
0
 10
3968.8942893861221819
 20
67.5067680776425618
 30
0.0
 40
0.0315888411975036
 50
90.1510477793645748
 51
176.3706424621815927
  0
LINE
  5
840B
  8
0
 10
3968.8942061091552205
 20
67.5383568090692563
 30
0.0
 11
3968.9255269214581858
 21
67.538356588869263
 31
0.0
  0
LINE
  5
840C
  8
0
 10
3968.5409520909538514
 20
68.4487116977691699
 30
0.0
 11
3968.8337727246539544
 21
68.4474719705692536
 31
0.0
  0
ARC
  5
840D
  8
0
 10
3975.1065201683741179
 20
68.3978155806643713
 30
0.0
 40
6.2729439858609739
 50
179.5464440160523907
 51
182.3169205930522878
  0
ARC
  5
840E
  8
0
 10
3976.2102371360210782
 20
68.5140360640607753
 30
0.0
 40
7.3808034789374419
 50
182.8720140755627028
 51
187.596247342666004
  0
LINE
  5
840F
  8
0
 10
3968.7854171055541883
 20
68.4474719704692518
 30
0.0
 11
3968.7000578641218453
 21
65.3970668059650819
 31
0.0
  0
LINE
  5
8410
  8
0
 10
3969.7932933205538575
 20
69.4694760880399684
 30
0.0
 11
3971.0753756626231734
 21
69.4694760880399684
 31
0.0
  0
LINE
  5
8411
  8
0
 10
3969.7932933205538575
 20
67.5403422295880489
 30
0.0
 11
3971.0234330721950755
 21
67.5403422295880489
 31
0.0
  0
ARC
  5
8412
  8
0
 10
3969.7932933205538575
 20
69.4576760880399604
 30
0.0
 40
0.0118
 50
90.0
 51
179.9999999999739089
  0
ARC
  5
8413
  8
0
 10
3969.7932933205538575
 20
67.5521422295880569
 30
0.0
 40
0.0118
 50
179.9999999999739089
 51
270.0
  0
LINE
  5
8414
  8
0
 10
3969.1654959710831463
 20
69.4694760880399684
 30
0.0
 11
3968.5724520911539912
 21
69.4694760880399684
 31
0.0
  0
ARC
  5
8415
  8
0
 10
3968.5724520911539912
 20
69.4379760880399601
 30
0.0
 40
0.0315
 50
90.0
 51
179.999999997153509
  0
ENDSEC
  0
EOF
