  0
SECTION
  2
HEADER
  9
$ACADVER
  1
AC1009
  9
$INSBASE
 10
7253.7842689436329238
 20
347.9199560653077015
 30
0.0
  9
$EXTMIN
 10
7250.5392106041954321
 20
338.5498725008795873
 30
0.0
  9
$EXTMAX
 10
7257.0293272830713249
 20
361.0982241985705059
 30
0.0
  9
$LIMMIN
 10
0.0
 20
0.0
  9
$LIMMAX
 10
11.6929133858000007
 20
8.2677165353999982
  9
$ORTHOMODE
 70
     0
  9
$REGENMODE
 70
     1
  9
$FILLMODE
 70
     1
  9
$QTEXTMODE
 70
     0
  9
$MIRRTEXT
 70
     0
  9
$DRAGMODE
 70
     2
  9
$LTSCALE
 40
0.6431102362
  9
$OSMODE
 70
  4095
  9
$ATTMODE
 70
     1
  9
$TEXTSIZE
 40
0.2
  9
$TRACEWID
 40
0.05
  9
$TEXTSTYLE
  7
STANDARD
  9
$CLAYER
  8
0
  9
$CELTYPE
  6
BYLAYER
  9
$CECOLOR
 62
   256
  9
$DIMSCALE
 40
1.0
  9
$DIMASZ
 40
0.1875
  9
$DIMEXO
 40
0.0625
  9
$DIMDLI
 40
0.4443307087
  9
$DIMRND
 40
0.0
  9
$DIMDLE
 40
0.0
  9
$DIMEXE
 40
0.125
  9
$DIMTP
 40
0.01
  9
$DIMTM
 40
0.01
  9
$DIMTXT
 40
2.0
  9
$DIMCEN
 40
0.1052362205
  9
$DIMTSZ
 40
0.0
  9
$DIMTOL
 70
     1
  9
$DIMLIM
 70
     0
  9
$DIMTIH
 70
     1
  9
$DIMTOH
 70
     1
  9
$DIMSE1
 70
     0
  9
$DIMSE2
 70
     0
  9
$DIMTAD
 70
     0
  9
$DIMZIN
 70
     0
  9
$DIMBLK
  1

  9
$DIMASO
 70
     1
  9
$DIMSHO
 70
     1
  9
$DIMPOST
  1
\X
  9
$DIMAPOST
  1

  9
$DIMALT
 70
     1
  9
$DIMALTD
 70
     2
  9
$DIMALTF
 40
25.3999999999999986
  9
$DIMLFAC
 40
1.0
  9
$DIMTOFL
 70
     0
  9
$DIMTVP
 40
0.0
  9
$DIMTIX
 70
     0
  9
$DIMSOXD
 70
     0
  9
$DIMSAH
 70
     0
  9
$DIMBLK1
  1

  9
$DIMBLK2
  1

  9
$DIMSTYLE
  2
STANDARD
  9
$DIMCLRD
 70
     0
  9
$DIMCLRE
 70
     0
  9
$DIMCLRT
 70
     0
  9
$DIMTFAC
 40
1.0
  9
$DIMGAP
 40
0.09
  9
$LUNITS
 70
     2
  9
$LUPREC
 70
     4
  9
$SKETCHINC
 40
0.1
  9
$FILLETRAD
 40
0.0
  9
$AUNITS
 70
     0
  9
$AUPREC
 70
     0
  9
$MENU
  1
.
  9
$ELEVATION
 40
0.0
  9
$PELEVATION
 40
0.0
  9
$THICKNESS
 40
0.0
  9
$LIMCHECK
 70
     0
  9
$BLIPMODE
 70
     0
  9
$CHAMFERA
 40
0.0
  9
$CHAMFERB
 40
0.0
  9
$SKPOLY
 70
     0
  9
$TDCREATE
 40
2458060.468368056230247
  9
$TDUPDATE
 40
2460532.6502546300180256
  9
$TDINDWG
 40
0.9551228009
  9
$TDUSRTIMER
 40
0.9551228009
  9
$USRTIMER
 70
     1
  9
$ANGBASE
 50
0.0
  9
$ANGDIR
 70
     0
  9
$PDMODE
 70
     0
  9
$PDSIZE
 40
0.3125
  9
$PLINEWID
 40
0.0
  9
$COORDS
 70
     0
  9
$SPLFRAME
 70
     0
  9
$SPLINETYPE
 70
     6
  9
$SPLINESEGS
 70
     8
  9
$ATTDIA
 70
     1
  9
$ATTREQ
 70
     1
  9
$HANDLING
 70
     1
  9
$HANDSEED
  5
381D3
  9
$SURFTAB1
 70
     6
  9
$SURFTAB2
 70
     6
  9
$SURFTYPE
 70
     6
  9
$SURFU
 70
     6
  9
$SURFV
 70
     6
  9
$UCSNAME
  2

  9
$UCSORG
 10
0.0
 20
0.0
 30
0.0
  9
$UCSXDIR
 10
1.0
 20
0.0
 30
0.0
  9
$UCSYDIR
 10
0.0
 20
1.0
 30
0.0
  9
$PUCSNAME
  2

  9
$PUCSORG
 10
0.0
 20
0.0
 30
0.0
  9
$PUCSXDIR
 10
1.0
 20
0.0
 30
0.0
  9
$PUCSYDIR
 10
0.0
 20
1.0
 30
0.0
  9
$USERI1
 70
     0
  9
$USERI2
 70
     0
  9
$USERI3
 70
     0
  9
$USERI4
 70
     0
  9
$USERI5
 70
     0
  9
$USERR1
 40
0.0
  9
$USERR2
 40
0.0
  9
$USERR3
 40
0.0
  9
$USERR4
 40
0.0
  9
$USERR5
 40
0.0
  9
$WORLDVIEW
 70
     1
  9
$SHADEDGE
 70
     3
  9
$SHADEDIF
 70
    70
  9
$TILEMODE
 70
     1
  9
$MAXACTVP
 70
    64
  9
$PLIMCHECK
 70
     0
  9
$PEXTMIN
 10
1.0000000000000000E+20
 20
1.0000000000000000E+20
 30
1.0000000000000000E+20
  9
$PEXTMAX
 10
-1.0000000000000000E+20
 20
-1.0000000000000000E+20
 30
-1.0000000000000000E+20
  9
$PLIMMIN
 10
0.0
 20
0.0
  9
$PLIMMAX
 10
12.0
 20
9.0
  9
$UNITMODE
 70
     0
  9
$VISRETAIN
 70
     1
  9
$PLINEGEN
 70
     0
  9
$PSLTSCALE
 70
     1
  0
ENDSEC
  0
SECTION
  2
TABLES
  0
TABLE
  2
VPORT
 70
     1
  0
VPORT
  2
*ACTIVE
 70
     0
 10
0.0
 20
0.0
 11
1.0
 21
1.0
 12
3342.4189124983208785
 22
217.2444432471860125
 13
0.0
 23
0.0
 14
1.0
 24
1.0
 15
0.0
 25
0.0
 16
0.0
 26
0.0
 36
60.4960186965801583
 17
3911.3653564453120453
 27
132.5796051025390057
 37
0.0
 40
22.7062164703701193
 41
2.218457943925233
 42
50.0
 43
0.0
 44
0.0
 50
0.0
 51
0.0
 71
     0
 72
   100
 73
     1
 74
     1
 75
     0
 76
     0
 77
     0
 78
     0
  0
ENDTAB
  0
TABLE
  2
LTYPE
 70
     2
  0
LTYPE
  2
CONTINUOUS
 70
     0
  3
Solid line
 72
    65
 73
     0
 40
0.0
  0
LTYPE
  2
PHANTOM2
 70
     0
  3
___ _ _ ___ _ _ ___ _ _ ___ _ _
 72
    65
 73
     6
 40
1.25
 49
0.625
 49
-0.125
 49
0.125
 49
-0.125
 49
0.125
 49
-0.125
  0
ENDTAB
  0
TABLE
  2
LAYER
 70
     2
  0
LAYER
  2
0
 70
     0
 62
   255
  6
CONTINUOUS
  0
LAYER
  2
DEFPOINTS
 70
     0
 62
     7
  6
CONTINUOUS
  0
ENDTAB
  0
TABLE
  2
STYLE
 70
     1
  0
STYLE
  2
STANDARD
 70
     0
 40
0.0
 41
0.8
 50
0.0
 71
     0
 42
0.2
  3
txt
  4

  0
ENDTAB
  0
TABLE
  2
VIEW
 70
     0
  0
ENDTAB
  0
TABLE
  2
UCS
 70
     0
  0
ENDTAB
  0
TABLE
  2
APPID
 70
    11
  0
APPID
  2
ACAD
 70
     0
  0
APPID
  2
ACAD_MLEADERVER
 70
     0
  0
APPID
  2
ACAD_EXEMPT_FROM_CAD_STANDARDS
 70
     0
  0
APPID
  2
ACAD_NAV_VCDISPLAY
 70
     0
  0
APPID
  2
ACAECLAYERSTANDARD
 70
     0
  0
APPID
  2
ACCMTRANSPARENCY
 70
     0
  0
APPID
  2
ACAD_DSTYLE_DIMJAG
 70
     0
  0
APPID
  2
ACAD_DSTYLE_DIMTALN
 70
     0
  0
APPID
  2
ACDBATTR
 70
     0
  0
APPID
  2
ACADANNOTATIVE
 70
     0
  0
APPID
  2
DCO15
 70
     0
  0
ENDTAB
  0
TABLE
  2
DIMSTYLE
 70
     1
  0
DIMSTYLE
  2
STANDARD
 70
     0
  3

  4

  5

  6

  7

 40
1.0
 41
0.1875
 42
0.0625
 43
0.38
 44
0.125
 45
0.0
 46
0.0
 47
0.01
 48
0.01
140
0.15625
141
0.09
142
0.0
143
25.3999999999999986
144
1.0
145
0.0
146
1.0
147
0.09
 71
     1
 72
     0
 73
     1
 74
     1
 75
     0
 76
     0
 77
     0
 78
     4
170
     0
171
     2
172
     0
173
     0
174
     0
175
     0
176
     0
177
     0
178
     0
  0
ENDTAB
  0
ENDSEC
  0
SECTION
  2
BLOCKS
  0
BLOCK
  8
0
  2
$MODEL_SPACE
 70
     0
 10
0.0
 20
0.0
 30
0.0
  3
$MODEL_SPACE
  1

  0
ENDBLK
  5
21
  8
0
  0
BLOCK
 67
     1
  8
0
  2
$PAPER_SPACE
 70
     0
 10
0.0
 20
0.0
 30
0.0
  3
$PAPER_SPACE
  1

  0
ENDBLK
  5
1D
 67
     1
  8
0
  0
BLOCK
  8
0
  2
_FILLED
 70
     0
 10
0.0
 20
0.0
 30
0.0
  3
_FILLED
  1

  0
SOLID
  5
2853B
  8
0
  6
BYBLOCK
 62
     0
 10
0.0
 20
0.0
 30
0.0
 11
-1.0
 21
0.1666666667
 31
0.0
 12
-1.0
 22
-0.1666666667
 32
0.0
 13
-1.0
 23
-0.1666666667
 33
0.0
  0
ENDBLK
  5
2853C
  8
0
  6
BYBLOCK
 62
     0
  0
ENDSEC
  0
SECTION
  2
ENTITIES
  0
ATTDEF
  5
2842F
  8
DEFPOINTS
 10
7253.7846559191993947
 20
347.9178868962708862
 30
0.0
 40
0.001
  1
K-TLS35322-4
  3

  2
MODELNUMBER
 70
     0
1001
ACDBATTR
1070
     0
1070
     1
  0
ATTDEF
  5
28430
  8
DEFPOINTS
 10
7253.7845301095412651
 20
347.916220055891813
 30
0.0
 40
0.001
  1
ELATE
  3

  2
TRADENAME
 70
     0
1001
ACDBATTR
1070
     0
1070
     1
  0
ATTDEF
  5
28431
  8
DEFPOINTS
 10
7253.7846559191993947
 20
347.9145535629376127
 30
0.0
 40
0.001
  1
BATH AND SHOWER TRIM
  3

  2
PRODUCT
 70
     0
1001
ACDBATTR
1070
     0
1070
     1
  0
ARC
  5
37F83
  8
0
 10
7253.7842689436329238
 20
347.9199560653077015
 30
0.0
 40
3.245058339437819
 50
277.826959752016819
 51
262.173040247983181
  0
LINE
  5
37F84
  8
0
 10
7254.186786635846147
 20
344.3243220911820117
 30
0.0
 11
7253.3817512514206101
 21
344.3243220911820117
 31
0.0
  0
ARC
  5
37F85
  8
0
 10
7253.7842689436329238
 20
347.9199560653077015
 30
0.0
 40
1.12425983534798
 50
310.2289116345311868
 51
229.7710883654688132
  0
ARC
  5
37F86
  8
0
 10
7253.7842689436329238
 20
347.9199560653077015
 30
0.0
 40
1.150917016128276
 50
304.2559815595246846
 51
235.744018440475287
  0
LINE
  5
37F87
  8
0
 10
7253.3423512514191316
 20
345.4263444626766955
 30
0.0
 11
7253.3423512514191316
 21
344.3637220911820123
 31
0.0
  0
ARC
  5
37F88
  8
0
 10
7252.6021015094329414
 20
346.5981545715359857
 30
0.0
 40
0.6502301831999869
 50
28.8213642598023512
 51
45.4604893327548467
  0
ARC
  5
37F89
  8
0
 10
7252.2501723122568364
 20
346.4286679821976804
 30
0.0
 40
1.040486325355507
 50
18.5133223032930516
 51
27.6557280022732392
  0
ARC
  5
37F8A
  8
0
 10
7251.5148854459630456
 20
346.2578270323159018
 30
0.0
 40
1.7933930422503019
 50
7.8731076411040881
 51
16.229306344255729
  0
ARC
  5
37F8B
  8
0
 10
7249.986957995190096
 20
346.0213654028843848
 30
0.0
 40
3.339401583896537
 50
3.9321295202827322
 51
8.3009815667768532
  0
ARC
  5
37F8C
  8
0
 10
7250.6377449597412124
 20
345.9932575585514769
 30
0.0
 40
2.6930547019897282
 50
0.4964984198675496
 51
5.4783831474569142
  0
ARC
  5
37F8D
  8
0
 10
7245.8820287209127855
 20
345.7218343760619064
 30
0.0
 40
7.4544996790383884
 50
0.8615800492636916
 51
2.2661329645696542
  0
ARC
  5
37F8E
  8
0
 10
11139.3966814752493519
 20
409.1832770799460945
 30
0.0
 40
3886.5773122257819523
 50
180.9339351485253076
 51
180.9399445115031995
  0
ARC
  5
37F8F
  8
0
 10
7253.3817512514206101
 20
344.3637220911820123
 30
0.0
 40
0.0394
 50
180.0
 51
270.0
  0
LINE
  5
37F90
  8
0
 10
7254.2261866358458064
 20
345.4263444626766955
 30
0.0
 11
7254.2261866358458064
 21
344.3637220911820123
 31
0.0
  0
ARC
  5
37F91
  8
0
 10
7254.9664363778329061
 20
346.5981545715359857
 30
0.0
 40
0.6502301831999869
 50
134.5395106672451107
 51
151.178635740197592
  0
ARC
  5
37F92
  8
0
 10
7255.3183655750090111
 20
346.4286679821976804
 30
0.0
 40
1.040486325355507
 50
152.3442719977267927
 51
161.4866776967068915
  0
ARC
  5
37F93
  8
0
 10
7256.0536524413018924
 20
346.2578270323159018
 30
0.0
 40
1.7933930422503019
 50
163.7706936557441963
 51
172.1268923588959012
  0
ARC
  5
37F94
  8
0
 10
7257.5815798920739326
 20
346.0213654028843848
 30
0.0
 40
3.339401583896537
 50
171.6990184332231024
 51
176.0678704797172998
  0
ARC
  5
37F95
  8
0
 10
7256.9307929275246352
 20
345.9932575585514769
 30
0.0
 40
2.6930547019897282
 50
174.5216168525431044
 51
179.5035015801325073
  0
ARC
  5
37F96
  8
0
 10
7261.6865091663521525
 20
345.7218343760619064
 30
0.0
 40
7.4544996790383884
 50
177.7338670354303076
 51
179.1384199507363064
  0
ARC
  5
37F97
  8
0
 10
3368.1718564120101291
 20
409.1832770799460945
 30
0.0
 40
3886.5773122257819523
 50
359.0600554884968005
 51
359.0660648514746072
  0
ARC
  5
37F98
  8
0
 10
7254.186786635846147
 20
344.3637220911820123
 30
0.0
 40
0.0394
 50
270.0
 51
0.0
  0
ARC
  5
37F99
  8
0
 10
7253.783946921426832
 20
345.6173297848806101
 30
0.0
 40
0.449999937638037
 50
172.1053175271185012
 51
189.7691542213798925
  0
ARC
  5
37F9A
  8
0
 10
7253.783946921426832
 20
345.6173297848806101
 30
0.0
 40
0.449999937638037
 50
350.7819947505826121
 51
7.3435331902768572
  0
LINE
  5
37F9B
  8
0
 10
7254.4378257567741457
 20
339.0314084118626283
 30
0.0
 11
7253.1307121304907923
 21
339.0314084118626283
 31
0.0
  0
ARC
  5
37F9C
  8
0
 10
7254.4378257567741457
 20
339.0629084118625087
 30
0.0
 40
0.0315
 50
270.0
 51
0.0
  0
CIRCLE
  5
37F9D
  8
0
 10
7253.7842689436329238
 20
339.9205365785576873
 30
0.0
 40
0.7104700907577551
  0
CIRCLE
  5
37F9E
  8
0
 10
7253.7842689436329238
 20
339.9205365785576873
 30
0.0
 40
1.370664077678124
  0
LINE
  5
37F9F
  8
0
 10
7253.0992121304898319
 20
339.6806265214805194
 30
0.0
 11
7253.0992121304898319
 21
339.0629084118625087
 31
0.0
  0
LINE
  5
37FA0
  8
0
 10
7254.4693257567741966
 20
339.6806265214804057
 30
0.0
 11
7254.4693257567741966
 21
339.0629084118625087
 31
0.0
  0
ARC
  5
37FA1
  8
0
 10
7253.1307121304907923
 20
339.0629084118625087
 30
0.0
 40
0.0315
 50
180.0
 51
270.0
  0
ARC
  5
37FA2
  8
0
 10
7250.6615115636122937
 20
339.4371416603614762
 30
0.0
 40
2.4498303882824568
 50
5.7039561851066498
 51
8.3399360863890433
  0
ARC
  5
37FA3
  8
0
 10
7256.9070263236517349
 20
339.4371416603614762
 30
0.0
 40
2.4498303882824568
 50
171.6600639136142092
 51
174.2960438148932951
  0
LINE
  5
37FA4
  8
0
 10
7254.2524642306334499
 20
341.0717167697076775
 30
0.0
 11
7253.3160736566333071
 21
341.0717167697076775
 31
0.0
  0
LINE
  5
37FA5
  8
0
 10
7254.2524642306334499
 20
340.8307866862576816
 30
0.0
 11
7253.3160736566333071
 21
340.8307866862576816
 31
0.0
  0
LINE
  5
37FA6
  8
0
 10
7253.9774642306329042
 20
340.6557866862577271
 30
0.0
 11
7253.5910736566329433
 21
340.6557866862577271
 31
0.0
  0
LINE
  5
37FA7
  8
0
 10
7253.2915736566319538
 20
341.0472167697076884
 30
0.0
 11
7253.2915736566319538
 21
340.8552866862577275
 31
0.0
  0
ARC
  5
37FA8
  8
0
 10
7253.3160736566333071
 20
341.0472167697076884
 30
0.0
 40
0.0245
 50
90.0
 51
180.0000000000032117
  0
ARC
  5
37FA9
  8
0
 10
7253.3160736566333071
 20
340.8552866862577275
 30
0.0
 40
0.0245
 50
179.9999999999967031
 51
270.0
  0
LINE
  5
37FAA
  8
0
 10
7253.566573656633409
 20
340.6802866862577162
 30
0.0
 11
7253.566573656633409
 21
340.733586686257695
 31
0.0
  0
ARC
  5
37FAB
  8
0
 10
7253.5910736566329433
 20
340.6802866862577162
 30
0.0
 40
0.0245
 50
179.9999999999967031
 51
270.0
  0
LINE
  5
37FAC
  8
0
 10
7253.6838964913331438
 20
340.6250676062576872
 30
0.0
 11
7253.6925968057221326
 21
340.6250676062576872
 31
0.0
  0
ARC
  5
37FAD
  8
0
 10
7253.6838964913331438
 20
340.6601069762576799
 30
0.0
 40
0.0350393700999977
 50
187.0824875019999922
 51
270.0
  0
ARC
  5
37FAE
  8
0
 10
7253.4693736566323423
 20
340.733586686257695
 30
0.0
 40
0.0972
 50
0.0
 51
90.0
  0
LINE
  5
37FAF
  8
0
 10
7254.2769642306329843
 20
341.0472167697076884
 30
0.0
 11
7254.2769642306329843
 21
340.8552866862577275
 31
0.0
  0
ARC
  5
37FB0
  8
0
 10
7254.2524642306334499
 20
341.0472167697076884
 30
0.0
 40
0.0245
 50
359.9999999999968168
 51
90.0
  0
ARC
  5
37FB1
  8
0
 10
7254.2524642306334499
 20
340.8552866862577275
 30
0.0
 40
0.0245
 50
270.0
 51
0.0000000000032569
  0
LINE
  5
37FB2
  8
0
 10
7254.0019642306306196
 20
340.6802866862577162
 30
0.0
 11
7254.0019642306306196
 21
340.733586686257695
 31
0.0
  0
ARC
  5
37FB3
  8
0
 10
7253.9774642306329042
 20
340.6802866862577162
 30
0.0
 40
0.0245
 50
270.0
 51
0.0000000000032569
  0
LINE
  5
37FB4
  8
0
 10
7253.8846413959327037
 20
340.6250676062576872
 30
0.0
 11
7253.875941081543715
 21
340.6250676062576872
 31
0.0
  0
ARC
  5
37FB5
  8
0
 10
7253.8846413959327037
 20
340.6601069762576799
 30
0.0
 40
0.0350393700999977
 50
270.0
 51
352.9175124979998941
  0
ARC
  5
37FB6
  8
0
 10
7254.0991642306316862
 20
340.733586686257695
 30
0.0
 40
0.0972
 50
90.0
 51
180.0
  0
ARC
  5
37FB7
  8
0
 10
7253.7842689436329238
 20
334.2338416171862718
 30
0.0
 40
6.8538852797692797
 50
86.0830215463674904
 51
93.9169784536325238
  0
ARC
  5
37FB8
  8
0
 10
7253.7842689436329238
 20
359.9173296898359808
 30
0.0
 40
0.4015748877000008
 50
5.6493816718633632
 51
174.3506183281365907
  0
ARC
  5
37FB9
  8
0
 10
7253.7842689436329238
 20
359.9173296898359808
 30
0.0
 40
1.1808945087344711
 50
289.8766608396874744
 51
250.1233391603124971
  0
LINE
  5
37FBA
  8
0
 10
7253.3827689436338915
 20
358.6090318883461805
 30
0.0
 11
7253.3827689436338915
 21
359.4719993384384225
 31
0.0
  0
ARC
  5
37FBB
  8
0
 10
7254.4448078730938505
 20
359.7973264293444799
 30
0.0
 40
1.0720996102142739
 50
171.4422780075539947
 51
180.8075862684086985
  0
ARC
  5
37FBC
  8
0
 10
7256.1795565855072709
 20
359.8104629658820954
 30
0.0
 40
2.806883965602279
 50
180.5766108238784113
 51
183.1740842308990125
  0
ARC
  5
37FBD
  8
0
 10
7249.2615287593753237
 20
359.4332472236750959
 30
0.0
 40
4.1214223737370563
 50
0.5387376345700887
 51
3.0849258396354671
  0
ARC
  5
37FBE
  8
0
 10
7253.7842689436329238
 20
359.9173296898359808
 30
0.0
 40
0.4092785293000086
 50
355.4434253344707031
 51
184.5565746655292116
  0
ARC
  5
37FBF
  8
0
 10
7253.7842689436329238
 20
359.9173296898359808
 30
0.0
 40
0.4330708660999916
 50
341.8207524178445738
 51
198.1792475821553126
  0
LINE
  5
37FC0
  8
0
 10
7254.1857689436319561
 20
358.6090318883461805
 30
0.0
 11
7254.1857689436319561
 21
359.4719993384384225
 31
0.0
  0
ARC
  5
37FC1
  8
0
 10
7253.1237300141710875
 20
359.7973264293444799
 30
0.0
 40
1.0720996102142739
 50
359.1924137315912162
 51
8.5577219924460088
  0
ARC
  5
37FC2
  8
0
 10
7251.3889813017576671
 20
359.8104629658820954
 30
0.0
 40
2.806883965602279
 50
356.8259157691010159
 51
359.4233891761215887
  0
ARC
  5
37FC3
  8
0
 10
7258.3070091278914333
 20
359.4332472236750959
 30
0.0
 40
4.1214223737370563
 50
176.9150741603644974
 51
179.4612623654298886
  0
ARC
  5
37FC4
  8
0
 10
7253.8097158577802475
 20
358.2138942782208915
 30
0.0
 40
0.6848720430915939
 50
92.129356101999818
 51
109.308845016626293
  0
ARC
  5
37FC5
  8
0
 10
7253.7349023623692119
 20
358.482076888173026
 30
0.0
 40
0.407437883785561
 50
111.8510541690751978
 51
124.4588664126850972
  0
ARC
  5
37FC6
  8
0
 10
7253.6835471726590185
 20
358.5569141948107017
 30
0.0
 40
0.316674576359909
 50
124.4588664126850972
 51
151.7548858780457977
  0
ARC
  5
37FC7
  8
0
 10
7253.5958874415673563
 20
358.6125866106153808
 30
0.0
 40
0.2132397478042632
 50
153.7863725782935092
 51
178.0677435284852095
  0
ARC
  5
37FC8
  8
0
 10
7253.798437509737596
 20
358.2859659677221771
 30
0.0
 40
0.5590989879517588
 50
91.4521327574858418
 51
112.5760642294550991
  0
ARC
  5
37FC9
  8
0
 10
7253.7399887838237191
 20
358.4368259325718213
 30
0.0
 40
0.397379892080217
 50
113.1451314539104942
 51
134.2840308554758906
  0
ARC
  5
37FCA
  8
0
 10
7253.6475289928903294
 20
358.5316258461193115
 30
0.0
 40
0.2649569463795371
 50
134.2840308554758906
 51
153.3235126656921921
  0
ARC
  5
37FCB
  8
0
 10
7253.6223920174297746
 20
358.5442555054182776
 30
0.0
 40
0.236825543476378
 50
153.3235126656921921
 51
168.7504944505409981
  0
ARC
  5
37FCC
  8
0
 10
7253.589265899372549
 20
358.5511006620471903
 30
0.0
 40
0.2030006684367426
 50
168.8214325427292124
 51
182.5561747181681085
  0
ARC
  5
37FCD
  8
0
 10
7253.7996133225378799
 20
358.2775970858858159
 30
0.0
 40
0.5391294261497666
 50
91.6309384098680084
 51
108.923545328113093
  0
ARC
  5
37FCE
  8
0
 10
7253.7791728202719241
 20
358.3515262864544866
 30
0.0
 40
0.4625902283562149
 50
109.4982538176100064
 51
131.8246677056625913
  0
ARC
  5
37FCF
  8
0
 10
7253.6402526085694262
 20
358.506765526695574
 30
0.0
 40
0.2542682493666524
 50
131.8246677056625913
 51
158.7472358015789951
  0
ARC
  5
37FD0
  8
0
 10
7253.6168636074107781
 20
358.5158623108595179
 30
0.0
 40
0.229172495595922
 50
158.7472358015789951
 51
173.1459304694832042
  0
ARC
  5
37FD1
  8
0
 10
7253.6091838520060264
 20
358.5179486474679038
 30
0.0
 40
0.2213016530735946
 50
173.4449438650740944
 51
180.4247073874180103
  0
ARC
  5
37FD2
  8
0
 10
7253.7969786716303133
 20
358.2429575776142769
 30
0.0
 40
0.5486143373873285
 50
91.3274879616716646
 51
112.7195281877294946
  0
ARC
  5
37FD3
  8
0
 10
7253.7411079105813769
 20
358.385413825952412
 30
0.0
 40
0.3956486761525954
 50
113.224064036935701
 51
134.8707106072652095
  0
ARC
  5
37FD4
  8
0
 10
7253.6405936123901483
 20
358.4863827770224134
 30
0.0
 40
0.2531781415819194
 50
134.8707106072652095
 51
151.1752528908814952
  0
ARC
  5
37FD5
  8
0
 10
7253.6408540374677614
 20
358.4862394606121256
 30
0.0
 40
0.2534753970514362
 50
151.1752528908814952
 51
167.4993828142804091
  0
ARC
  5
37FD6
  8
0
 10
7253.5786514537967378
 20
358.5006663833320886
 30
0.0
 40
0.1896257160651046
 50
167.6870666624213868
 51
182.4416931892210982
  0
ARC
  5
37FD7
  8
0
 10
7253.7982382253212563
 20
358.2256848410859789
 30
0.0
 40
0.540626478121108
 50
91.4806340535780151
 51
104.4971091905361931
  0
ARC
  5
37FD8
  8
0
 10
7253.7766300948860589
 20
358.3188539638570091
 30
0.0
 40
0.4450211344485418
 50
104.8064933169143984
 51
122.5362522275688946
  0
ARC
  5
37FD9
  8
0
 10
7253.7062847116631019
 20
358.4024125033914743
 30
0.0
 40
0.3370491430642257
 50
120.0937053225657962
 51
142.9904390098949136
  0
ARC
  5
37FDA
  8
0
 10
7253.6303098030020919
 20
358.4614689924088111
 30
0.0
 40
0.2408357816180299
 50
143.3296234661495987
 51
165.5389463905289062
  0
ARC
  5
37FDB
  8
0
 10
7253.7018327201722059
 20
358.4586194059255035
 30
0.0
 40
0.3111709503917588
 50
168.3206777517553121
 51
178.8400494259745983
  0
ARC
  5
37FDC
  8
0
 10
7253.8024667982872415
 20
358.1494256310010087
 30
0.0
 40
0.5889132611334278
 50
91.7707637773854259
 51
105.8937808817741058
  0
ARC
  5
37FDD
  8
0
 10
7253.7692954272406496
 20
358.2855791845140061
 30
0.0
 40
0.4489128522367094
 50
106.5808475832365048
 51
128.5349656159916947
  0
ARC
  5
37FDE
  8
0
 10
7253.6587234720964261
 20
358.4244131907144038
 30
0.0
 40
0.2714275330058097
 50
128.5349656159916947
 51
149.2210006088857028
  0
ARC
  5
37FDF
  8
0
 10
7253.6503369864849446
 20
358.429408374178081
 30
0.0
 40
0.261666129483445
 50
149.2210006088857028
 51
161.3502980122648864
  0
ARC
  5
37FE0
  8
0
 10
7253.5846044040499692
 20
358.4515933293511125
 30
0.0
 40
0.1922907402623824
 50
161.3502980122648864
 51
174.4497842011575131
  0
ARC
  5
37FE1
  8
0
 10
7253.6510943680796117
 20
358.445132254862699
 30
0.0
 40
0.2590938898913361
 50
174.4497842011575131
 51
180.8435860574255969
  0
ARC
  5
37FE2
  8
0
 10
7253.8137200264491184
 20
358.0762596590930116
 30
0.0
 40
0.6401588307500515
 50
92.636874607465856
 51
104.652590169463096
  0
ARC
  5
37FE3
  8
0
 10
7253.7734383160541256
 20
358.2761968870843816
 30
0.0
 40
0.4366887233565297
 50
106.1752697584466034
 51
123.9421836357119986
  0
ARC
  5
37FE4
  8
0
 10
7253.7568223242733438
 20
358.3008848088402942
 30
0.0
 40
0.4069299487931913
 50
123.9421836357119986
 51
139.7362379614299073
  0
ARC
  5
37FE5
  8
0
 10
7253.6104575520321305
 20
358.4248520978683814
 30
0.0
 40
0.2151213585222618
 50
139.7362379614299073
 51
159.3823263262123078
  0
ARC
  5
37FE6
  8
0
 10
7253.6105658204032807
 20
358.4193228929091788
 30
0.0
 40
0.2172304395996905
 50
158.0273024786785925
 51
172.8229137614308968
  0
ARC
  5
37FE7
  8
0
 10
7253.5760332447043766
 20
358.4210744301126965
 30
0.0
 40
0.1827677670013859
 50
172.0151611379920951
 51
180.7713013056556122
  0
ARC
  5
37FE8
  8
0
 10
7253.7981009243976587
 20
358.1380965288644234
 30
0.0
 40
0.5466243360253678
 50
91.4499879865973071
 51
112.2485898458544966
  0
ARC
  5
37FE9
  8
0
 10
7253.741012130704803
 20
358.287223584882895
 30
0.0
 40
0.3870014996751024
 50
112.7852562591668004
 51
137.5376361927048947
  0
ARC
  5
37FEA
  8
0
 10
7253.6240809811697545
 20
358.3942300243568866
 30
0.0
 40
0.2284982763001945
 50
137.5376361927048947
 51
156.6024193260886932
  0
ARC
  5
37FEB
  8
0
 10
7253.6561534399897937
 20
358.3803526399141219
 30
0.0
 40
0.2634442977292124
 50
156.6024193260886932
 51
167.5238744201982115
  0
ARC
  5
37FEC
  8
0
 10
7253.5616220272859209
 20
358.4012684273823766
 30
0.0
 40
0.1666266435877944
 50
167.5238744201982115
 51
178.3684222307691982
  0
ARC
  5
37FED
  8
0
 10
7253.9181982761328982
 20
358.3911116724983117
 30
0.0
 40
0.5233475161362429
 50
178.3684222307691982
 51
180.1013507892303096
  0
ARC
  5
37FEE
  8
0
 10
7253.8136356045979483
 20
358.0348811717040007
 30
0.0
 40
0.6311647901729535
 50
92.6668049853022069
 51
105.7118068137563967
  0
ARC
  5
37FEF
  8
0
 10
7253.7699880091076921
 20
358.2320270038051717
 30
0.0
 40
0.4297158554121939
 50
107.228007693155206
 51
122.413466599578598
  0
ARC
  5
37FF0
  8
0
 10
7253.739821491200928
 20
358.2795371438318739
 30
0.0
 40
0.3734376872833711
 50
122.413466599578598
 51
137.4581890539971027
  0
ARC
  5
37FF1
  8
0
 10
7253.679928269055381
 20
358.3344996292534006
 30
0.0
 40
0.2921476333844124
 50
137.4581890539971027
 51
157.5193144155250877
  0
ARC
  5
37FF2
  8
0
 10
7253.5666379908825547
 20
358.3813812626358981
 30
0.0
 40
0.1695402328047462
 50
157.5193144155250877
 51
174.0875586855079007
  0
ARC
  5
37FF3
  8
0
 10
7253.6024790274323095
 20
358.3715860884860263
 30
0.0
 40
0.2062883676999535
 50
172.4066384099465097
 51
182.9083161885816082
  0
ARC
  5
37FF4
  8
0
 10
7253.8088353974917482
 20
358.0278234538362767
 30
0.0
 40
0.6038393725310132
 50
92.3316510434174944
 51
109.0199504472746952
  0
ARC
  5
37FF5
  8
0
 10
7253.7532444785920234
 20
358.21671062931091
 30
0.0
 40
0.4072470313004544
 50
110.2865340223173973
 51
133.3170965198812894
  0
ARC
  5
37FF6
  8
0
 10
7253.6443938915017497
 20
358.3321510329245143
 30
0.0
 40
0.2485809130006331
 50
133.3170965198812894
 51
153.7599423587797958
  0
ARC
  5
37FF7
  8
0
 10
7253.6417939207813106
 20
358.3334326357567079
 30
0.0
 40
0.2456822316502668
 50
153.7599423587797958
 51
167.2878635479169134
  0
ARC
  5
37FF8
  8
0
 10
7253.6050379372372845
 20
358.3446890652141974
 30
0.0
 40
0.2073703737269947
 50
168.0870097868923949
 51
182.5508537012570116
  0
ARC
  5
37FF9
  8
0
 10
7253.8205823075468288
 20
357.9088625575449782
 30
0.0
 40
0.7070367617501427
 50
92.9440029281386302
 51
102.5252516676716965
  0
ARC
  5
37FFA
  8
0
 10
7253.778876542868602
 20
358.1615765167401833
 30
0.0
 40
0.4515125295777109
 50
104.3138891722220052
 51
121.2058079816736011
  0
ARC
  5
37FFB
  8
0
 10
7253.7142999607822276
 20
358.2681807381803196
 30
0.0
 40
0.3268746742418103
 50
121.2058079816736011
 51
140.0470327285156031
  0
ARC
  5
37FFC
  8
0
 10
7253.651370196447715
 20
358.3038933807209787
 30
0.0
 40
0.2560333187038799
 50
137.1288598829648038
 51
158.2910662978547123
  0
ARC
  5
37FFD
  8
0
 10
7253.6135780970398628
 20
358.3204304096685178
 30
0.0
 40
0.2148091849036724
 50
158.6605301689230885
 51
171.9654768005300127
  0
ARC
  5
37FFE
  8
0
 10
7253.603613376132671
 20
358.3221866233860169
 30
0.0
 40
0.2046971045999309
 50
172.0623823079027943
 51
182.9531021360714931
  0
ARC
  5
37FFF
  8
0
 10
7253.8044810239971412
 20
358.0033830824348229
 30
0.0
 40
0.5746893276142226
 50
92.0155338275890671
 51
110.2396375532275954
  0
ARC
  5
38000
  8
0
 10
7253.7513076099312457
 20
358.1671869618683104
 30
0.0
 40
0.402661533235815
 50
111.2040512804652934
 51
128.0533254476868876
  0
ARC
  5
38001
  8
0
 10
7253.6911051896540812
 20
358.2440948988307809
 30
0.0
 40
0.3049928986840457
 50
128.0533254476868876
 51
142.779446750647395
  0
ARC
  5
38002
  8
0
 10
7253.6481818015081444
 20
358.2766997991050744
 30
0.0
 40
0.251090238528707
 50
142.779446750647395
 51
155.2157061381126084
  0
ARC
  5
38003
  8
0
 10
7253.6164157618668469
 20
358.2913672044301734
 30
0.0
 40
0.2161014681391482
 50
155.2157061381126084
 51
166.8034073093928953
  0
ARC
  5
38004
  8
0
 10
7253.6099056148477757
 20
358.2928937371851816
 30
0.0
 40
0.2094147412529891
 50
166.8034073093928953
 51
181.8940760413846078
  0
ARC
  5
38005
  8
0
 10
7253.8080513431859799
 20
357.9671082373442914
 30
0.0
 40
0.5892438453816294
 50
92.3131363317644542
 51
110.6589582660935065
  0
ARC
  5
38006
  8
0
 10
7253.7434102582701598
 20
358.1629848542727927
 30
0.0
 40
0.3832539969653232
 50
111.9479984069692051
 51
137.1302360553241044
  0
ARC
  5
38007
  8
0
 10
7253.6308624597859307
 20
358.2674600958000042
 30
0.0
 40
0.2296894078309
 50
137.1302360553241044
 51
162.1590887294811978
  0
ARC
  5
38008
  8
0
 10
7253.628871364358929
 20
358.2681009352338037
 30
0.0
 40
0.2275977252119006
 50
162.1590887294811978
 51
173.3899021743806088
  0
ARC
  5
38009
  8
0
 10
7253.6528874290297608
 20
358.2675981791579147
 30
0.0
 40
0.2515222160258352
 50
173.9058965940440089
 51
179.0827987410654885
  0
ARC
  5
3800A
  8
0
 10
7253.801850774387276
 20
357.9652409283227144
 30
0.0
 40
0.559345165887571
 50
91.801268192502917
 51
109.1620100425679993
  0
ARC
  5
3800B
  8
0
 10
7253.7608419106154543
 20
358.1003112799792802
 30
0.0
 40
0.4183351943265638
 50
109.9288540678569035
 51
128.0797736483964968
  0
ARC
  5
3800C
  8
0
 10
7253.6765995857231246
 20
358.2078276442608171
 30
0.0
 40
0.281746256665706
 50
128.0797736483964968
 51
149.7440325441669984
  0
ARC
  5
3800D
  8
0
 10
7253.6266991723359752
 20
358.2369356704573988
 30
0.0
 40
0.2239766414228206
 50
149.7440325441669984
 51
167.6566975214846877
  0
ARC
  5
3800E
  8
0
 10
7253.6024044221021541
 20
358.2422520199718861
 30
0.0
 40
0.1991070121313633
 50
167.6566975214846877
 51
186.1902061590369897
  0
ARC
  5
3800F
  8
0
 10
7253.623042826479832
 20
358.2444904987797827
 30
0.0
 40
0.2198664563101918
 50
186.1902061590369897
 51
217.2697547003882903
  0
ARC
  5
38010
  8
0
 10
7253.7171391373185543
 20
358.3160942122581787
 30
0.0
 40
0.3381086124878678
 50
217.2697547003882903
 51
233.4071594484250909
  0
ARC
  5
38011
  8
0
 10
7253.7577504002274509
 20
358.3789206561771152
 30
0.0
 40
0.4127892761383225
 50
234.0797972048250131
 51
250.5408580288525116
  0
ARC
  5
38012
  8
0
 10
7253.7910845188107487
 20
358.4685105710926791
 30
0.0
 40
0.5083689683750507
 50
250.3622705986981885
 51
260.2768865748790859
  0
ARC
  5
38013
  8
0
 10
7253.793177003863093
 20
358.5604330096039121
 30
0.0
 40
0.5994755472717399
 50
261.563653134099809
 51
269.1485673725188121
  0
LINE
  5
38014
  8
0
 10
7253.4034514768927693
 20
358.2344208085444848
 30
0.0
 11
7253.3827689436338915
 21
358.6090318883461805
 31
0.0
  0
ARC
  5
38015
  8
0
 10
7253.7588220294856001
 20
358.2138942782208915
 30
0.0
 40
0.6848720430915939
 50
70.6911549833736501
 51
87.8706438980001963
  0
ARC
  5
38016
  8
0
 10
7253.8336355248966356
 20
358.482076888173026
 30
0.0
 40
0.407437883785561
 50
55.5411335873149099
 51
68.14894583092358
  0
ARC
  5
38017
  8
0
 10
7253.8849907146059195
 20
358.5569141948107017
 30
0.0
 40
0.316674576359909
 50
28.2451141219541704
 51
55.5411335873149099
  0
ARC
  5
38018
  8
0
 10
7253.9726504456975817
 20
358.6125866106153808
 30
0.0
 40
0.2132397478042632
 50
1.932256471514757
 51
26.2136274217065512
  0
ARC
  5
38019
  8
0
 10
7253.7701003775273421
 20
358.2859659677221771
 30
0.0
 40
0.5590989879517588
 50
67.4239357705448867
 51
88.5478672425141582
  0
ARC
  5
3801A
  8
0
 10
7253.8285491034430379
 20
358.4368259325718213
 30
0.0
 40
0.397379892080217
 50
45.715969144524081
 51
66.85486854608952
  0
ARC
  5
3801B
  8
0
 10
7253.9210088943764276
 20
358.5316258461193115
 30
0.0
 40
0.2649569463795371
 50
26.6764873343077902
 51
45.715969144524081
  0
ARC
  5
3801C
  8
0
 10
7253.9461458698369825
 20
358.5442555054182776
 30
0.0
 40
0.236825543476378
 50
11.2495055494589593
 51
26.6764873343077902
  0
ARC
  5
3801D
  8
0
 10
7253.9792719878932985
 20
358.5511006620471903
 30
0.0
 40
0.2030006684367426
 50
357.4438252818317778
 51
11.1785674572707503
  0
ARC
  5
3801E
  8
0
 10
7253.7689245647279677
 20
358.2775970858858159
 30
0.0
 40
0.5391294261497666
 50
71.076454671886907
 51
88.3690615901319774
  0
ARC
  5
3801F
  8
0
 10
7253.7893650669921044
 20
358.3515262864544866
 30
0.0
 40
0.4625902283562149
 50
48.1753322943373874
 51
70.5017461823899225
  0
ARC
  5
38020
  8
0
 10
7253.9282852786964213
 20
358.506765526695574
 30
0.0
 40
0.2542682493666524
 50
21.2527641984209588
 51
48.1753322943373874
  0
ARC
  5
38021
  8
0
 10
7253.9516742798550695
 20
358.5158623108595179
 30
0.0
 40
0.229172495595922
 50
6.854069530516786
 51
21.2527641984209588
  0
ARC
  5
38022
  8
0
 10
7253.9593540352580021
 20
358.5179486474679038
 30
0.0
 40
0.2213016530735946
 50
359.5752926125820181
 51
6.555056134925846
  0
ARC
  5
38023
  8
0
 10
7253.7715592156346247
 20
358.2429575776142769
 30
0.0
 40
0.5486143373873285
 50
67.2804718122705196
 51
88.6725120383283354
  0
ARC
  5
38024
  8
0
 10
7253.8274299766835611
 20
358.385413825952412
 30
0.0
 40
0.3956486761525954
 50
45.1292893927347905
 51
66.7759359630642564
  0
ARC
  5
38025
  8
0
 10
7253.9279442748747897
 20
358.4863827770224134
 30
0.0
 40
0.2531781415819194
 50
28.8247471091184799
 51
45.1292893927347905
  0
ARC
  5
38026
  8
0
 10
7253.9276838497989957
 20
358.4862394606121256
 30
0.0
 40
0.2534753970514362
 50
12.50061718571963
 51
28.8247471091184799
  0
ARC
  5
38027
  8
0
 10
7253.9898864334691098
 20
358.5006663833320886
 30
0.0
 40
0.1896257160651046
 50
357.5583068107789018
 51
12.3129333375786203
  0
ARC
  5
38028
  8
0
 10
7253.7702996619427722
 20
358.2256848410859789
 30
0.0
 40
0.540626478121108
 50
75.5028908094637501
 51
88.5193659464219706
  0
ARC
  5
38029
  8
0
 10
7253.7919077923797886
 20
358.3188539638570091
 30
0.0
 40
0.4450211344485418
 50
57.4637477724311125
 51
75.1935066830855732
  0
ARC
  5
3802A
  8
0
 10
7253.8622531756018361
 20
358.4024125033914743
 30
0.0
 40
0.3370491430642257
 50
37.0095609901050295
 51
59.9062946774341825
  0
ARC
  5
3802B
  8
0
 10
7253.9382280842646651
 20
358.4614689924088111
 30
0.0
 40
0.2408357816180299
 50
14.4610536094710298
 51
36.6703765338504013
  0
ARC
  5
3802C
  8
0
 10
7253.8667051670936416
 20
358.4586194059255035
 30
0.0
 40
0.3111709503917588
 50
1.1599505740253711
 51
11.6793222482446399
  0
ARC
  5
3802D
  8
0
 10
7253.766071088978606
 20
358.1494256310010087
 30
0.0
 40
0.5889132611334278
 50
74.1062191182259227
 51
88.2292362226145741
  0
ARC
  5
3802E
  8
0
 10
7253.7992424600251979
 20
358.2855791845140061
 30
0.0
 40
0.4489128522367094
 50
51.4650343840082698
 51
73.4191524167634242
  0
ARC
  5
3802F
  8
0
 10
7253.9098144151712404
 20
358.4244131907144038
 30
0.0
 40
0.2714275330058097
 50
30.7789993911143185
 51
51.4650343840082698
  0
ARC
  5
38030
  8
0
 10
7253.9182009007809029
 20
358.429408374178081
 30
0.0
 40
0.261666129483445
 50
18.6497019877350887
 51
30.7789993911143185
  0
ARC
  5
38031
  8
0
 10
7253.9839334832149689
 20
358.4515933293511125
 30
0.0
 40
0.1922907402623824
 50
5.5502157988424878
 51
18.6497019877350887
  0
ARC
  5
38032
  8
0
 10
7253.9174435191844168
 20
358.445132254862699
 30
0.0
 40
0.2590938898913361
 50
359.1564139425743178
 51
5.5502157988424878
  0
ARC
  5
38033
  8
0
 10
7253.7548178608158196
 20
358.0762596590930116
 30
0.0
 40
0.6401588307500515
 50
75.347409830536904
 51
87.3631253925341298
  0
ARC
  5
38034
  8
0
 10
7253.7950995712117219
 20
358.2761968870843816
 30
0.0
 40
0.4366887233565297
 50
56.0578163642879232
 51
73.8247302415534108
  0
ARC
  5
38035
  8
0
 10
7253.8117155629934132
 20
358.3008848088402942
 30
0.0
 40
0.4069299487931913
 50
40.263762038570043
 51
56.0578163642879232
  0
ARC
  5
38036
  8
0
 10
7253.9580803352337171
 20
358.4248520978683814
 30
0.0
 40
0.2151213585222618
 50
20.6176736737876993
 51
40.263762038570043
  0
ARC
  5
38037
  8
0
 10
7253.9579720668607479
 20
358.4193228929091788
 30
0.0
 40
0.2172304395996905
 50
7.1770862385690766
 51
21.9726975213214004
  0
ARC
  5
38038
  8
0
 10
7253.9925046425623805
 20
358.4210744301126965
 30
0.0
 40
0.1827677670013859
 50
359.2286986943443026
 51
7.9848388620079191
  0
ARC
  5
38039
  8
0
 10
7253.7704369628672794
 20
358.1380965288644234
 30
0.0
 40
0.5466243360253678
 50
67.7514101541454892
 51
88.5500120134026929
  0
ARC
  5
3803A
  8
0
 10
7253.8275257565601351
 20
358.287223584882895
 30
0.0
 40
0.3870014996751024
 50
42.4623638072950911
 51
67.2147437408331712
  0
ARC
  5
3803B
  8
0
 10
7253.944456906094274
 20
358.3942300243568866
 30
0.0
 40
0.2284982763001945
 50
23.3975806739112606
 51
42.4623638072950911
  0
ARC
  5
3803C
  8
0
 10
7253.9123844472751443
 20
358.3803526399141219
 30
0.0
 40
0.2634442977292124
 50
12.4761255798017903
 51
23.3975806739112606
  0
ARC
  5
3803D
  8
0
 10
7254.0069158599808361
 20
358.4012684273823766
 30
0.0
 40
0.1666266435877944
 50
1.631577769230786
 51
12.4761255798017903
  0
ARC
  5
3803E
  8
0
 10
7253.6503396111329494
 20
358.3911116724983117
 30
0.0
 40
0.5233475161362429
 50
359.8986492107698041
 51
1.631577769230786
  0
ARC
  5
3803F
  8
0
 10
7253.7549022826669898
 20
358.0348811717040007
 30
0.0
 40
0.6311647901729535
 50
74.2881931862435323
 51
87.3331950146978073
  0
ARC
  5
38040
  8
0
 10
7253.7985498781581555
 20
358.2320270038051717
 30
0.0
 40
0.4297158554121939
 50
57.5865334004214091
 51
72.771992306844794
  0
ARC
  5
38041
  8
0
 10
7253.8287163960631005
 20
358.2795371438318739
 30
0.0
 40
0.3734376872833711
 50
42.5418109460028973
 51
57.5865334004214091
  0
ARC
  5
38042
  8
0
 10
7253.8886096182113761
 20
358.3344996292534006
 30
0.0
 40
0.2921476333844124
 50
22.4806855844749087
 51
42.5418109460028973
  0
ARC
  5
38043
  8
0
 10
7254.0018998963832928
 20
358.3813812626358981
 30
0.0
 40
0.1695402328047462
 50
5.9124413144920842
 51
22.4806855844749087
  0
ARC
  5
38044
  8
0
 10
7253.966058859831719
 20
358.3715860884860263
 30
0.0
 40
0.2062883676999535
 50
357.0916838114184202
 51
7.5933615900534743
  0
ARC
  5
38045
  8
0
 10
7253.7597024897731899
 20
358.0278234538362767
 30
0.0
 40
0.6038393725310132
 50
70.9800495527252622
 51
87.6683489565825056
  0
ARC
  5
38046
  8
0
 10
7253.8152934086720052
 20
358.21671062931091
 30
0.0
 40
0.4072470313004544
 50
46.6829034801187035
 51
69.7134659776825742
  0
ARC
  5
38047
  8
0
 10
7253.9241439957640978
 20
358.3321510329245143
 30
0.0
 40
0.2485809130006331
 50
26.2400576412201403
 51
46.6829034801187035
  0
ARC
  5
38048
  8
0
 10
7253.9267439664836274
 20
358.3334326357567079
 30
0.0
 40
0.2456822316502668
 50
12.7121364520831204
 51
26.2400576412201403
  0
ARC
  5
38049
  8
0
 10
7253.963499950028563
 20
358.3446890652141974
 30
0.0
 40
0.2073703737269947
 50
357.4491462987396062
 51
11.9129902131076104
  0
ARC
  5
3804A
  8
0
 10
7253.7479555797181092
 20
357.9088625575449782
 30
0.0
 40
0.7070367617501427
 50
77.4747483323283035
 51
87.055997071861384
  0
ARC
  5
3804B
  8
0
 10
7253.7896613443981551
 20
358.1615765167401833
 30
0.0
 40
0.4515125295777109
 50
58.7941920183263775
 51
75.6861108277779664
  0
ARC
  5
3804C
  8
0
 10
7253.854237926481801
 20
358.2681807381803196
 30
0.0
 40
0.3268746742418103
 50
39.9529672714844111
 51
58.7941920183263775
  0
ARC
  5
3804D
  8
0
 10
7253.917167690817223
 20
358.3038933807209787
 30
0.0
 40
0.2560333187038799
 50
21.7089337021452806
 51
42.8711401170351891
  0
ARC
  5
3804E
  8
0
 10
7253.9549597902268943
 20
358.3204304096685178
 30
0.0
 40
0.2148091849036724
 50
8.0345231994699695
 51
21.3394698310769115
  0
ARC
  5
3804F
  8
0
 10
7253.9649245111340861
 20
358.3221866233860169
 30
0.0
 40
0.2046971045999309
 50
357.0468978639285069
 51
7.937617692097179
  0
ARC
  5
38050
  8
0
 10
7253.7640568632677969
 20
358.0033830824348229
 30
0.0
 40
0.5746893276142226
 50
69.7603624467724188
 51
87.9844661724109329
  0
ARC
  5
38051
  8
0
 10
7253.8172302773327829
 20
358.1671869618683104
 30
0.0
 40
0.402661533235815
 50
51.9466745523131266
 51
68.795948719534664
  0
ARC
  5
38052
  8
0
 10
7253.8774326976117663
 20
358.2440948988307809
 30
0.0
 40
0.3049928986840457
 50
37.2205532493525766
 51
51.9466745523131266
  0
ARC
  5
38053
  8
0
 10
7253.9203560857586126
 20
358.2766997991050744
 30
0.0
 40
0.251090238528707
 50
24.7842938618873987
 51
37.2205532493525766
  0
ARC
  5
38054
  8
0
 10
7253.9521221253971817
 20
358.2913672044301734
 30
0.0
 40
0.2161014681391482
 50
13.1965926906070905
 51
24.7842938618873987
  0
ARC
  5
38055
  8
0
 10
7253.9586322724162528
 20
358.2928937371851816
 30
0.0
 40
0.2094147412529891
 50
358.1059239586153922
 51
13.1965926906070905
  0
ARC
  5
38056
  8
0
 10
7253.7604865440798676
 20
357.9671082373442914
 30
0.0
 40
0.5892438453816294
 50
69.3410417339064935
 51
87.6868636682355316
  0
ARC
  5
38057
  8
0
 10
7253.8251276289956877
 20
358.1629848542727927
 30
0.0
 40
0.3832539969653232
 50
42.8697639446759169
 51
68.0520015930307238
  0
ARC
  5
38058
  8
0
 10
7253.9376754274790073
 20
358.2674600958000042
 30
0.0
 40
0.2296894078309
 50
17.8409112705187702
 51
42.8697639446759169
  0
ARC
  5
38059
  8
0
 10
7253.9396665229069185
 20
358.2681009352338037
 30
0.0
 40
0.2275977252119006
 50
6.6100978256193468
 51
17.8409112705187702
  0
ARC
  5
3805A
  8
0
 10
7253.9156504582360867
 20
358.2675981791579147
 30
0.0
 40
0.2515222160258352
 50
0.9172012589345412
 51
6.0941034059559618
  0
ARC
  5
3805B
  8
0
 10
7253.766687112877662
 20
357.9652409283227144
 30
0.0
 40
0.559345165887571
 50
70.837989957431958
 51
88.1987318074970688
  0
ARC
  5
3805C
  8
0
 10
7253.8076959766503933
 20
358.1003112799792802
 30
0.0
 40
0.4183351943265638
 50
51.9202263516034819
 51
70.0711459321431249
  0
ARC
  5
3805D
  8
0
 10
7253.8919383015418134
 20
358.2078276442608171
 30
0.0
 40
0.281746256665706
 50
30.2559674558330087
 51
51.9202263516034819
  0
ARC
  5
3805E
  8
0
 10
7253.9418387149289629
 20
358.2369356704573988
 30
0.0
 40
0.2239766414228206
 50
12.3433024785152394
 51
30.2559674558330087
  0
ARC
  5
3805F
  8
0
 10
7253.9661334651618745
 20
358.2422520199718861
 30
0.0
 40
0.1991070121313633
 50
353.8097938409629251
 51
12.3433024785152394
  0
ARC
  5
38060
  8
0
 10
7253.9574416756449864
 20
358.2319011973398801
 30
0.0
 40
0.206936813532635
 50
323.5373987370704754
 51
356.9199991264345044
  0
ARC
  5
38061
  8
0
 10
7253.8844903927483756
 20
358.2830982570774836
 30
0.0
 40
0.2960418477085759
 50
305.2451936393936194
 51
323.9592840762325068
  0
ARC
  5
38062
  8
0
 10
7253.8204213778062694
 20
358.3738987004252863
 30
0.0
 40
0.4071704001796822
 50
288.4170364888867084
 51
305.234738804007975
  0
ARC
  5
38063
  8
0
 10
7253.7732240580789949
 20
358.5283562858389246
 30
0.0
 40
0.5686422943511016
 50
279.1236199784311225
 51
288.0121846084405774
  0
ARC
  5
38064
  8
0
 10
7253.7678869099163421
 20
358.71616502505168
 30
0.0
 40
0.7553190482479966
 50
271.2427794568986883
 51
277.264031422276787
  0
LINE
  5
38065
  8
0
 10
7254.1650864103730783
 20
358.2344208085444848
 30
0.0
 11
7254.1857689436319561
 21
358.6090318883461805
 31
0.0
  0
ARC
  5
38066
  8
0
 10
7253.6261939239411731
 20
358.5956670158954012
 30
0.0
 40
0.243051772881418
 50
136.8090076269874942
 51
178.7070443204698051
  0
ARC
  5
38067
  8
0
 10
7253.7212477078310258
 20
358.5126751806070047
 30
0.0
 40
0.369183582610751
 50
117.1178008855358001
 51
137.5152480915313049
  0
LINE
  5
38068
  8
0
 10
7253.5529659081330465
 20
358.8412748664860032
 30
0.0
 11
7253.554019491132749
 21
358.8071004082859758
 31
0.0
  0
ARC
  5
38069
  8
0
 10
7253.7142634388801525
 20
358.4898476888747041
 30
0.0
 40
0.3554256754420535
 50
116.7982830799338956
 51
140.3163848466608101
  0
ARC
  5
3806A
  8
0
 10
7253.6308380388909427
 20
358.559068499090813
 30
0.0
 40
0.2470221795107756
 50
140.3163848466608101
 51
164.8096185604198922
  0
ARC
  5
3806B
  8
0
 10
7253.6139017825944393
 20
358.5651806733887952
 30
0.0
 40
0.2290807698886152
 50
165.1749988599700032
 51
178.6264853525389924
  0
ARC
  5
3806C
  8
0
 10
7253.7894126529554342
 20
357.9414599432296882
 30
0.0
 40
0.5465585576889362
 50
90.5392234401473956
 51
107.3891655698719063
  0
ARC
  5
3806D
  8
0
 10
7253.7525071934960579
 20
358.0756804751076174
 30
0.0
 40
0.4074721436712572
 50
108.0774014222746047
 51
122.2641710992814978
  0
ARC
  5
3806E
  8
0
 10
7253.7032509849013877
 20
358.1537040731664092
 30
0.0
 40
0.3152015853155582
 50
122.2641710992814978
 51
138.8012910811696088
  0
ARC
  5
3806F
  8
0
 10
7253.637313595660089
 20
358.2114252694477727
 30
0.0
 40
0.2275689669581768
 50
138.8012910811671929
 51
160.5324814070687012
  0
ARC
  5
38070
  8
0
 10
7253.5977609948749887
 20
358.2254063505722002
 30
0.0
 40
0.1856180568579965
 50
160.5324814070687012
 51
179.4039256380602012
  0
ARC
  5
38071
  8
0
 10
7253.5811388978781906
 20
358.2255792841357902
 30
0.0
 40
0.1689950603006593
 50
179.4039256380602012
 51
206.5717173131922095
  0
ARC
  5
38072
  8
0
 10
7253.6830940536801791
 20
358.2765716904947908
 30
0.0
 40
0.2829910220735712
 50
206.5717173131922095
 51
232.3113530539343969
  0
ARC
  5
38073
  8
0
 10
7253.7496916935933768
 20
358.3627742638981886
 30
0.0
 40
0.3919227865111439
 50
232.3113530539343969
 51
247.3948523186344062
  0
ARC
  5
38074
  8
0
 10
7253.7755493451468283
 20
358.4248775546992078
 30
0.0
 40
0.4591941539134835
 50
247.3948523186344062
 51
256.9320034171341263
  0
ARC
  5
38075
  8
0
 10
7253.7991661064515938
 20
358.5259147265517186
 30
0.0
 40
0.5629546505050528
 50
256.9157284939855117
 51
268.485875387653607
  0
ARC
  5
38076
  8
0
 10
7253.7852178372831986
 20
357.9769490383919219
 30
0.0
 40
0.5110461389847618
 50
75.847897830276267
 51
90.106384978740607
  0
ARC
  5
38077
  8
0
 10
7253.803758203356665
 20
358.0504337325111237
 30
0.0
 40
0.435258638005264
 50
56.9832651941257708
 51
75.8493313349713816
  0
ARC
  5
38078
  8
0
 10
7253.889343332520184
 20
358.1821390410817116
 30
0.0
 40
0.2781882632067854
 50
27.5217750182418683
 51
56.9832651941257708
  0
ARC
  5
38079
  8
0
 10
7253.960507714537016
 20
358.2236650351468938
 30
0.0
 40
0.1959282842424045
 50
2.1127789008921778
 51
26.3687313908467011
  0
ARC
  5
3807A
  8
0
 10
7253.9635589165272904
 20
358.2253661153201847
 30
0.0
 40
0.1928229779236597
 50
335.6873202981275881
 51
1.641079771772868
  0
ARC
  5
3807B
  8
0
 10
7253.8003263081482146
 20
358.3919050748510244
 30
0.0
 40
0.429048198279639
 50
267.8581125021905791
 51
275.2704292178751189
  0
ARC
  5
3807C
  8
0
 10
7253.7866410979277134
 20
358.4657277249353911
 30
0.0
 40
0.5038623357065632
 50
276.0489618322574188
 51
283.5945735056503167
  0
ARC
  5
3807D
  8
0
 10
7253.7998544216316077
 20
358.414277466941428
 30
0.0
 40
0.4507483769156952
 50
283.4992716546666998
 51
294.8685871323625065
  0
ARC
  5
3807E
  8
0
 10
7253.837368075051927
 20
358.3351607035489792
 30
0.0
 40
0.3631926067445728
 50
294.7481328885081098
 51
309.1812005321467041
  0
ARC
  5
3807F
  8
0
 10
7253.9065863883779457
 20
358.2539554269736186
 30
0.0
 40
0.2565265641994098
 50
308.6560388811952862
 51
335.1072011871025893
  0
ARC
  5
38080
  8
0
 10
7253.611972715734737
 20
358.2333131066259853
 30
0.0
 40
0.2005485674017924
 50
145.7160569811071866
 51
187.678394394706288
  0
ARC
  5
38081
  8
0
 10
7253.6946139658475659
 20
358.1802419089427758
 30
0.0
 40
0.298738336525044
 50
123.2634088868100974
 51
146.2340874720860029
  0
ARC
  5
38082
  8
0
 10
7253.7714823734731908
 20
358.0630579215189755
 30
0.0
 40
0.4388841141978925
 50
99.0787377333842443
 51
123.2634088868100974
  0
ARC
  5
38083
  8
0
 10
7253.7958992043813851
 20
357.9687306339724842
 30
0.0
 40
0.5359619106588612
 50
83.850044045506678
 51
100.0651660806684049
  0
ARC
  5
38084
  8
0
 10
7253.7843256883998038
 20
357.9603392302232123
 30
0.0
 40
0.5456480273906255
 50
64.9684203595244867
 51
82.7360880125997653
  0
ARC
  5
38085
  8
0
 10
7253.860022575653602
 20
358.1519124146265085
 30
0.0
 40
0.3402683240280153
 50
38.0133818860028967
 51
62.8680359793262227
  0
ARC
  5
38086
  8
0
 10
7253.4469420492341669
 20
360.0406871124062036
 30
0.0
 40
0.0502623979051372
 50
125.3394329274110959
 51
155.0523184902133096
  0
ARC
  5
38087
  8
0
 10
7253.5651913493893517
 20
360.1989893173096107
 30
0.0
 40
0.0528985037140309
 50
135.8821292946138897
 51
162.309010303652002
  0
ARC
  5
38088
  8
0
 10
7253.7938027938716914
 20
360.2696064825486246
 30
0.0
 40
0.0577371941112508
 50
54.4554187735782804
 51
77.7437513080257503
  0
ARC
  5
38089
  8
0
 10
7253.9835481260952292
 20
360.2080308577168921
 30
0.0
 40
0.0577204670615848
 50
66.4311719034585337
 51
89.618172610168557
  0
ARC
  5
3808A
  8
0
 10
7254.1275096489771386
 20
360.0160104771068745
 30
0.0
 40
0.0524106823991185
 50
341.8412928266856738
 51
9.7353129858641214
  0
ENDSEC
  0
EOF
