  0
SECTION
  2
HEADER
  9
$ACADVER
  1
AC1009
  9
$INSBASE
 10
7309.7051169189908251
 20
118.2614270987439937
 30
0.0
  9
$EXTMIN
 10
7306.4600585795533334
 20
112.2244455295291061
 30
0.0
  9
$EXTMAX
 10
7312.9501752584283167
 20
118.2670650761571949
 30
0.0
  9
$LIMMIN
 10
0.0
 20
0.0
  9
$LIMMAX
 10
11.6929133858000007
 20
8.2677165353999982
  9
$ORTHOMODE
 70
     0
  9
$REGENMODE
 70
     1
  9
$FILLMODE
 70
     1
  9
$QTEXTMODE
 70
     0
  9
$MIRRTEXT
 70
     0
  9
$DRAGMODE
 70
     2
  9
$LTSCALE
 40
0.6431102362
  9
$OSMODE
 70
  4095
  9
$ATTMODE
 70
     1
  9
$TEXTSIZE
 40
0.2
  9
$TRACEWID
 40
0.05
  9
$TEXTSTYLE
  7
STANDARD
  9
$CLAYER
  8
0
  9
$CELTYPE
  6
BYLAYER
  9
$CECOLOR
 62
   256
  9
$DIMSCALE
 40
1.0
  9
$DIMASZ
 40
0.1875
  9
$DIMEXO
 40
0.0625
  9
$DIMDLI
 40
0.4443307087
  9
$DIMRND
 40
0.0
  9
$DIMDLE
 40
0.0
  9
$DIMEXE
 40
0.125
  9
$DIMTP
 40
0.01
  9
$DIMTM
 40
0.01
  9
$DIMTXT
 40
2.0
  9
$DIMCEN
 40
0.1052362205
  9
$DIMTSZ
 40
0.0
  9
$DIMTOL
 70
     1
  9
$DIMLIM
 70
     0
  9
$DIMTIH
 70
     1
  9
$DIMTOH
 70
     1
  9
$DIMSE1
 70
     0
  9
$DIMSE2
 70
     0
  9
$DIMTAD
 70
     0
  9
$DIMZIN
 70
     0
  9
$DIMBLK
  1

  9
$DIMASO
 70
     1
  9
$DIMSHO
 70
     1
  9
$DIMPOST
  1
\X
  9
$DIMAPOST
  1

  9
$DIMALT
 70
     1
  9
$DIMALTD
 70
     2
  9
$DIMALTF
 40
25.3999999999999986
  9
$DIMLFAC
 40
1.0
  9
$DIMTOFL
 70
     0
  9
$DIMTVP
 40
0.0
  9
$DIMTIX
 70
     0
  9
$DIMSOXD
 70
     0
  9
$DIMSAH
 70
     0
  9
$DIMBLK1
  1

  9
$DIMBLK2
  1

  9
$DIMSTYLE
  2
STANDARD
  9
$DIMCLRD
 70
     0
  9
$DIMCLRE
 70
     0
  9
$DIMCLRT
 70
     0
  9
$DIMTFAC
 40
1.0
  9
$DIMGAP
 40
0.09
  9
$LUNITS
 70
     2
  9
$LUPREC
 70
     4
  9
$SKETCHINC
 40
0.1
  9
$FILLETRAD
 40
0.0
  9
$AUNITS
 70
     0
  9
$AUPREC
 70
     0
  9
$MENU
  1
.
  9
$ELEVATION
 40
0.0
  9
$PELEVATION
 40
0.0
  9
$THICKNESS
 40
0.0
  9
$LIMCHECK
 70
     0
  9
$BLIPMODE
 70
     0
  9
$CHAMFERA
 40
0.0
  9
$CHAMFERB
 40
0.0
  9
$SKPOLY
 70
     0
  9
$TDCREATE
 40
2458060.468368056230247
  9
$TDUPDATE
 40
2460532.6474189818836749
  9
$TDINDWG
 40
0.9676922454
  9
$TDUSRTIMER
 40
0.9676922454
  9
$USRTIMER
 70
     1
  9
$ANGBASE
 50
0.0
  9
$ANGDIR
 70
     0
  9
$PDMODE
 70
     0
  9
$PDSIZE
 40
0.3125
  9
$PLINEWID
 40
0.0
  9
$COORDS
 70
     0
  9
$SPLFRAME
 70
     0
  9
$SPLINETYPE
 70
     6
  9
$SPLINESEGS
 70
     8
  9
$ATTDIA
 70
     1
  9
$ATTREQ
 70
     1
  9
$HANDLING
 70
     1
  9
$HANDSEED
  5
341CB
  9
$SURFTAB1
 70
     6
  9
$SURFTAB2
 70
     6
  9
$SURFTYPE
 70
     6
  9
$SURFU
 70
     6
  9
$SURFV
 70
     6
  9
$UCSNAME
  2

  9
$UCSORG
 10
0.0
 20
0.0
 30
0.0
  9
$UCSXDIR
 10
1.0
 20
0.0
 30
0.0
  9
$UCSYDIR
 10
0.0
 20
1.0
 30
0.0
  9
$PUCSNAME
  2

  9
$PUCSORG
 10
0.0
 20
0.0
 30
0.0
  9
$PUCSXDIR
 10
1.0
 20
0.0
 30
0.0
  9
$PUCSYDIR
 10
0.0
 20
1.0
 30
0.0
  9
$USERI1
 70
     0
  9
$USERI2
 70
     0
  9
$USERI3
 70
     0
  9
$USERI4
 70
     0
  9
$USERI5
 70
     0
  9
$USERR1
 40
0.0
  9
$USERR2
 40
0.0
  9
$USERR3
 40
0.0
  9
$USERR4
 40
0.0
  9
$USERR5
 40
0.0
  9
$WORLDVIEW
 70
     1
  9
$SHADEDGE
 70
     3
  9
$SHADEDIF
 70
    70
  9
$TILEMODE
 70
     1
  9
$MAXACTVP
 70
    64
  9
$PLIMCHECK
 70
     0
  9
$PEXTMIN
 10
1.0000000000000000E+20
 20
1.0000000000000000E+20
 30
1.0000000000000000E+20
  9
$PEXTMAX
 10
-1.0000000000000000E+20
 20
-1.0000000000000000E+20
 30
-1.0000000000000000E+20
  9
$PLIMMIN
 10
0.0
 20
0.0
  9
$PLIMMAX
 10
12.0
 20
9.0
  9
$UNITMODE
 70
     0
  9
$VISRETAIN
 70
     1
  9
$PLINEGEN
 70
     0
  9
$PSLTSCALE
 70
     1
  0
ENDSEC
  0
SECTION
  2
TABLES
  0
TABLE
  2
VPORT
 70
     1
  0
VPORT
  2
*ACTIVE
 70
     0
 10
0.0
 20
0.0
 11
1.0
 21
1.0
 12
3398.3397604736778703
 22
-17.33384979969588
 13
0.0
 23
0.0
 14
1.0
 24
1.0
 15
0.0
 25
0.0
 16
0.0
 26
0.0
 36
60.4960186965801583
 17
3911.3653564453120453
 27
132.5796051025390057
 37
0.0
 40
6.0849249343524381
 41
2.218457943925233
 42
50.0
 43
0.0
 44
0.0
 50
0.0
 51
0.0
 71
     0
 72
   100
 73
     1
 74
     1
 75
     0
 76
     0
 77
     0
 78
     0
  0
ENDTAB
  0
TABLE
  2
LTYPE
 70
     2
  0
LTYPE
  2
CONTINUOUS
 70
     0
  3
Solid line
 72
    65
 73
     0
 40
0.0
  0
LTYPE
  2
PHANTOM2
 70
     0
  3
___ _ _ ___ _ _ ___ _ _ ___ _ _
 72
    65
 73
     6
 40
1.25
 49
0.625
 49
-0.125
 49
0.125
 49
-0.125
 49
0.125
 49
-0.125
  0
ENDTAB
  0
TABLE
  2
LAYER
 70
     2
  0
LAYER
  2
0
 70
     0
 62
   255
  6
CONTINUOUS
  0
LAYER
  2
DEFPOINTS
 70
     0
 62
     7
  6
CONTINUOUS
  0
ENDTAB
  0
TABLE
  2
STYLE
 70
     1
  0
STYLE
  2
STANDARD
 70
     0
 40
0.0
 41
0.8
 50
0.0
 71
     0
 42
0.2
  3
txt
  4

  0
ENDTAB
  0
TABLE
  2
VIEW
 70
     0
  0
ENDTAB
  0
TABLE
  2
UCS
 70
     0
  0
ENDTAB
  0
TABLE
  2
APPID
 70
    11
  0
APPID
  2
ACAD
 70
     0
  0
APPID
  2
ACAD_MLEADERVER
 70
     0
  0
APPID
  2
ACAD_EXEMPT_FROM_CAD_STANDARDS
 70
     0
  0
APPID
  2
ACAD_NAV_VCDISPLAY
 70
     0
  0
APPID
  2
ACAECLAYERSTANDARD
 70
     0
  0
APPID
  2
ACCMTRANSPARENCY
 70
     0
  0
APPID
  2
ACAD_DSTYLE_DIMJAG
 70
     0
  0
APPID
  2
ACAD_DSTYLE_DIMTALN
 70
     0
  0
APPID
  2
ACDBATTR
 70
     0
  0
APPID
  2
ACADANNOTATIVE
 70
     0
  0
APPID
  2
DCO15
 70
     0
  0
ENDTAB
  0
TABLE
  2
DIMSTYLE
 70
     1
  0
DIMSTYLE
  2
STANDARD
 70
     0
  3

  4

  5

  6

  7

 40
1.0
 41
0.1875
 42
0.0625
 43
0.38
 44
0.125
 45
0.0
 46
0.0
 47
0.01
 48
0.01
140
0.15625
141
0.09
142
0.0
143
25.3999999999999986
144
1.0
145
0.0
146
1.0
147
0.09
 71
     1
 72
     0
 73
     1
 74
     1
 75
     0
 76
     0
 77
     0
 78
     4
170
     0
171
     2
172
     0
173
     0
174
     0
175
     0
176
     0
177
     0
178
     0
  0
ENDTAB
  0
ENDSEC
  0
SECTION
  2
BLOCKS
  0
BLOCK
  8
0
  2
$MODEL_SPACE
 70
     0
 10
0.0
 20
0.0
 30
0.0
  3
$MODEL_SPACE
  1

  0
ENDBLK
  5
21
  8
0
  0
BLOCK
 67
     1
  8
0
  2
$PAPER_SPACE
 70
     0
 10
0.0
 20
0.0
 30
0.0
  3
$PAPER_SPACE
  1

  0
ENDBLK
  5
1D
 67
     1
  8
0
  0
BLOCK
  8
0
  2
_FILLED
 70
     0
 10
0.0
 20
0.0
 30
0.0
  3
_FILLED
  1

  0
SOLID
  5
257AF
  8
0
  6
BYBLOCK
 62
     0
 10
0.0
 20
0.0
 30
0.0
 11
-1.0
 21
0.1666666667
 31
0.0
 12
-1.0
 22
-0.1666666667
 32
0.0
 13
-1.0
 23
-0.1666666667
 33
0.0
  0
ENDBLK
  5
257B0
  8
0
  6
BYBLOCK
 62
     0
  0
ENDSEC
  0
SECTION
  2
ENTITIES
  0
ATTDEF
  5
256E4
  8
DEFPOINTS
 10
7309.6945174670263441
 20
118.2660650761572043
 30
0.0
 40
0.001
  1
K-TLS35327-4
  3

  2
MODELNUMBER
 70
     0
1001
ACDBATTR
1070
     0
1070
     1
  0
ATTDEF
  5
256E5
  8
DEFPOINTS
 10
7309.6943916573682145
 20
118.2643982357780033
 30
0.0
 40
0.001
  1
ELATE/ RITE TEMP
  3

  2
TRADENAME
 70
     0
1001
ACDBATTR
1070
     0
1070
     1
  0
ATTDEF
  5
256E6
  8
DEFPOINTS
 10
7309.6945174670263441
 20
118.262731742823803
 30
0.0
 40
0.001
  1
BATH AND SHOWER TRIM
  3

  2
PRODUCT
 70
     0
1001
ACDBATTR
1070
     0
1070
     1
  0
LINE
  5
33D34
  8
0
 10
7309.2958383896902887
 20
114.6295567021374069
 30
0.0
 11
7309.2958383896902887
 21
115.0102087652141023
 31
0.0
  0
LINE
  5
33D35
  8
0
 10
7309.3036169189899738
 20
113.4593967552496991
 30
0.0
 11
7309.3036169189899738
 21
114.3351908281218954
 31
0.0
  0
LINE
  5
33D36
  8
0
 10
7309.3036169189899738
 20
115.370114346108096
 30
0.0
 11
7309.3036169189899738
 21
117.8899264926733963
 31
0.0
  0
LINE
  5
33D37
  8
0
 10
7306.4797585795522537
 20
118.2614270987439937
 30
0.0
 11
7312.9304752584293965
 21
118.2614270987439937
 31
0.0
  0
LINE
  5
33D38
  8
0
 10
7309.2720460528908006
 20
117.9070963900440034
 30
0.0
 11
7310.1381877850890305
 21
117.9070963900440034
 31
0.0
  0
ARC
  5
33D39
  8
0
 10
7309.2720460528908006
 20
119.4104151969441006
 30
0.0
 40
1.5033188069000629
 50
242.0642988304340122
 51
270.0
  0
ARC
  5
33D3A
  8
0
 10
7308.6046400638706473
 20
118.1518016777121005
 30
0.0
 40
0.0787
 50
181.0000000188296099
 51
242.0642988304340122
  0
LINE
  5
33D3B
  8
0
 10
7308.5259520502622763
 20
118.1504281732997015
 30
0.0
 11
7308.5242242074518799
 21
118.2494211603441983
 31
0.0
  0
ARC
  5
33D3C
  8
0
 10
7308.5360224102560096
 20
118.2496270987439999
 30
0.0
 40
0.0118
 50
90.0
 51
181.0000000188458955
  0
LINE
  5
33D3D
  8
0
 10
7308.5677706563610627
 20
118.082272282561803
 30
0.0
 11
7310.8424631816187684
 21
118.082272282561803
 31
0.0
  0
ARC
  5
33D3E
  8
0
 10
7405.2688859278596283
 20
113.9971070672542055
 30
0.0
 40
96.0441924273595191
 50
177.6679562765559979
 51
177.6770772683508994
  0
ARC
  5
33D3F
  8
0
 10
7309.3051638432689288
 20
117.904915643945202
 30
0.0
 40
0.0009696503113352
 50
112.1208566161331959
 51
162.7439817004326983
  0
ARC
  5
33D40
  8
0
 10
7308.9934412078500827
 20
118.5069782164396059
 30
0.0
 40
0.6770096053942787
 50
297.3807296825646063
 51
297.6157985196579148
  0
ARC
  5
33D41
  8
0
 10
12910.9006604640799196
 20
169.8301698907552861
 30
0.0
 40
5602.5960467367949605
 50
180.5372332894667977
 51
180.5674706864814141
  0
LINE
  5
33D42
  8
0
 10
7308.5991005088599195
 20
114.3221617713846996
 30
0.0
 11
7309.3036169189899738
 21
114.3221617713846996
 31
0.0
  0
LINE
  5
33D43
  8
0
 10
7308.6066917221905896
 20
114.3024767319846973
 30
0.0
 11
7309.3036169189881548
 21
114.3024767319841004
 31
0.0
  0
ARC
  5
33D44
  8
0
 10
7308.599100508860829
 20
114.3418617713857941
 30
0.0
 40
0.0197
 50
180.5674706843840909
 51
269.9999999987492743
  0
LINE
  5
33D45
  8
0
 10
7308.5815366611614081
 20
114.2664589167962959
 30
0.0
 11
7308.5874570445557765
 21
113.9272803795551994
 31
0.0
  0
LINE
  5
33D46
  8
0
 10
7308.6228516529636181
 20
113.8924981947436947
 30
0.0
 11
7309.3036169189917928
 21
113.8924981947436947
 31
0.0
  0
ARC
  5
33D47
  8
0
 10
7308.6228516529636181
 20
113.9278981947437046
 30
0.0
 40
0.0354
 50
181.0000000009432881
 51
270.0
  0
ARC
  5
33D48
  8
0
 10
7308.6169312695683402
 20
114.2670767319848011
 30
0.0
 40
0.0354
 50
89.9999999999478888
 51
181.0000000009596022
  0
LINE
  5
33D49
  8
0
 10
7308.6066917221905896
 20
114.3221617713846996
 30
0.0
 11
7308.6066917221905896
 21
114.3024767319846973
 31
0.0
  0
LINE
  5
33D4A
  8
0
 10
7306.4748747851408552
 20
117.3927353312607949
 30
0.0
 11
7306.4600615799581647
 21
118.2413832863365997
 31
0.0
  0
LINE
  5
33D4B
  8
0
 10
7306.5378651899345641
 20
117.3308348328682058
 30
0.0
 11
7309.3036169189899738
 21
117.3308348328682058
 31
0.0
  0
ARC
  5
33D4C
  8
0
 10
7306.4797585795522537
 20
118.2417270987440929
 30
0.0
 40
0.0197
 50
90.0
 51
181.0000000017247999
  0
ARC
  5
33D4D
  8
0
 10
7306.5378651899345641
 20
117.393834832868194
 30
0.0
 40
0.063
 50
181.0000000017313084
 51
270.0
  0
LINE
  5
33D4E
  8
0
 10
7309.3036169189899738
 20
117.2982552339375957
 30
0.0
 11
7308.5160115122243951
 21
117.2982552339375957
 31
0.0
  0
ARC
  5
33D4F
  8
0
 10
7309.6859089625422712
 20
248.4014802683053063
 30
0.0
 40
131.1084447106908897
 50
268.6241392906958936
 51
269.4887356335929098
  0
ARC
  5
33D50
  8
0
 10
7273.3413683497219608
 20
115.9673185831698987
 30
0.0
 40
35.9672069399155276
 50
358.4751435571532738
 51
359.0486096178872799
  0
ARC
  5
33D51
  8
0
 10
7268.5601342440832013
 20
113.4058423157141959
 30
0.0
 40
40.7540803986299096
 50
1.3066756247725291
 51
1.7206672094621249
  0
LINE
  5
33D52
  8
0
 10
7309.3036169189899738
 20
113.8761875619969999
 30
0.0
 11
7308.6228516529636181
 21
113.8924981947436947
 31
0.0
  0
LINE
  5
33D53
  8
0
 10
7310.1143954482913614
 20
114.6295567021374069
 30
0.0
 11
7310.1143954482913614
 21
115.0102087652141023
 31
0.0
  0
LINE
  5
33D54
  8
0
 10
7310.1066169189898574
 20
113.4593967552453933
 30
0.0
 11
7310.1066169189898574
 21
114.3351908281218954
 31
0.0
  0
LINE
  5
33D55
  8
0
 10
7310.1066169189898574
 20
115.370114346108096
 30
0.0
 11
7310.1066169189898574
 21
117.8899264926733963
 31
0.0
  0
ARC
  5
33D56
  8
0
 10
7310.1381877850890305
 20
119.4104151969441006
 30
0.0
 40
1.5033188069000629
 50
270.0
 51
297.9357011695660162
  0
ARC
  5
33D57
  8
0
 10
7310.8055937741100934
 20
118.1518016777121005
 30
0.0
 40
0.0787
 50
297.9357011695660162
 51
358.9999999811703901
  0
LINE
  5
33D58
  8
0
 10
7310.8842817877193738
 20
118.1504281732997015
 30
0.0
 11
7310.8860096305279512
 21
118.2494211603441983
 31
0.0
  0
ARC
  5
33D59
  8
0
 10
7310.874211427724731
 20
118.2496270987439999
 30
0.0
 40
0.0118
 50
358.9999999811540761
 51
90.0
  0
ARC
  5
33D5A
  8
0
 10
7214.1413479101202029
 20
113.9971070672542055
 30
0.0
 40
96.0441924273595191
 50
2.3229227316491108
 51
2.3320437234440141
  0
ARC
  5
33D5B
  8
0
 10
7310.1050699947118119
 20
117.904915643945202
 30
0.0
 40
0.0009696503113352
 50
17.2560182995672591
 51
67.8791433838668041
  0
ARC
  5
33D5C
  8
0
 10
7310.4167926301297484
 20
118.5069782164396059
 30
0.0
 40
0.6770096053942787
 50
242.3842014803421137
 51
242.6192703174353937
  0
ARC
  5
33D5D
  8
0
 10
1708.5095733739030948
 20
169.8301698907552861
 30
0.0
 40
5602.5960467367949605
 50
359.4325293135185007
 51
359.4627667105331739
  0
LINE
  5
33D5E
  8
0
 10
7310.8111333291208211
 20
114.3221617713846996
 30
0.0
 11
7310.1066169189898574
 21
114.3221617713846996
 31
0.0
  0
LINE
  5
33D5F
  8
0
 10
7310.8035421157910605
 20
114.3024767319846973
 30
0.0
 11
7310.1066169189898574
 21
114.3024767319841004
 31
0.0
  0
ARC
  5
33D60
  8
0
 10
7310.8111333291208211
 20
114.3418617713857941
 30
0.0
 40
0.0197
 50
270.0000000012507257
 51
359.4325293156157954
  0
LINE
  5
33D61
  8
0
 10
7310.8286971768211515
 20
114.2664589167962959
 30
0.0
 11
7310.8227767934249641
 21
113.9272803795551994
 31
0.0
  0
LINE
  5
33D62
  8
0
 10
7310.787382185016213
 20
113.8924981947436947
 30
0.0
 11
7310.1066169189898574
 21
113.8924981947436947
 31
0.0
  0
ARC
  5
33D63
  8
0
 10
7310.787382185016213
 20
113.9278981947437046
 30
0.0
 40
0.0354
 50
270.0
 51
358.9999999990566835
  0
ARC
  5
33D64
  8
0
 10
7310.7933025684124004
 20
114.2670767319848011
 30
0.0
 40
0.0354
 50
358.9999999990404262
 51
90.0000000000521254
  0
LINE
  5
33D65
  8
0
 10
7310.8035421157910605
 20
114.3221617713846996
 30
0.0
 11
7310.8035421157910605
 21
114.3024767319846973
 31
0.0
  0
LINE
  5
33D66
  8
0
 10
7312.9353590528398854
 20
117.3927353312607949
 30
0.0
 11
7312.950172258022576
 21
118.2413832863365997
 31
0.0
  0
LINE
  5
33D67
  8
0
 10
7312.872368648045267
 20
117.3308348328682058
 30
0.0
 11
7310.1066169189898574
 21
117.3308348328682058
 31
0.0
  0
ARC
  5
33D68
  8
0
 10
7312.9304752584293965
 20
118.2417270987440929
 30
0.0
 40
0.0197
 50
358.9999999982750865
 51
90.0
  0
ARC
  5
33D69
  8
0
 10
7312.872368648045267
 20
117.393834832868194
 30
0.0
 40
0.063
 50
270.0
 51
358.9999999982686063
  0
LINE
  5
33D6A
  8
0
 10
7310.1066169189898574
 20
117.2982552339375957
 30
0.0
 11
7310.894222325757255
 21
117.2982552339375957
 31
0.0
  0
ARC
  5
33D6B
  8
0
 10
7309.72432487543756
 20
248.4014802683053063
 30
0.0
 40
131.1084447106908897
 50
270.5112643664072039
 51
271.3758607093041064
  0
ARC
  5
33D6C
  8
0
 10
7346.0688654882596893
 20
115.9673185831698987
 30
0.0
 40
35.9672069399155276
 50
180.9513903821126917
 51
181.5248564428466977
  0
ARC
  5
33D6D
  8
0
 10
7350.8500995938966298
 20
113.4058423157141959
 30
0.0
 40
40.7540803986299096
 50
178.2793327905378931
 51
178.6933243752274905
  0
LINE
  5
33D6E
  8
0
 10
7310.1066169189898574
 20
113.8761875619969004
 30
0.0
 11
7310.787382185016213
 21
113.8924981947436947
 31
0.0
  0
ARC
  5
33D6F
  8
0
 10
7309.5089192258910771
 20
113.462169976525999
 30
0.0
 40
0.2053210363678326
 50
180.773903684242697
 51
196.309825941998497
  0
ARC
  5
33D70
  8
0
 10
7309.5265163458143434
 20
113.4673190105364995
 30
0.0
 40
0.2236560078922083
 50
196.309825941998497
 51
208.3398858071315942
  0
ARC
  5
33D71
  8
0
 10
7309.5666321441303808
 20
113.4889551785376938
 30
0.0
 40
0.2692345230093109
 50
208.3398858071315942
 51
229.5433618172540946
  0
ARC
  5
33D72
  8
0
 10
7309.6582795956801419
 20
113.5964251466794934
 30
0.0
 40
0.4104756268996954
 50
229.5433618172540946
 51
245.9250242315262085
  0
ARC
  5
33D73
  8
0
 10
7309.6858562589268331
 20
113.6581458565345031
 30
0.0
 40
0.478076798345315
 50
245.9250242315262085
 51
258.1225910274113744
  0
ARC
  5
33D74
  8
0
 10
7309.7075931425079034
 20
113.7614967044596028
 30
0.0
 40
0.5836887762391177
 50
258.1225910274113744
 51
269.756929397898773
  0
ARC
  5
33D75
  8
0
 10
7309.5006204563796928
 20
113.3978854780145014
 30
0.0
 40
0.1935063249148144
 50
173.8105710775290049
 51
197.206705727711693
  0
ARC
  5
33D76
  8
0
 10
7309.5224381166390231
 20
113.4046419702998065
 30
0.0
 40
0.216346212986768
 50
197.206705727711693
 51
217.1303030770665998
  0
ARC
  5
33D77
  8
0
 10
7309.5912966730484186
 20
113.4567765595824937
 30
0.0
 40
0.3027147037143151
 50
217.1303030770665998
 51
233.8965532082665959
  0
ARC
  5
33D78
  8
0
 10
7309.6415222484438345
 20
113.525644312478704
 30
0.0
 40
0.387951877604019
 50
233.8965532082665959
 51
246.645605992246999
  0
ARC
  5
33D79
  8
0
 10
7309.6802910432015778
 20
113.6154297205091979
 30
0.0
 40
0.4857498271847804
 50
246.645605992246999
 51
258.8287684454239752
  0
ARC
  5
33D7A
  8
0
 10
7309.7323028834362049
 20
114.1193633387288031
 30
0.0
 40
0.9913082777379857
 50
261.5235397451244808
 51
268.4285046594532105
  0
ARC
  5
33D7B
  8
0
 10
7309.5072361787379123
 20
113.3683127504232999
 30
0.0
 40
0.1985504723613738
 50
178.6850515258539076
 51
202.5669646552595964
  0
ARC
  5
33D7C
  8
0
 10
7309.5406593191701177
 20
113.3822028563167947
 30
0.0
 40
0.2347449658369364
 50
202.5669646552595964
 51
226.2126253519701891
  0
ARC
  5
33D7D
  8
0
 10
7309.6376420815768142
 20
113.483380165214399
 30
0.0
 40
0.3748966837725508
 50
226.2126253519701891
 51
248.2218458772078975
  0
ARC
  5
33D7E
  8
0
 10
7309.6892051539307431
 20
113.6124397322639936
 30
0.0
 40
0.5138755392776165
 50
248.2218458772078975
 51
261.4222519054059717
  0
ARC
  5
33D7F
  8
0
 10
7309.7123889139356834
 20
113.9358892076061949
 30
0.0
 40
0.8375476883247724
 50
263.1545273658672954
 51
269.5025240234051012
  0
ARC
  5
33D80
  8
0
 10
7309.4989514898134075
 20
113.3459623033222954
 30
0.0
 40
0.1889590068773063
 50
180.1199208497810957
 51
191.6191749503288122
  0
ARC
  5
33D81
  8
0
 10
7309.5124221616606519
 20
113.3487321335966982
 30
0.0
 40
0.2027114960991121
 50
191.6191749503288122
 51
211.7606732403050103
  0
ARC
  5
33D82
  8
0
 10
7309.5716223782183079
 20
113.3853815919786001
 30
0.0
 40
0.2723379884709917
 50
211.7606732403050103
 51
228.9074207737808138
  0
ARC
  5
33D83
  8
0
 10
7309.6263498585303751
 20
113.4481332852648023
 30
0.0
 40
0.355601858857226
 50
228.9074207737808138
 51
242.319137858773388
  0
ARC
  5
33D84
  8
0
 10
7309.6679771705521489
 20
113.5274860202047051
 30
0.0
 40
0.4452103944365401
 50
242.319137858773388
 51
255.8255241538111022
  0
ARC
  5
33D85
  8
0
 10
7309.7019067382589128
 20
113.6618259896491026
 30
0.0
 40
0.5837688404260036
 50
255.8255241538111022
 51
261.723254480129583
  0
ARC
  5
33D86
  8
0
 10
7309.6962054328778322
 20
113.6775830435963002
 30
0.0
 40
0.5985933124287384
 50
262.4804222139318881
 51
270.8530155539503994
  0
ARC
  5
33D87
  8
0
 10
7309.5018971037934534
 20
113.3173245900225936
 30
0.0
 40
0.1903142355981437
 50
178.8338282111180888
 51
199.1933569468700966
  0
ARC
  5
33D88
  8
0
 10
7309.5402508582874361
 20
113.3306757945241969
 30
0.0
 40
0.2309253811777741
 50
199.1933569468700966
 51
229.4916318542937006
  0
ARC
  5
33D89
  8
0
 10
7309.6621257781343957
 20
113.4733307968531051
 30
0.0
 40
0.4185525268082352
 50
229.4916318542937006
 51
246.7159250096935068
  0
ARC
  5
33D8A
  8
0
 10
7309.6866384033019131
 20
113.5504691017000027
 30
0.0
 40
0.4991617264695704
 50
247.6314571465001109
 51
264.487510268352878
  0
ARC
  5
33D8B
  8
0
 10
7309.7003295996819361
 20
113.7491169496699968
 30
0.0
 40
0.6982274053915712
 50
264.9351278619088248
 51
270.3928452802035167
  0
ARC
  5
33D8C
  8
0
 10
7309.5053450062587217
 20
113.295262286467306
 30
0.0
 40
0.1925570723649681
 50
179.8009118201894978
 51
202.0838918411724023
  0
ARC
  5
33D8D
  8
0
 10
7309.5417156681405686
 20
113.3100189709021066
 30
0.0
 40
0.2318073562010704
 50
202.0838918411724023
 51
225.5353688079335086
  0
ARC
  5
33D8E
  8
0
 10
7309.6352491933048441
 20
113.405316979528294
 30
0.0
 40
0.3653372434087015
 50
225.5353688079335086
 51
236.7776442015536134
  0
ARC
  5
33D8F
  8
0
 10
7309.7290564461427493
 20
113.5485474830858976
 30
0.0
 40
0.5365528321690589
 50
236.7776442015536134
 51
245.7632758428175919
  0
ARC
  5
33D90
  8
0
 10
7309.6827078135402189
 20
113.4838917787922981
 30
0.0
 40
0.4588390217800904
 50
247.726844864475197
 51
259.6279537547691234
  0
ARC
  5
33D91
  8
0
 10
7309.7072617233952769
 20
113.7126937274252043
 30
0.0
 40
0.6885337862623911
 50
261.0461221702698822
 51
269.8215215556571138
  0
ARC
  5
33D92
  8
0
 10
7309.5074446391390666
 20
113.2686174215594974
 30
0.0
 40
0.1931685314393269
 50
179.2256309472973896
 51
204.4692472718814997
  0
ARC
  5
33D93
  8
0
 10
7309.552143712610814
 20
113.2889589956701997
 30
0.0
 40
0.2422784775453991
 50
204.4692472718814997
 51
229.7485287142814059
  0
ARC
  5
33D94
  8
0
 10
7309.6523836017149733
 20
113.4073609693598996
 30
0.0
 40
0.397414104469748
 50
229.7485287142814059
 51
250.7854553195147105
  0
ARC
  5
33D95
  8
0
 10
7309.6900078522012336
 20
113.5153148540409944
 30
0.0
 40
0.5117365670150336
 50
250.7854553195147105
 51
261.8968768150648998
  0
ARC
  5
33D96
  8
0
 10
7309.7237275971992858
 20
114.0458798327342009
 30
0.0
 40
1.0425797614610339
 50
264.1727985624146982
 51
268.9771814187591872
  0
ARC
  5
33D97
  8
0
 10
7309.5036469374563239
 20
113.243359160705495
 30
0.0
 40
0.1879958164287313
 50
179.3450407193537046
 51
194.2063333056449892
  0
ARC
  5
33D98
  8
0
 10
7309.5178095787769053
 20
113.2469445256796945
 30
0.0
 40
0.2026052397979663
 50
194.2063333056449892
 51
211.9509914388461027
  0
ARC
  5
33D99
  8
0
 10
7309.5709130902523611
 20
113.2800641577349978
 30
0.0
 40
0.2651903255496312
 50
211.9509914388461027
 51
223.6221290128194141
  0
ARC
  5
33D9A
  8
0
 10
7309.5902562377659706
 20
113.2984986390952002
 30
0.0
 40
0.2919108693081939
 50
223.6221290128194141
 51
234.1182935768844118
  0
ARC
  5
33D9B
  8
0
 10
7309.6484148712961542
 20
113.3788956701911985
 30
0.0
 40
0.3911384323288258
 50
234.1182935768844118
 51
248.0656335628077898
  0
ARC
  5
33D9C
  8
0
 10
7309.6834541819762308
 20
113.4659078484885981
 30
0.0
 40
0.4849407375513147
 50
248.0656335628077898
 51
259.9536876945435893
  0
ARC
  5
33D9D
  8
0
 10
7309.7402097749445602
 20
114.1199473692158932
 30
0.0
 40
1.1403391646140759
 50
262.8795915221097061
 51
268.2364983153524918
  0
ARC
  5
33D9E
  8
0
 10
7309.5008804119206616
 20
113.2182676944198931
 30
0.0
 40
0.1838434810218607
 50
179.314503774073188
 51
187.9632368757160066
  0
ARC
  5
33D9F
  8
0
 10
7309.509420997675079
 20
113.2194624077743015
 30
0.0
 40
0.1924672241192544
 50
187.9632368757160066
 51
205.5792387096846028
  0
ARC
  5
33DA0
  8
0
 10
7309.5502014068097196
 20
113.2389829401711978
 30
0.0
 40
0.2376788703436395
 50
205.5792387096846028
 51
220.3738830384070866
  0
ARC
  5
33DA1
  8
0
 10
7309.598757968053178
 20
113.2802696628129979
 30
0.0
 40
0.3014153050284063
 50
220.3738830384070866
 51
240.4615011611764999
  0
ARC
  5
33DA2
  8
0
 10
7309.683088251407753
 20
113.4290895261593022
 30
0.0
 40
0.4724677777294064
 50
240.4615011611764999
 51
254.0058919294174871
  0
ARC
  5
33DA3
  8
0
 10
7309.7254315064374168
 20
113.7446118583840047
 30
0.0
 40
0.7887995975806263
 50
257.3661310853597115
 51
268.5242527624041031
  0
ARC
  5
33DA4
  8
0
 10
7309.602207164626634
 20
113.2018221720643965
 30
0.0
 40
0.2841492946427123
 50
180.6164702420169021
 51
187.5958456389616913
  0
ARC
  5
33DA5
  8
0
 10
7309.4910722599906876
 20
113.1870018113071978
 30
0.0
 40
0.1720305623915894
 50
187.5958456389616913
 51
206.2933719388560974
  0
ARC
  5
33DA6
  8
0
 10
7309.5719735618558843
 20
113.2269740809771008
 30
0.0
 40
0.2622680434410463
 50
206.2933719388560974
 51
226.8037375902783879
  0
ARC
  5
33DA7
  8
0
 10
7309.615641530148423
 20
113.2734818234218039
 30
0.0
 40
0.3260635100669055
 50
226.8037375902783879
 51
244.7560497583770029
  0
ARC
  5
33DA8
  8
0
 10
7309.6932607365297372
 20
113.4381031408066036
 30
0.0
 40
0.5080660357002352
 50
244.7560497583770029
 51
256.8975734888056763
  0
ARC
  5
33DA9
  8
0
 10
7309.7356208587134461
 20
113.895706148256707
 30
0.0
 40
0.9653825490880954
 50
260.6082489936492266
 51
268.1892795060576873
  0
ARC
  5
33DAA
  8
0
 10
7309.5039063203403202
 20
113.168993182494205
 30
0.0
 40
0.1841456549872263
 50
179.4720417380287927
 51
191.3551676115762064
  0
ARC
  5
33DAB
  8
0
 10
7309.5130584338357949
 20
113.1708311210192051
 30
0.0
 40
0.1934804929338757
 50
191.3551676115762064
 51
204.9455528917067113
  0
ARC
  5
33DAC
  8
0
 10
7309.544890402566125
 20
113.1856378012887063
 30
0.0
 40
0.2285876433991397
 50
204.9455528917067113
 51
217.8078097316758033
  0
ARC
  5
33DAD
  8
0
 10
7309.5872205761470468
 20
113.2184816920356951
 30
0.0
 40
0.2821652950339093
 50
217.8078097316758033
 51
235.0263454288333946
  0
ARC
  5
33DAE
  8
0
 10
7309.6582413854357583
 20
113.3200092470962943
 30
0.0
 40
0.406067675111353
 50
235.0263454288333946
 51
250.5026327164077031
  0
ARC
  5
33DAF
  8
0
 10
7309.6874009751036283
 20
113.4023654143007036
 30
0.0
 40
0.4934336865006017
 50
250.5026327164077031
 51
261.0016406909892908
  0
ARC
  5
33DB0
  8
0
 10
7309.7530561867988581
 20
114.3129449446491037
 30
0.0
 40
1.4052182215193101
 50
264.16618193142682
 51
268.0449650111604001
  0
ARC
  5
33DB1
  8
0
 10
7309.5876473859452744
 20
113.1490630032225937
 30
0.0
 40
0.2667384350697644
 50
180.130715819784001
 51
187.3005015182586988
  0
ARC
  5
33DB2
  8
0
 10
7309.4975521216938432
 20
113.137520732130497
 30
0.0
 40
0.1759068289934719
 50
187.3005015182586988
 51
204.7755327893671904
  0
ARC
  5
33DB3
  8
0
 10
7309.5679675273750036
 20
113.1700207348524003
 30
0.0
 40
0.2534605493064264
 50
204.7755327893671904
 51
216.2181408097995075
  0
ARC
  5
33DB4
  8
0
 10
7309.570453836073284
 20
113.1718416469018962
 30
0.0
 40
0.2565423428799934
 50
216.2181408097995075
 51
236.5676985791976108
  0
ARC
  5
33DB5
  8
0
 10
7309.682830444558931
 20
113.3420608284825022
 30
0.0
 40
0.4605106539306865
 50
236.5676985791976108
 51
252.4406275758269942
  0
ARC
  5
33DB6
  8
0
 10
7309.6770294056314015
 20
113.3237285447931981
 30
0.0
 40
0.4412824278573694
 50
252.4406275758269942
 51
264.3047909503088135
  0
ARC
  5
33DB7
  8
0
 10
7309.8188454743458351
 20
116.0742267520686966
 30
0.0
 40
3.1949982213757631
 50
266.6696344367429106
 51
267.9600792770739872
  0
ARC
  5
33DB8
  8
0
 10
7309.5084559644010369
 20
113.1199918931875033
 30
0.0
 40
0.1859823696919406
 50
179.9318844597526947
 51
199.5132952920934031
  0
ARC
  5
33DB9
  8
0
 10
7309.5388624539418743
 20
113.1307673370227036
 30
0.0
 40
0.21824170626348
 50
199.5132952920934031
 51
223.2984672157278965
  0
ARC
  5
33DBA
  8
0
 10
7309.6255445269653137
 20
113.2124480122958943
 30
0.0
 40
0.3373446638114633
 50
223.2984672157278965
 51
238.8774449707250938
  0
ARC
  5
33DBB
  8
0
 10
7309.6548163593733989
 20
113.2609293224931974
 30
0.0
 40
0.3939774953754993
 50
238.8774449707250938
 51
254.0236334916596945
  0
ARC
  5
33DBC
  8
0
 10
7309.7050210189863719
 20
113.4362867371539068
 30
0.0
 40
0.5763801563300605
 50
254.0236334916596945
 51
262.648810846378808
  0
ARC
  5
33DBD
  8
0
 10
7309.7482450487223105
 20
114.5529865533825955
 30
0.0
 40
1.69238963572794
 50
266.0367481517782267
 51
268.5397409118567111
  0
ARC
  5
33DBE
  8
0
 10
7309.5107139031470069
 20
113.0893713380309009
 30
0.0
 40
0.1865625361318797
 50
178.41167968698511
 51
204.4531635449075964
  0
ARC
  5
33DBF
  8
0
 10
7309.5382590184708533
 20
113.1006506672134009
 30
0.0
 40
0.2163088996049565
 50
204.1526015847177007
 51
213.9585226661309036
  0
ARC
  5
33DC0
  8
0
 10
7309.5986238223531473
 20
113.1472038308082944
 30
0.0
 40
0.2924232189675222
 50
214.9174360541167061
 51
239.9655991171865992
  0
ARC
  5
33DC1
  8
0
 10
7309.6684835871592441
 20
113.2603473196674031
 30
0.0
 40
0.4253579846941926
 50
239.4471604977732113
 51
255.748537276042498
  0
ARC
  5
33DC2
  8
0
 10
7309.7526347303737566
 20
113.8728542878069021
 30
0.0
 40
1.0420328873102609
 50
259.5576197960393188
 51
267.3863449615677155
  0
ARC
  5
33DC3
  8
0
 10
7309.5630611336973743
 20
113.0871701767917017
 30
0.0
 40
0.2354066513224047
 50
196.3613748072226883
 51
228.2665669033740983
  0
ARC
  5
33DC4
  8
0
 10
7309.6526854678468226
 20
113.1876442238268936
 30
0.0
 40
0.3700452616822749
 50
228.2665669033740983
 51
240.460256027730793
  0
ARC
  5
33DC5
  8
0
 10
7309.6633098828060611
 20
113.2063924577360012
 30
0.0
 40
0.391594611276894
 50
240.460256027730793
 51
254.3945636399770081
  0
ARC
  5
33DC6
  8
0
 10
7309.7210118551520281
 20
113.4129820193519009
 30
0.0
 40
0.6060911487341285
 50
254.3945636399770081
 51
262.8621053555856975
  0
ARC
  5
33DC7
  8
0
 10
7308.0336195345680608
 20
83.2723501095369869
 30
0.0
 40
29.5831943027608411
 50
86.7609726552438048
 51
86.8762264507812461
  0
ARC
  5
33DC8
  8
0
 10
7309.9013146120896636
 20
113.462169976525999
 30
0.0
 40
0.2053210363678326
 50
343.6901740580016167
 51
359.2260963157572746
  0
ARC
  5
33DC9
  8
0
 10
7309.8837174921673068
 20
113.4673190105364995
 30
0.0
 40
0.2236560078922083
 50
331.6601141928683774
 51
343.6901740580016167
  0
ARC
  5
33DCA
  8
0
 10
7309.8436016938521789
 20
113.4889551785376938
 30
0.0
 40
0.2692345230093109
 50
310.4566381827460191
 51
331.6601141928683774
  0
ARC
  5
33DCB
  8
0
 10
7309.7519542422996892
 20
113.5964251466794934
 30
0.0
 40
0.4104756268996954
 50
294.0749757684736778
 51
310.4566381827460191
  0
ARC
  5
33DCC
  8
0
 10
7309.724377579054817
 20
113.6581458565345031
 30
0.0
 40
0.478076798345315
 50
281.8774089725886256
 51
294.0749757684736778
  0
ARC
  5
33DCD
  8
0
 10
7309.7026406954728373
 20
113.7614967044596028
 30
0.0
 40
0.5836887762391177
 50
270.243070602101227
 51
281.8774089725886256
  0
ARC
  5
33DCE
  8
0
 10
7309.9096133816001384
 20
113.3978854780145014
 30
0.0
 40
0.1935063249148144
 50
342.7932942722882217
 51
6.1894289224710066
  0
ARC
  5
33DCF
  8
0
 10
7309.8877957213408081
 20
113.4046419702998065
 30
0.0
 40
0.216346212986768
 50
322.8696969229333718
 51
342.7932942722882217
  0
ARC
  5
33DD0
  8
0
 10
7309.8189371649332315
 20
113.4567765595824937
 30
0.0
 40
0.3027147037143151
 50
306.1034467917334041
 51
322.8696969229333718
  0
ARC
  5
33DD1
  8
0
 10
7309.7687115895369061
 20
113.525644312478704
 30
0.0
 40
0.387951877604019
 50
293.3543940077531147
 51
306.1034467917334041
  0
ARC
  5
33DD2
  8
0
 10
7309.7299427947791628
 20
113.6154297205091979
 30
0.0
 40
0.4857498271847804
 50
281.1712315545760248
 51
293.3543940077531147
  0
ARC
  5
33DD3
  8
0
 10
7309.6779309545463548
 20
114.1193633387288031
 30
0.0
 40
0.9913082777379857
 50
271.5714953405467895
 51
278.4764602548755192
  0
ARC
  5
33DD4
  8
0
 10
7309.9029976592419189
 20
113.3683127504232999
 30
0.0
 40
0.1985504723613738
 50
337.4330353447405173
 51
1.3149484741460711
  0
ARC
  5
33DD5
  8
0
 10
7309.869574518812442
 20
113.3822028563167947
 30
0.0
 40
0.2347449658369364
 50
313.7873746480298109
 51
337.4330353447405173
  0
ARC
  5
33DD6
  8
0
 10
7309.7725917564030169
 20
113.483380165214399
 30
0.0
 40
0.3748966837725508
 50
291.7781541227919888
 51
313.7873746480298109
  0
ARC
  5
33DD7
  8
0
 10
7309.721028684050907
 20
113.6124397322639936
 30
0.0
 40
0.5138755392776165
 50
278.5777480945940283
 51
291.7781541227919888
  0
ARC
  5
33DD8
  8
0
 10
7309.6978449240441478
 20
113.9358892076061949
 30
0.0
 40
0.8375476883247724
 50
270.4974759765947852
 51
276.8454726341325909
  0
ARC
  5
33DD9
  8
0
 10
7309.9112823481691521
 20
113.3459623033222954
 30
0.0
 40
0.1889590068773063
 50
348.3808250496712162
 51
359.880079150218819
  0
ARC
  5
33DDA
  8
0
 10
7309.8978116763209982
 20
113.3487321335966982
 30
0.0
 40
0.2027114960991121
 50
328.2393267596942792
 51
348.3808250496712162
  0
ARC
  5
33DDB
  8
0
 10
7309.8386114597633423
 20
113.3853815919786001
 30
0.0
 40
0.2723379884709917
 50
311.0925792262192999
 51
328.2393267596942792
  0
ARC
  5
33DDC
  8
0
 10
7309.7838839794503656
 20
113.4481332852648023
 30
0.0
 40
0.355601858857226
 50
297.680862141226612
 51
311.0925792262192999
  0
ARC
  5
33DDD
  8
0
 10
7309.7422566674276823
 20
113.5274860202047051
 30
0.0
 40
0.4452103944365401
 50
284.1744758461888978
 51
297.680862141226612
  0
ARC
  5
33DDE
  8
0
 10
7309.7083270997218278
 20
113.6618259896491026
 30
0.0
 40
0.5837688404260036
 50
278.276745519870417
 51
284.1744758461888978
  0
ARC
  5
33DDF
  8
0
 10
7309.7140284051019989
 20
113.6775830435963002
 30
0.0
 40
0.5985933124287384
 50
269.1469844460496006
 51
277.5195777860681119
  0
ARC
  5
33DE0
  8
0
 10
7309.9083367341881967
 20
113.3173245900225936
 30
0.0
 40
0.1903142355981437
 50
340.8066430531292212
 51
1.1661717888819121
  0
ARC
  5
33DE1
  8
0
 10
7309.8699829796951235
 20
113.3306757945241969
 30
0.0
 40
0.2309253811777741
 50
310.5083681457062994
 51
340.8066430531292212
  0
ARC
  5
33DE2
  8
0
 10
7309.7481080598472545
 20
113.4733307968531051
 30
0.0
 40
0.4185525268082352
 50
293.2840749903061237
 51
310.5083681457062994
  0
ARC
  5
33DE3
  8
0
 10
7309.7235954346788276
 20
113.5504691017000027
 30
0.0
 40
0.4991617264695704
 50
275.512489731647122
 51
292.3685428534998891
  0
ARC
  5
33DE4
  8
0
 10
7309.7099042382997141
 20
113.7491169496699968
 30
0.0
 40
0.6982274053915712
 50
269.6071547197964264
 51
275.0648721380911752
  0
ARC
  5
33DE5
  8
0
 10
7309.9048888317229284
 20
113.295262286467306
 30
0.0
 40
0.1925570723649681
 50
337.9161081588276261
 51
0.1990881798105011
  0
ARC
  5
33DE6
  8
0
 10
7309.868518169840172
 20
113.3100189709021066
 30
0.0
 40
0.2318073562010704
 50
314.4646311920665198
 51
337.9161081588276261
  0
ARC
  5
33DE7
  8
0
 10
7309.7749846446768061
 20
113.405316979528294
 30
0.0
 40
0.3653372434087015
 50
303.2223557984464151
 51
314.4646311920665198
  0
ARC
  5
33DE8
  8
0
 10
7309.6811773918370818
 20
113.5485474830858976
 30
0.0
 40
0.5365528321690589
 50
294.2367241571823797
 51
303.2223557984464151
  0
ARC
  5
33DE9
  8
0
 10
7309.7275260244396122
 20
113.4838917787922981
 30
0.0
 40
0.4588390217800904
 50
280.3720462451796038
 51
292.2731551354765998
  0
ARC
  5
33DEA
  8
0
 10
7309.7029721145845542
 20
113.7126937274252043
 30
0.0
 40
0.6885337862623911
 50
270.1784784442908176
 51
278.9538778297301178
  0
ARC
  5
33DEB
  8
0
 10
7309.9027891988407646
 20
113.2686174215594974
 30
0.0
 40
0.1931685314393269
 50
335.530752728118614
 51
0.7743690527025624
  0
ARC
  5
33DEC
  8
0
 10
7309.8580901253699267
 20
113.2889589956701997
 30
0.0
 40
0.2422784775453991
 50
310.2514712857185941
 51
335.530752728118614
  0
ARC
  5
33DED
  8
0
 10
7309.7578502362657673
 20
113.4073609693598996
 30
0.0
 40
0.397414104469748
 50
289.2145446804852895
 51
310.2514712857185941
  0
ARC
  5
33DEE
  8
0
 10
7309.7202259857785975
 20
113.5153148540409944
 30
0.0
 40
0.5117365670150336
 50
278.1031231848834864
 51
289.2145446804852895
  0
ARC
  5
33DEF
  8
0
 10
7309.6865062407805453
 20
114.0458798327342009
 30
0.0
 40
1.0425797614610339
 50
271.0228185812406991
 51
275.8272014375853018
  0
ARC
  5
33DF0
  8
0
 10
7309.9065869005244167
 20
113.243359160705495
 30
0.0
 40
0.1879958164287313
 50
345.7936666943556929
 51
0.6549592806463079
  0
ARC
  5
33DF1
  8
0
 10
7309.8924242592029259
 20
113.2469445256796945
 30
0.0
 40
0.2026052397979663
 50
328.0490085611539257
 51
345.7936666943556929
  0
ARC
  5
33DF2
  8
0
 10
7309.839320747729289
 20
113.2800641577349978
 30
0.0
 40
0.2651903255496312
 50
316.3778709871804722
 51
328.0490085611539257
  0
ARC
  5
33DF3
  8
0
 10
7309.8199776002147701
 20
113.2984986390952002
 30
0.0
 40
0.2919108693081939
 50
305.8817064231157019
 51
316.3778709871804722
  0
ARC
  5
33DF4
  8
0
 10
7309.7618189666864055
 20
113.3788956701911985
 30
0.0
 40
0.3911384323288258
 50
291.9343664371921818
 51
305.8817064231157019
  0
ARC
  5
33DF5
  8
0
 10
7309.7267796560054194
 20
113.4659078484885981
 30
0.0
 40
0.4849407375513147
 50
280.0463123054564107
 51
291.9343664371921818
  0
ARC
  5
33DF6
  8
0
 10
7309.6700240630370899
 20
114.1199473692158932
 30
0.0
 40
1.1403391646140759
 50
271.7635016846473945
 51
277.1204084778902939
  0
ARC
  5
33DF7
  8
0
 10
7309.9093534260591696
 20
113.2182676944198931
 30
0.0
 40
0.1838434810218607
 50
352.0367631242838797
 51
0.6854962259267489
  0
ARC
  5
33DF8
  8
0
 10
7309.9008128403056617
 20
113.2194624077743015
 30
0.0
 40
0.1924672241192544
 50
334.4207612903152835
 51
352.0367631242838797
  0
ARC
  5
33DF9
  8
0
 10
7309.860032431171021
 20
113.2389829401711978
 30
0.0
 40
0.2376788703436395
 50
319.6261169615929134
 51
334.4207612903152835
  0
ARC
  5
33DFA
  8
0
 10
7309.8114758699266531
 20
113.2802696628129979
 30
0.0
 40
0.3014153050284063
 50
299.5384988388233864
 51
319.6261169615929134
  0
ARC
  5
33DFB
  8
0
 10
7309.7271455865720782
 20
113.4290895261593022
 30
0.0
 40
0.4724677777294064
 50
285.9941080705825129
 51
299.5384988388233864
  0
ARC
  5
33DFC
  8
0
 10
7309.6848023315433238
 20
113.7446118583840047
 30
0.0
 40
0.7887995975806263
 50
271.4757472375958969
 51
282.6338689146402885
  0
ARC
  5
33DFD
  8
0
 10
7309.8080266733550161
 20
113.2018221720643965
 30
0.0
 40
0.2841492946427123
 50
352.4041543610375129
 51
359.3835297579831263
  0
ARC
  5
33DFE
  8
0
 10
7309.9191615779909625
 20
113.1870018113071978
 30
0.0
 40
0.1720305623915894
 50
333.7066280611438742
 51
352.4041543610375129
  0
ARC
  5
33DFF
  8
0
 10
7309.8382602761248563
 20
113.2269740809771008
 30
0.0
 40
0.2622680434410463
 50
313.1962624097216121
 51
333.7066280611438742
  0
ARC
  5
33E00
  8
0
 10
7309.7945923078332271
 20
113.2734818234218039
 30
0.0
 40
0.3260635100669055
 50
295.2439502416225992
 51
313.1962624097216121
  0
ARC
  5
33E01
  8
0
 10
7309.7169731014510035
 20
113.4381031408066036
 30
0.0
 40
0.5080660357002352
 50
283.1024265111435056
 51
295.2439502416225992
  0
ARC
  5
33E02
  8
0
 10
7309.6746129792682041
 20
113.895706148256707
 30
0.0
 40
0.9653825490880954
 50
271.8107204939423127
 51
279.3917510063507734
  0
ARC
  5
33E03
  8
0
 10
7309.9063275176422394
 20
113.168993182494205
 30
0.0
 40
0.1841456549872263
 50
348.6448323884238221
 51
0.5279582619744342
  0
ARC
  5
33E04
  8
0
 10
7309.8971754041431268
 20
113.1708311210192051
 30
0.0
 40
0.1934804929338757
 50
335.054447108293175
 51
348.6448323884238221
  0
ARC
  5
33E05
  8
0
 10
7309.8653434354146157
 20
113.1856378012887063
 30
0.0
 40
0.2285876433991397
 50
322.1921902683242251
 51
335.054447108293175
  0
ARC
  5
33E06
  8
0
 10
7309.8230132618346033
 20
113.2184816920356951
 30
0.0
 40
0.2821652950339093
 50
304.9736545711666054
 51
322.1921902683242251
  0
ARC
  5
33E07
  8
0
 10
7309.7519924525440729
 20
113.3200092470962943
 30
0.0
 40
0.406067675111353
 50
289.4973672835433263
 51
304.9736545711666054
  0
ARC
  5
33E08
  8
0
 10
7309.7228328628780218
 20
113.4023654143007036
 30
0.0
 40
0.4934336865006017
 50
278.9983593090107092
 51
289.4973672835433263
  0
ARC
  5
33E09
  8
0
 10
7309.657177651180973
 20
114.3129449446491037
 30
0.0
 40
1.4052182215193101
 50
271.9550349888395999
 51
275.8338180685731231
  0
ARC
  5
33E0A
  8
0
 10
7309.8225864520345567
 20
113.1490630032225937
 30
0.0
 40
0.2667384350697644
 50
352.6994984817413865
 51
359.8692841802159137
  0
ARC
  5
33E0B
  8
0
 10
7309.9126817162868974
 20
113.137520732130497
 30
0.0
 40
0.1759068289934719
 50
335.2244672106327812
 51
352.6994984817413865
  0
ARC
  5
33E0C
  8
0
 10
7309.8422663106030086
 20
113.1700207348524003
 30
0.0
 40
0.2534605493064264
 50
323.781859190200521
 51
335.2244672106327812
  0
ARC
  5
33E0D
  8
0
 10
7309.8397800019065471
 20
113.1718416469018962
 30
0.0
 40
0.2565423428799934
 50
303.4323014208023892
 51
323.781859190200521
  0
ARC
  5
33E0E
  8
0
 10
7309.7274033934209001
 20
113.3420608284825022
 30
0.0
 40
0.4605106539306865
 50
287.5593724241729774
 51
303.4323014208023892
  0
ARC
  5
33E0F
  8
0
 10
7309.7332044323511582
 20
113.3237285447931981
 30
0.0
 40
0.4412824278573694
 50
275.6952090496911865
 51
287.5593724241729774
  0
ARC
  5
33E10
  8
0
 10
7309.5913883636349055
 20
116.0742267520686966
 30
0.0
 40
3.1949982213757631
 50
272.0399207229258991
 51
273.3303655632570894
  0
ARC
  5
33E11
  8
0
 10
7309.9017778735797037
 20
113.1199918931875033
 30
0.0
 40
0.1859823696919406
 50
340.4867047079065969
 51
0.0681155402472827
  0
ARC
  5
33E12
  8
0
 10
7309.8713713840397759
 20
113.1307673370227036
 30
0.0
 40
0.21824170626348
 50
316.7015327842721035
 51
340.4867047079065969
  0
ARC
  5
33E13
  8
0
 10
7309.7846893110154269
 20
113.2124480122958943
 30
0.0
 40
0.3373446638114633
 50
301.1225550292749062
 51
316.7015327842721035
  0
ARC
  5
33E14
  8
0
 10
7309.7554174786091608
 20
113.2609293224931974
 30
0.0
 40
0.3939774953754993
 50
285.9763665083403907
 51
301.1225550292749062
  0
ARC
  5
33E15
  8
0
 10
7309.7052128189961877
 20
113.4362867371539068
 30
0.0
 40
0.5763801563300605
 50
277.351189153621192
 51
285.9763665083403907
  0
ARC
  5
33E16
  8
0
 10
7309.6619887892584302
 20
114.5529865533825955
 30
0.0
 40
1.69238963572794
 50
271.4602590881432889
 51
273.9632518482217733
  0
ARC
  5
33E17
  8
0
 10
7309.8995199348337337
 20
113.0893713380309009
 30
0.0
 40
0.1865625361318797
 50
335.5468364550923752
 51
1.588320313014826
  0
ARC
  5
33E18
  8
0
 10
7309.8719748195089778
 20
113.1006506672134009
 30
0.0
 40
0.2163088996049565
 50
326.0414773338691816
 51
335.8473984152815888
  0
ARC
  5
33E19
  8
0
 10
7309.8116100156275934
 20
113.1472038308082944
 30
0.0
 40
0.2924232189675222
 50
300.0344008827682956
 51
325.0825639458834075
  0
ARC
  5
33E1A
  8
0
 10
7309.7417502508205871
 20
113.2603473196674031
 30
0.0
 40
0.4253579846941926
 50
284.251462723957502
 51
300.5528395022269024
  0
ARC
  5
33E1B
  8
0
 10
7309.6575991076060745
 20
113.8728542878069021
 30
0.0
 40
1.0420328873102609
 50
272.6136550384322845
 51
280.4423802039606812
  0
ARC
  5
33E1C
  8
0
 10
7309.8471727042851853
 20
113.0871701767917017
 30
0.0
 40
0.2354066513224047
 50
311.7334330966259017
 51
343.6386251927772264
  0
ARC
  5
33E1D
  8
0
 10
7309.7575483701330086
 20
113.1876442238268936
 30
0.0
 40
0.3700452616822749
 50
299.5397439722688091
 51
311.7334330966259017
  0
ARC
  5
33E1E
  8
0
 10
7309.7469239551737701
 20
113.2063924577360012
 30
0.0
 40
0.391594611276894
 50
285.6054363600230204
 51
299.5397439722688091
  0
ARC
  5
33E1F
  8
0
 10
7309.6892219828287125
 20
113.4129820193519009
 30
0.0
 40
0.6060911487341285
 50
277.1378946444143025
 51
285.6054363600230204
  0
ARC
  5
33E20
  8
0
 10
7311.3766143034135894
 20
83.2723501095369869
 30
0.0
 40
29.5831943027608411
 50
93.1237735492187539
 51
93.2390273447562237
  0
ARC
  5
33E21
  8
0
 10
7309.5173983041422616
 20
113.4547784040787946
 30
0.0
 40
0.2138941664958001
 50
191.3436907789487975
 51
211.5578475387355013
  0
ARC
  5
33E22
  8
0
 10
7309.5616796918966429
 20
113.4819756082004005
 30
0.0
 40
0.2658607828330366
 50
211.5578475387355013
 51
228.7913283582074087
  0
ARC
  5
33E23
  8
0
 10
7309.6321571525595573
 20
113.5624567823694946
 30
0.0
 40
0.3728387799031191
 50
228.7913283582074087
 51
239.0145279768784121
  0
ARC
  5
33E24
  8
0
 10
7309.6330948046670528
 20
113.5640181941935936
 30
0.0
 40
0.3746600976559158
 50
239.0145279768784121
 51
244.8408249263368077
  0
ARC
  5
33E25
  8
0
 10
7309.5151480402400921
 20
113.4204520535713954
 30
0.0
 40
0.2095584052846603
 50
186.9623308851020056
 51
211.5622518464861912
  0
ARC
  5
33E26
  8
0
 10
7309.5656925439052429
 20
113.4515013547395057
 30
0.0
 40
0.2688779295054045
 50
211.5622518464861912
 51
227.3635397038860049
  0
ARC
  5
33E27
  8
0
 10
7309.6160623934629257
 20
113.5062082429611934
 30
0.0
 40
0.3432416663901674
 50
227.3635397038860049
 51
235.7882160589117859
  0
ARC
  5
33E28
  8
0
 10
7309.6352360124610641
 20
113.5344088887255936
 30
0.0
 40
0.3773430459364894
 50
235.7882160589117859
 51
244.8497137662220098
  0
LINE
  5
33E29
  8
0
 10
7309.4738138834900383
 20
113.2249020239439972
 30
0.0
 11
7309.4748674664906503
 21
113.192839417344004
 31
0.0
  0
LINE
  5
33E2A
  8
0
 10
7308.9946468282323622
 20
113.8835902570691019
 30
0.0
 11
7308.9946468282323622
 21
112.2744294311440996
 31
0.0
  0
LINE
  5
33E2B
  8
0
 10
7309.0340468282338406
 20
112.235029431144099
 30
0.0
 11
7310.3761870097478095
 21
112.235029431144099
 31
0.0
  0
ARC
  5
33E2C
  8
0
 10
7309.0340468282338406
 20
112.2744294311440001
 30
0.0
 40
0.0394
 50
179.9999999999901945
 51
270.0
  0
LINE
  5
33E2D
  8
0
 10
7310.415587009749288
 20
113.8835902570691019
 30
0.0
 11
7310.415587009749288
 21
112.2744294311440996
 31
0.0
  0
ARC
  5
33E2E
  8
0
 10
7310.3761870097478095
 20
112.2744294311440001
 30
0.0
 40
0.0394
 50
270.0
 51
0.0000000000097707
  0
ARC
  5
33E2F
  8
0
 10
7309.7051169189908251
 20
133.5042675682678066
 30
0.0
 40
21.2798220387386401
 50
268.1928486211103859
 51
271.8071513788896141
  0
ENDSEC
  0
EOF
