  0
SECTION
  2
HEADER
  9
$ACADVER
  1
AC1009
  9
$INSBASE
 10
6698.7461726226365499
 20
248.5644466342000101
 30
0.0
  9
$EXTMIN
 10
6692.7091906583373202
 20
239.1897920946049112
 30
0.0
  9
$EXTMAX
 10
6698.7577904315576234
 20
261.742681229384516
 30
0.0
  9
$LIMMIN
 10
0.0
 20
0.0
  9
$LIMMAX
 10
11.6929133858000007
 20
8.2677165353999982
  9
$ORTHOMODE
 70
     0
  9
$REGENMODE
 70
     1
  9
$FILLMODE
 70
     1
  9
$QTEXTMODE
 70
     0
  9
$MIRRTEXT
 70
     0
  9
$DRAGMODE
 70
     2
  9
$LTSCALE
 40
0.6431102362
  9
$OSMODE
 70
  4095
  9
$ATTMODE
 70
     1
  9
$TEXTSIZE
 40
0.2
  9
$TRACEWID
 40
0.05
  9
$TEXTSTYLE
  7
STANDARD
  9
$CLAYER
  8
0
  9
$CELTYPE
  6
BYLAYER
  9
$CECOLOR
 62
   256
  9
$DIMSCALE
 40
1.0
  9
$DIMASZ
 40
0.1875
  9
$DIMEXO
 40
0.0625
  9
$DIMDLI
 40
0.4443307087
  9
$DIMRND
 40
0.0
  9
$DIMDLE
 40
0.0
  9
$DIMEXE
 40
0.125
  9
$DIMTP
 40
0.01
  9
$DIMTM
 40
0.01
  9
$DIMTXT
 40
2.0
  9
$DIMCEN
 40
0.1052362205
  9
$DIMTSZ
 40
0.0
  9
$DIMTOL
 70
     1
  9
$DIMLIM
 70
     0
  9
$DIMTIH
 70
     1
  9
$DIMTOH
 70
     1
  9
$DIMSE1
 70
     0
  9
$DIMSE2
 70
     0
  9
$DIMTAD
 70
     0
  9
$DIMZIN
 70
     0
  9
$DIMBLK
  1

  9
$DIMASO
 70
     1
  9
$DIMSHO
 70
     1
  9
$DIMPOST
  1
\X
  9
$DIMAPOST
  1

  9
$DIMALT
 70
     1
  9
$DIMALTD
 70
     2
  9
$DIMALTF
 40
25.3999999999999986
  9
$DIMLFAC
 40
1.0
  9
$DIMTOFL
 70
     0
  9
$DIMTVP
 40
0.0
  9
$DIMTIX
 70
     0
  9
$DIMSOXD
 70
     0
  9
$DIMSAH
 70
     0
  9
$DIMBLK1
  1

  9
$DIMBLK2
  1

  9
$DIMSTYLE
  2
STANDARD
  9
$DIMCLRD
 70
     0
  9
$DIMCLRE
 70
     0
  9
$DIMCLRT
 70
     0
  9
$DIMTFAC
 40
1.0
  9
$DIMGAP
 40
0.09
  9
$LUNITS
 70
     2
  9
$LUPREC
 70
     4
  9
$SKETCHINC
 40
0.1
  9
$FILLETRAD
 40
0.0
  9
$AUNITS
 70
     0
  9
$AUPREC
 70
     0
  9
$MENU
  1
.
  9
$ELEVATION
 40
0.0
  9
$PELEVATION
 40
0.0
  9
$THICKNESS
 40
0.0
  9
$LIMCHECK
 70
     0
  9
$BLIPMODE
 70
     0
  9
$CHAMFERA
 40
0.0
  9
$CHAMFERB
 40
0.0
  9
$SKPOLY
 70
     0
  9
$TDCREATE
 40
2458060.468368056230247
  9
$TDUPDATE
 40
2460532.6475694440305233
  9
$TDINDWG
 40
0.9764075231
  9
$TDUSRTIMER
 40
0.9764075231
  9
$USRTIMER
 70
     1
  9
$ANGBASE
 50
0.0
  9
$ANGDIR
 70
     0
  9
$PDMODE
 70
     0
  9
$PDSIZE
 40
0.3125
  9
$PLINEWID
 40
0.0
  9
$COORDS
 70
     0
  9
$SPLFRAME
 70
     0
  9
$SPLINETYPE
 70
     6
  9
$SPLINESEGS
 70
     8
  9
$ATTDIA
 70
     1
  9
$ATTREQ
 70
     1
  9
$HANDLING
 70
     1
  9
$HANDSEED
  5
30882
  9
$SURFTAB1
 70
     6
  9
$SURFTAB2
 70
     6
  9
$SURFTYPE
 70
     6
  9
$SURFU
 70
     6
  9
$SURFV
 70
     6
  9
$UCSNAME
  2

  9
$UCSORG
 10
0.0
 20
0.0
 30
0.0
  9
$UCSXDIR
 10
1.0
 20
0.0
 30
0.0
  9
$UCSYDIR
 10
0.0
 20
1.0
 30
0.0
  9
$PUCSNAME
  2

  9
$PUCSORG
 10
0.0
 20
0.0
 30
0.0
  9
$PUCSXDIR
 10
1.0
 20
0.0
 30
0.0
  9
$PUCSYDIR
 10
0.0
 20
1.0
 30
0.0
  9
$USERI1
 70
     0
  9
$USERI2
 70
     0
  9
$USERI3
 70
     0
  9
$USERI4
 70
     0
  9
$USERI5
 70
     0
  9
$USERR1
 40
0.0
  9
$USERR2
 40
0.0
  9
$USERR3
 40
0.0
  9
$USERR4
 40
0.0
  9
$USERR5
 40
0.0
  9
$WORLDVIEW
 70
     1
  9
$SHADEDGE
 70
     3
  9
$SHADEDIF
 70
    70
  9
$TILEMODE
 70
     1
  9
$MAXACTVP
 70
    64
  9
$PLIMCHECK
 70
     0
  9
$PEXTMIN
 10
1.0000000000000000E+20
 20
1.0000000000000000E+20
 30
1.0000000000000000E+20
  9
$PEXTMAX
 10
-1.0000000000000000E+20
 20
-1.0000000000000000E+20
 30
-1.0000000000000000E+20
  9
$PLIMMIN
 10
0.0
 20
0.0
  9
$PLIMMAX
 10
12.0
 20
9.0
  9
$UNITMODE
 70
     0
  9
$VISRETAIN
 70
     1
  9
$PLINEGEN
 70
     0
  9
$PSLTSCALE
 70
     1
  0
ENDSEC
  0
SECTION
  2
TABLES
  0
TABLE
  2
VPORT
 70
     1
  0
VPORT
  2
*ACTIVE
 70
     0
 10
0.0
 20
0.0
 11
1.0
 21
1.0
 12
2784.3681340996358813
 22
117.8866315594555942
 13
0.0
 23
0.0
 14
1.0
 24
1.0
 15
0.0
 25
0.0
 16
0.0
 26
0.0
 36
60.4960186965801583
 17
3911.3653564453120453
 27
132.5796051025390057
 37
0.0
 40
22.7107856748130388
 41
2.218457943925233
 42
50.0
 43
0.0
 44
0.0
 50
0.0
 51
0.0
 71
     0
 72
   100
 73
     1
 74
     1
 75
     0
 76
     0
 77
     0
 78
     0
  0
ENDTAB
  0
TABLE
  2
LTYPE
 70
     2
  0
LTYPE
  2
CONTINUOUS
 70
     0
  3
Solid line
 72
    65
 73
     0
 40
0.0
  0
LTYPE
  2
PHANTOM2
 70
     0
  3
___ _ _ ___ _ _ ___ _ _ ___ _ _
 72
    65
 73
     6
 40
1.25
 49
0.625
 49
-0.125
 49
0.125
 49
-0.125
 49
0.125
 49
-0.125
  0
ENDTAB
  0
TABLE
  2
LAYER
 70
     2
  0
LAYER
  2
0
 70
     0
 62
   255
  6
CONTINUOUS
  0
LAYER
  2
DEFPOINTS
 70
     0
 62
     7
  6
CONTINUOUS
  0
ENDTAB
  0
TABLE
  2
STYLE
 70
     1
  0
STYLE
  2
STANDARD
 70
     0
 40
0.0
 41
0.8
 50
0.0
 71
     0
 42
0.2
  3
txt
  4

  0
ENDTAB
  0
TABLE
  2
VIEW
 70
     0
  0
ENDTAB
  0
TABLE
  2
UCS
 70
     0
  0
ENDTAB
  0
TABLE
  2
APPID
 70
    11
  0
APPID
  2
ACAD
 70
     0
  0
APPID
  2
ACAD_MLEADERVER
 70
     0
  0
APPID
  2
ACAD_EXEMPT_FROM_CAD_STANDARDS
 70
     0
  0
APPID
  2
ACAD_NAV_VCDISPLAY
 70
     0
  0
APPID
  2
ACAECLAYERSTANDARD
 70
     0
  0
APPID
  2
ACCMTRANSPARENCY
 70
     0
  0
APPID
  2
ACAD_DSTYLE_DIMJAG
 70
     0
  0
APPID
  2
ACAD_DSTYLE_DIMTALN
 70
     0
  0
APPID
  2
ACDBATTR
 70
     0
  0
APPID
  2
ACADANNOTATIVE
 70
     0
  0
APPID
  2
DCO15
 70
     0
  0
ENDTAB
  0
TABLE
  2
DIMSTYLE
 70
     1
  0
DIMSTYLE
  2
STANDARD
 70
     0
  3

  4

  5

  6

  7

 40
1.0
 41
0.1875
 42
0.0625
 43
0.38
 44
0.125
 45
0.0
 46
0.0
 47
0.01
 48
0.01
140
0.15625
141
0.09
142
0.0
143
25.3999999999999986
144
1.0
145
0.0
146
1.0
147
0.09
 71
     1
 72
     0
 73
     1
 74
     1
 75
     0
 76
     0
 77
     0
 78
     4
170
     0
171
     2
172
     0
173
     0
174
     0
175
     0
176
     0
177
     0
178
     0
  0
ENDTAB
  0
ENDSEC
  0
SECTION
  2
BLOCKS
  0
BLOCK
  8
0
  2
$MODEL_SPACE
 70
     0
 10
0.0
 20
0.0
 30
0.0
  3
$MODEL_SPACE
  1

  0
ENDBLK
  5
21
  8
0
  0
BLOCK
 67
     1
  8
0
  2
$PAPER_SPACE
 70
     0
 10
0.0
 20
0.0
 30
0.0
  3
$PAPER_SPACE
  1

  0
ENDBLK
  5
1D
 67
     1
  8
0
  0
BLOCK
  8
0
  2
_FILLED
 70
     0
 10
0.0
 20
0.0
 30
0.0
  3
_FILLED
  1

  0
SOLID
  5
26C2A
  8
0
  6
BYBLOCK
 62
     0
 10
0.0
 20
0.0
 30
0.0
 11
-1.0
 21
0.1666666667
 31
0.0
 12
-1.0
 22
-0.1666666667
 32
0.0
 13
-1.0
 23
-0.1666666667
 33
0.0
  0
ENDBLK
  5
26C2B
  8
0
  6
BYBLOCK
 62
     0
  0
ENDSEC
  0
SECTION
  2
ENTITIES
  0
ATTDEF
  5
26A5B
  8
DEFPOINTS
 10
6698.7471237648896931
 20
248.5681889086251886
 30
0.0
 40
0.001
  1
K-TLS35327-4
  3

  2
MODELNUMBER
 70
     0
1001
ACDBATTR
1070
     0
1070
     1
  0
ATTDEF
  5
26A5C
  8
DEFPOINTS
 10
6698.7469979552315635
 20
248.566522068246087
 30
0.0
 40
0.001
  1
ELATE/ RITE TEMP
  3

  2
TRADENAME
 70
     0
1001
ACDBATTR
1070
     0
1070
     1
  0
ATTDEF
  5
26A5D
  8
DEFPOINTS
 10
6698.7471237648896931
 20
248.5648555752918867
 30
0.0
 40
0.001
  1
BATH AND SHOWER TRIM
  3

  2
PRODUCT
 70
     0
1001
ACDBATTR
1070
     0
1070
     1
  0
LINE
  5
30667
  8
0
 10
6698.7461726226365499
 20
241.9251434772781124
 30
0.0
 11
6698.7461726226365499
 21
239.2074153219218999
 31
0.0
  0
LINE
  5
30668
  8
0
 10
6698.4799596236407524
 20
239.8506759018914067
 30
0.0
 11
6698.4799596236407524
 21
241.2736265639184126
 31
0.0
  0
LINE
  5
30669
  8
0
 10
6698.7341666842394261
 20
241.9369416800809063
 30
0.0
 11
6698.5271714192749641
 21
241.9333285642665032
 31
0.0
  0
ARC
  5
3066A
  8
0
 10
6698.7343726226372382
 20
241.9251434772781124
 30
0.0
 40
0.0118
 50
0.0000000000048853
 51
91.0000000068032193
  0
LINE
  5
3066B
  8
0
 10
6698.4878695155366586
 20
241.8933346564602971
 30
0.0
 11
6698.4878695155366586
 21
239.2309678157280928
 31
0.0
  0
ARC
  5
3066C
  8
0
 10
6698.5278695155366222
 20
241.8933346564602971
 30
0.0
 40
0.04
 50
91.0000000068032193
 51
180.0000000000015916
  0
LINE
  5
3066D
  8
0
 10
6698.4733958361366604
 20
241.2771512329049131
 30
0.0
 11
6692.7591749551384055
 21
241.2771512329049131
 31
0.0
  0
LINE
  5
3066E
  8
0
 10
6698.4733958361366604
 20
239.8471512329049062
 30
0.0
 11
6695.8600191515261031
 21
239.8471512329049062
 31
0.0
  0
LINE
  5
3066F
  8
0
 10
6695.6160420507967501
 20
239.8471512329049062
 30
0.0
 11
6694.4975526801372325
 21
239.8471512329049062
 31
0.0
  0
LINE
  5
30670
  8
0
 10
6692.9814393896367619
 20
239.8471512329049062
 30
0.0
 11
6692.7591749551384055
 21
239.8471512329049062
 31
0.0
  0
ARC
  5
30671
  8
0
 10
6698.4733958361366604
 20
239.8550252486049033
 30
0.0
 40
0.007874015699998
 50
270.0
 51
326.47044643773188
  0
ARC
  5
30672
  8
0
 10
6698.4733958361366604
 20
241.2692772172048876
 30
0.0
 40
0.0078740157000082
 50
33.5295535622817127
 51
90.0
  0
LINE
  5
30673
  8
0
 10
6698.4799596236407524
 20
241.2736265639184126
 30
0.0
 11
6698.4878695155366586
 21
241.8933346564602971
 31
0.0
  0
LINE
  5
30674
  8
0
 10
6698.5271891477250392
 20
239.1909736024011863
 30
0.0
 11
6698.5966419848382429
 21
239.1897920946049112
 31
0.0
  0
ARC
  5
30675
  8
0
 10
6698.732776318795004
 20
237.674509465767386
 30
0.0
 40
1.5213855534146521
 50
92.990675437089763
 51
95.1337211212124885
  0
ARC
  5
30676
  8
0
 10
6698.725599040410998
 20
237.7618975124748033
 30
0.0
 40
1.4337444348666619
 50
89.6522470654600454
 51
92.8864468607576583
  0
ARC
  5
30677
  8
0
 10
6698.5278695155366222
 20
239.2309678157280928
 30
0.0
 40
0.04
 50
180.0000000000032117
 51
269.0253978977584097
  0
ARC
  5
30678
  8
0
 10
6698.7343726226372382
 20
239.2074153219218999
 30
0.0
 40
0.0118
 50
269.652247065355823
 51
0.0000000000602524
  0
LINE
  5
30679
  8
0
 10
6698.4799596236407524
 20
239.8506759018914067
 30
0.0
 11
6698.4878695155366586
 21
239.2309678157280928
 31
0.0
  0
LINE
  5
3067A
  8
0
 10
6692.7197749551360175
 20
239.8865512329049068
 30
0.0
 11
6692.7197749551360175
 21
241.2377512329049125
 31
0.0
  0
ARC
  5
3067B
  8
0
 10
6692.7591749551384055
 20
239.8865512329049068
 30
0.0
 40
0.0394
 50
179.9999999999934914
 51
270.0
  0
ARC
  5
3067C
  8
0
 10
6692.7591749551384055
 20
241.2377512329049125
 30
0.0
 40
0.0394
 50
90.0
 51
180.0000000000015916
  0
ARC
  5
3067D
  8
0
 10
6714.2763951673096017
 20
240.5621512329049096
 30
0.0
 40
21.5672045089734787
 50
178.2048965997167898
 51
181.7951034002830966
  0
LINE
  5
3067E
  8
0
 10
6693.085939389637133
 20
239.6771512329048903
 30
0.0
 11
6694.3930526801368615
 21
239.6771512329048903
 31
0.0
  0
LINE
  5
3067F
  8
0
 10
6693.0544393896370821
 20
239.7741512329048987
 30
0.0
 11
6693.0544393896370821
 21
239.7086512329049128
 31
0.0
  0
LINE
  5
30680
  8
0
 10
6694.4245526801360029
 20
239.7741512329048987
 30
0.0
 11
6694.4245526801360029
 21
239.7086512329049128
 31
0.0
  0
ARC
  5
30681
  8
0
 10
6692.9814393896367619
 20
239.7741512329048987
 30
0.0
 40
0.073
 50
359.9999999999968168
 51
90.0
  0
ARC
  5
30682
  8
0
 10
6694.4975526801372325
 20
239.7741512329048987
 30
0.0
 40
0.073
 50
90.0
 51
180.0000000000032117
  0
ARC
  5
30683
  8
0
 10
6695.7380306011618813
 20
239.1831555090429902
 30
0.0
 40
0.6751085303319853
 50
79.5897718112979362
 51
100.4102281887021064
  0
ARC
  5
30684
  8
0
 10
6694.3930526801368615
 20
239.7086512329049128
 30
0.0
 40
0.0315
 50
270.0
 51
0.0000000000048853
  0
ARC
  5
30685
  8
0
 10
6693.085939389637133
 20
239.7086512329049128
 30
0.0
 40
0.0315
 50
179.9999999999934914
 51
270.0
  0
ARC
  5
30686
  8
0
 10
6496.566891188511363
 20
458.5321525683784216
 30
0.0
 40
294.0449281085828943
 50
311.9300534285172262
 51
312.0259535791802818
  0
ARC
  5
30687
  8
0
 10
6694.7160539411061109
 20
238.6233002253239874
 30
0.0
 40
1.967088208653528
 50
125.5735699613517937
 51
131.2014851528541044
  0
ARC
  5
30688
  8
0
 10
6693.8501065684677087
 20
239.8340222690133885
 30
0.0
 40
0.4785611785819602
 50
114.5487019589988051
 51
125.5735699613517937
  0
ARC
  5
30689
  8
0
 10
6693.7441847514928668
 20
240.0659239115367996
 30
0.0
 40
0.2236145113821963
 50
91.1989725317683053
 51
114.5487019589988051
  0
ARC
  5
3068A
  8
0
 10
6693.7318863054506437
 20
240.0465295662243932
 30
0.0
 40
0.2430793447166127
 50
57.9926920535099697
 51
88.2037450181780969
  0
ARC
  5
3068B
  8
0
 10
6692.568824780129944
 20
238.3237983253104062
 30
0.0
 40
2.3215293660439169
 50
45.6909864022405614
 51
56.1868229864573721
  0
ARC
  5
3068C
  8
0
 10
6696.9252734444244197
 20
242.7850979416789983
 30
0.0
 40
3.914001076138542
 50
225.675500821206299
 51
230.2889099536837989
  0
LINE
  5
3068D
  8
0
 10
6695.6379997134372388
 20
239.841151232904906
 30
0.0
 11
6695.8379997134370569
 21
239.841151232904906
 31
0.0
  0
LINE
  5
3068E
  8
0
 10
6695.6296442360207948
 20
239.8495067104215082
 30
0.0
 11
6695.6379997134372388
 21
239.841151232904906
 31
0.0
  0
LINE
  5
3068F
  8
0
 10
6695.8463638315006392
 20
239.8495153509686872
 30
0.0
 11
6695.8379997134370569
 21
239.841151232904906
 31
0.0
  0
LINE
  5
30690
  8
0
 10
6698.7461726226365499
 20
251.7898049736378141
 30
0.0
 11
6698.7461726226365499
 21
245.339088294762206
 31
0.0
  0
LINE
  5
30691
  8
0
 10
6697.8155803095369265
 20
251.7316983624307056
 30
0.0
 11
6697.8155803095369265
 21
245.3919423239319997
 31
0.0
  0
LINE
  5
30692
  8
0
 10
6698.7261288102299659
 20
251.8095019732323863
 30
0.0
 11
6697.877480807928805
 21
251.7946887672254945
 31
0.0
  0
ARC
  5
30693
  8
0
 10
6698.7264726226367202
 20
251.7898049736378141
 30
0.0
 40
0.0197
 50
359.9999999999919282
 51
91.0000000017477362
  0
ARC
  5
30694
  8
0
 10
6697.8785803095379379
 20
251.7316983624307056
 30
0.0
 40
0.063
 50
91.0000000017477362
 51
179.9999999999984084
  0
LINE
  5
30695
  8
0
 10
6697.8774808079351715
 20
245.3289519191370971
 30
0.0
 11
6698.6788999375257845
 21
245.3149630962284107
 31
0.0
  0
ARC
  5
30696
  8
0
 10
6698.6792434888320713
 20
245.3346451373747072
 30
0.0
 40
0.0196850392730335
 50
269.0000000023695748
 51
308.667089968811581
  0
ARC
  5
30697
  8
0
 10
6698.6898832190563553
 20
245.2653668485228025
 30
0.0
 40
0.0538887231154216
 50
89.4620485519159985
 51
101.760086309380398
  0
ARC
  5
30698
  8
0
 10
6698.7174626541063844
 20
243.9345462817782959
 30
0.0
 40
1.3849715566547569
 50
89.628380337392926
 51
91.1200915574848551
  0
ARC
  5
30699
  8
0
 10
6698.7265726226369225
 20
245.339088294762206
 30
0.0
 40
0.0196
 50
269.6283803373407864
 51
0.0000000000179129
  0
LINE
  5
3069A
  8
0
 10
6698.6788999375366984
 20
245.3181244262351015
 30
0.0
 11
6698.6788999375366984
 21
245.314963096228297
 31
0.0
  0
ARC
  5
3069B
  8
0
 10
6697.8785803095379379
 20
245.3919423239319997
 30
0.0
 40
0.063
 50
180.0000000000015916
 51
269.0000000023695748
  0
LINE
  5
3069C
  8
0
 10
6697.7830019968569104
 20
249.750712576006805
 30
0.0
 11
6697.7830019968569104
 21
247.2699030022502882
 31
0.0
  0
ARC
  5
3069D
  8
0
 10
6829.7103442792322312
 20
248.5718615172561954
 30
0.0
 40
131.932609052915609
 50
178.6276127675141083
 51
179.488040980782614
  0
ARC
  5
3069E
  8
0
 10
6888.2518050835396934
 20
249.634837181199714
 30
0.0
 40
190.4834844886680116
 50
180.7113699592609066
 51
181.2763315180770007
  0
LINE
  5
3069F
  8
0
 10
6694.8068748482373849
 20
249.6682551406269113
 30
0.0
 11
6694.8068748482373849
 21
247.4553855458258056
 31
0.0
  0
LINE
  5
306A0
  8
0
 10
6697.7012590346867
 20
249.7153114251372017
 30
0.0
 11
6694.8263873922242055
 21
249.6879542487347123
 31
0.0
  0
ARC
  5
306A1
  8
0
 10
6694.8265748482372146
 20
249.6682551406269113
 30
0.0
 40
0.0197
 50
90.5452081456073472
 51
180.0
  0
ARC
  5
306A2
  8
0
 10
6697.7122356148365725
 20
248.5618203432314886
 30
0.0
 40
1.1535433070967931
 50
86.4828693152552432
 51
90.5452081456073472
  0
LINE
  5
306A3
  8
0
 10
6697.7012590346821526
 20
247.4083292613061076
 30
0.0
 11
6694.8263873922242055
 21
247.4356864377180045
 31
0.0
  0
ARC
  5
306A4
  8
0
 10
6697.7122356148365725
 20
248.5618203432279927
 30
0.0
 40
1.1535433070997649
 50
269.4547918541841796
 51
273.5171306846928019
  0
ARC
  5
306A5
  8
0
 10
6694.8265748482372146
 20
247.4553855458258056
 30
0.0
 40
0.0197
 50
179.9999999999984084
 51
269.4547918541841796
  0
LINE
  5
306A6
  8
0
 10
6694.7871898088360467
 20
249.6602455401283009
 30
0.0
 11
6694.7871898088360467
 21
245.0082126600742924
 31
0.0
  0
LINE
  5
306A7
  8
0
 10
6694.7511719936437657
 20
249.6887010779564093
 30
0.0
 11
6694.4120812520077379
 21
249.682782226998512
 31
0.0
  0
ARC
  5
306A8
  8
0
 10
6694.7517898088381116
 20
249.6533064695479993
 30
0.0
 40
0.0354
 50
0.0000000000032569
 51
91.0000000077934459
  0
LINE
  5
306A9
  8
0
 10
6694.8068748482373849
 20
249.6602455401283009
 30
0.0
 11
6694.7871898088360467
 21
249.6602455401283009
 31
0.0
  0
LINE
  5
306AA
  8
0
 10
6694.7871898088360467
 20
247.4633951464282973
 30
0.0
 11
6694.8068748482373849
 21
247.4633951464282973
 31
0.0
  0
LINE
  5
306AB
  8
0
 10
6694.3775625865182519
 20
245.0139850299096906
 30
0.0
 11
6694.3772990672587184
 21
249.6473856052562894
 31
0.0
  0
LINE
  5
306AC
  8
0
 10
6694.7471021840210597
 20
244.968818660885205
 30
0.0
 11
6694.4162749616389192
 21
244.9745932715497077
 31
0.0
  0
ARC
  5
306AD
  8
0
 10
6694.7477898088382062
 20
245.0082126600742924
 30
0.0
 40
0.0394
 50
268.9999999968970883
 51
0.0000000000016284
  0
ARC
  5
306AE
  8
0
 10
6694.4169625864551563
 20
245.0139872707387951
 30
0.0
 40
0.0394
 50
180.0032586307237068
 51
268.9999999968970883
  0
ARC
  5
306AF
  8
0
 10
6694.4126990672002648
 20
249.6473876185899883
 30
0.0
 40
0.0354
 50
91.0000000077934459
 51
180.0032586307189035
  0
ARC
  5
306B0
  8
0
 10
6533.0612958179217458
 20
244.4176038857166873
 30
0.0
 40
161.317539257050413
 50
0.2278034932542492
 51
0.5093501206822352
  0
ARC
  5
306B1
  8
0
 10
6956.7370610202069656
 20
248.1841114533723953
 30
0.0
 40
262.3749678740066997
 50
180.2792751262296065
 51
180.5093501206821998
  0
ARC
  5
306B2
  8
0
 10
7718.813514718704937
 20
251.8987076265798066
 30
0.0
 40
1024.4604745636479493
 50
180.1923357662805074
 51
180.2792751262296065
  0
ARC
  5
306B3
  8
0
 10
6725.7309353140126404
 20
248.565369723987601
 30
0.0
 40
31.3723009079858883
 50
178.0235035705156008
 51
180.1929676209092861
  0
LINE
  5
306B4
  8
0
 10
6697.036172622637423
 20
246.6071428858498109
 30
0.0
 11
6697.036172622637423
 21
245.9164978006068054
 31
0.0
  0
LINE
  5
306B5
  8
0
 10
6696.9461726226372775
 20
246.5418203432282951
 30
0.0
 11
6696.9461726226372775
 21
245.9818203432282928
 31
0.0
  0
LINE
  5
306B6
  8
0
 10
6696.9067726226367085
 20
246.5693203065283114
 30
0.0
 11
6696.4738025439382909
 21
246.5693203065283114
 31
0.0
  0
LINE
  5
306B7
  8
0
 10
6697.036172622637423
 20
246.5618203432283053
 30
0.0
 11
6696.9661726226358951
 21
246.5618203432283053
 31
0.0
  0
LINE
  5
306B8
  8
0
 10
6697.0658455599614172
 20
246.6373382862435051
 30
0.0
 11
6697.7917077947704456
 21
246.6500082586829876
 31
0.0
  0
ARC
  5
306B9
  8
0
 10
6697.0663726226375729
 20
246.6071428858498109
 30
0.0
 40
0.0302
 50
91.0000000001841869
 51
179.9999999999951115
  0
ARC
  5
306BA
  8
0
 10
6696.9067726226367085
 20
246.5299203065283109
 30
0.0
 40
0.0394
 50
359.9999999999919282
 51
90.0
  0
ARC
  5
306BB
  8
0
 10
6696.9661726226358951
 20
246.5418203432282951
 30
0.0
 40
0.02
 50
90.0
 51
179.9999999999901945
  0
LINE
  5
306BC
  8
0
 10
6696.4068025439373741
 20
245.8551203969282994
 30
0.0
 11
6696.4068025439373741
 21
246.6685202895282885
 31
0.0
  0
LINE
  5
306BD
  8
0
 10
6696.363502543937102
 20
246.7118202895281911
 30
0.0
 11
6696.242645252937109
 21
246.7118202895281911
 31
0.0
  0
LINE
  5
306BE
  8
0
 10
6696.1993452529368369
 20
246.6685202895282885
 30
0.0
 11
6696.1993452529368369
 21
245.8551203969282994
 31
0.0
  0
ARC
  5
306BF
  8
0
 10
6696.4738025439382909
 20
246.6363203065282903
 30
0.0
 40
0.067
 50
180.0
 51
270.0
  0
ARC
  5
306C0
  8
0
 10
6696.363502543937102
 20
246.6685202895282885
 30
0.0
 40
0.0433
 50
0.0
 51
90.0
  0
ARC
  5
306C1
  8
0
 10
6696.242645252937109
 20
246.6685202895282885
 30
0.0
 40
0.0433
 50
90.0
 51
179.9999999999984084
  0
LINE
  5
306C2
  8
0
 10
6696.9067726226367085
 20
245.9543203799283049
 30
0.0
 11
6696.4738025439382909
 21
245.9543203799283049
 31
0.0
  0
LINE
  5
306C3
  8
0
 10
6697.036172622637423
 20
245.961820343228311
 30
0.0
 11
6696.9661726226358951
 21
245.961820343228311
 31
0.0
  0
LINE
  5
306C4
  8
0
 10
6697.0658455599614172
 20
245.8863024002129976
 30
0.0
 11
6697.8054625205049888
 21
245.8733923381427076
 31
0.0
  0
ARC
  5
306C5
  8
0
 10
6697.0663726226375729
 20
245.9164978006068054
 30
0.0
 40
0.0302
 50
180.0000000000048885
 51
268.9999999998158273
  0
ARC
  5
306C6
  8
0
 10
6696.9067726226367085
 20
245.9937203799283054
 30
0.0
 40
0.0394
 50
270.0
 51
0.0000000000081422
  0
ARC
  5
306C7
  8
0
 10
6696.9661726226358951
 20
245.9818203432282928
 30
0.0
 40
0.02
 50
180.0000000000081002
 51
270.0
  0
LINE
  5
306C8
  8
0
 10
6696.363502543937102
 20
245.8118203969283115
 30
0.0
 11
6696.242645252937109
 21
245.8118203969283115
 31
0.0
  0
ARC
  5
306C9
  8
0
 10
6696.4738025439382909
 20
245.8873203799282976
 30
0.0
 40
0.067
 50
90.0
 51
180.0
  0
ARC
  5
306CA
  8
0
 10
6696.363502543937102
 20
245.8551203969282994
 30
0.0
 40
0.0433
 50
270.0
 51
0.0
  0
ARC
  5
306CB
  8
0
 10
6696.242645252937109
 20
245.8551203969282994
 30
0.0
 40
0.0433
 50
180.0000000000015916
 51
270.0
  0
ARC
  5
306CC
  8
0
 10
6698.1269296819300507
 20
246.2618203432282087
 30
0.0
 40
1.970021973790949
 50
168.085935795729398
 51
191.914064204270602
  0
LINE
  5
306CD
  8
0
 10
6698.7341667249293096
 20
261.7426794328973756
 30
0.0
 11
6698.6351740600275662
 21
261.7409518509991244
 31
0.0
  0
LINE
  5
306CE
  8
0
 10
6698.3918419140381957
 20
260.9948576708014798
 30
0.0
 11
6698.3918419140381957
 21
260.1287157704983883
 31
0.0
  0
ARC
  5
306CF
  8
0
 10
6699.8951607229873844
 20
260.9948576708014798
 30
0.0
 40
1.50331880898088
 50
152.0642910070091887
 51
180.0
  0
LINE
  5
306D0
  8
0
 10
6698.7461726226365499
 20
261.7308812293845222
 30
0.0
 11
6698.7461726226365499
 21
259.3926922119155165
 31
0.0
  0
ARC
  5
306D1
  8
0
 10
6698.7343726226372382
 20
261.7308812293845222
 30
0.0
 40
0.0118
 50
0.0
 51
90.9998024070094687
  0
ARC
  5
306D2
  8
0
 10
6698.6365472930474425
 20
261.6622638326539914
 30
0.0
 40
0.0787
 50
90.9998024069573717
 51
152.0642910070235985
  0
LINE
  5
306D3
  8
0
 10
6698.5670179029330029
 20
261.6991332496564837
 30
0.0
 11
6698.5670179029330029
 21
259.4244401916433844
 31
0.0
  0
LINE
  5
306D4
  8
0
 10
6698.3918419140381957
 20
260.963361608349885
 30
0.0
 11
6696.0176538819641792
 21
260.963361608349885
 31
0.0
  0
LINE
  5
306D5
  8
0
 10
6698.7341667249293096
 20
259.3808940084024925
 30
0.0
 11
6698.6351740600275662
 21
259.3826215903009142
 31
0.0
  0
ARC
  5
306D6
  8
0
 10
6699.8951607229873844
 20
260.1287157704983883
 30
0.0
 40
1.50331880898088
 50
180.0
 51
207.9357089929906977
  0
ARC
  5
306D7
  8
0
 10
6698.7343726226372382
 20
259.3926922119155165
 30
0.0
 40
0.0118
 50
269.0001975929906166
 51
0.0
  0
ARC
  5
306D8
  8
0
 10
6698.6365472930474425
 20
259.4613096086458768
 30
0.0
 40
0.0787
 50
207.9357089929764015
 51
269.0001975930426283
  0
LINE
  5
306D9
  8
0
 10
6698.3918419140381957
 20
260.1602118329499831
 30
0.0
 11
6695.8518601035475513
 21
260.1602118329499831
 31
0.0
  0
LINE
  5
306DA
  8
0
 10
6694.4222795622499689
 20
260.30253592806298
 30
0.0
 11
6693.6625862245091412
 21
259.5428425903215839
 31
0.0
  0
LINE
  5
306DB
  8
0
 10
6695.1070645310728651
 20
259.8517074057231753
 30
0.0
 11
6694.2303929698209686
 21
258.9750358448224006
 31
0.0
  0
ARC
  5
306DC
  8
0
 10
6696.0176538819641792
 20
258.7071616083500203
 30
0.0
 40
2.2562000000000002
 50
90.0
 51
135.0000000000046043
  0
ARC
  5
306DD
  8
0
 10
6695.8518601035475513
 20
259.1069118329500043
 30
0.0
 40
1.053299999999999
 50
90.0
 51
134.9999999885058912
  0
LINE
  5
306DE
  8
0
 10
6693.6129844570496061
 20
259.4892127284724097
 30
0.0
 11
6693.621976255069967
 21
259.4606209355399074
 31
0.0
  0
LINE
  5
306DF
  8
0
 10
6693.6100637911940794
 20
259.4487085014432068
 30
0.0
 11
6693.5833056253522955
 21
259.4571237178308252
 31
0.0
  0
LINE
  5
306E0
  8
0
 10
6693.6625862245091412
 20
259.5428425903215839
 30
0.0
 11
6693.6129844570496061
 21
259.4892127284724097
 31
0.0
  0
LINE
  5
306E1
  8
0
 10
6693.5833056253522955
 20
259.4571237178308252
 30
0.0
 11
6693.5635338661613787
 21
259.4357463200421989
 31
0.0
  0
LINE
  5
306E2
  8
0
 10
6693.5358344202768421
 20
259.4057974385361831
 30
0.0
 11
6693.5141168523095985
 21
259.3823162153963153
 31
0.0
  0
LINE
  5
306E3
  8
0
 10
6693.488405577127196
 20
259.3545169613246912
 30
0.0
 11
6693.4646940813518086
 21
259.328879886118898
 31
0.0
  0
LINE
  5
306E4
  8
0
 10
6693.4409163415539297
 20
259.3031711872989149
 30
0.0
 11
6693.4152446982334368
 21
259.2754147835390768
 31
0.0
  0
LINE
  5
306E5
  8
0
 10
6693.393490743901566
 20
259.2518942191487099
 30
0.0
 11
6693.3658801753617809
 21
259.2220414325987008
 31
0.0
  0
LINE
  5
306E6
  8
0
 10
6693.346037030176376
 20
259.2005868516534974
 30
0.0
 11
6693.3164904564409881
 21
259.1686408394695036
 31
0.0
  0
LINE
  5
306E7
  8
0
 10
6693.2985670610250963
 20
259.149261908652079
 30
0.0
 11
6693.2930310621368335
 21
259.1432763385649878
 31
0.0
  0
LINE
  5
306E8
  8
0
 10
6693.5715619589391281
 20
259.4102202586446992
 30
0.0
 11
6693.5635338661613787
 21
259.4357463200421989
 31
0.0
  0
LINE
  5
306E9
  8
0
 10
6693.5596495041336311
 20
259.3983076956641867
 30
0.0
 11
6693.5358344202768421
 21
259.4057974385361831
 31
0.0
  0
LINE
  5
306EA
  8
0
 10
6693.5211773715382151
 20
259.359868616226322
 30
0.0
 11
6693.5141168523095985
 21
259.3823162153963153
 31
0.0
  0
LINE
  5
306EB
  8
0
 10
6693.509264616945984
 20
259.3479559421355134
 30
0.0
 11
6693.488405577127196
 21
259.3545169613246912
 31
0.0
  0
LINE
  5
306EC
  8
0
 10
6693.4708103337816283
 20
259.3094291526074926
 30
0.0
 11
6693.4646940813518086
 21
259.328879886118898
 31
0.0
  0
LINE
  5
306ED
  8
0
 10
6693.4588981639735721
 20
259.2975169259473773
 30
0.0
 11
6693.4409163415539297
 21
259.3031711872989149
 31
0.0
  0
LINE
  5
306EE
  8
0
 10
6693.4203778632745525
 20
259.2590966929506067
 30
0.0
 11
6693.4152446982334368
 21
259.2754147835390768
 31
0.0
  0
LINE
  5
306EF
  8
0
 10
6693.4084649719143272
 20
259.2471837973864126
 30
0.0
 11
6693.393490743901566
 21
259.2518942191487099
 31
0.0
  0
LINE
  5
306F0
  8
0
 10
6693.3700783879176015
 20
259.2086822758980134
 30
0.0
 11
6693.3658801753617809
 21
259.2220414325987008
 31
0.0
  0
LINE
  5
306F1
  8
0
 10
6693.358164742396184
 20
259.1967719338015854
 30
0.0
 11
6693.346037030176376
 21
259.2005868516534974
 31
0.0
  0
LINE
  5
306F2
  8
0
 10
6693.3197533540451332
 20
259.1582560163379867
 30
0.0
 11
6693.3164904564409881
 21
259.1686408394695036
 31
0.0
  0
LINE
  5
306F3
  8
0
 10
6693.3078404674934063
 20
259.1463458713944874
 30
0.0
 11
6693.2985670610250963
 21
259.149261908652079
 31
0.0
  0
ARC
  5
306F4
  8
0
 10
6693.6129138412861721
 20
259.4577709081029866
 30
0.0
 40
0.0095
 50
252.5420801719695874
 51
17.4577765892445704
  0
ARC
  5
306F5
  8
0
 10
6693.5624995891403159
 20
259.4073700913436937
 30
0.0
 40
0.0095
 50
252.541859430833199
 51
17.4586608620681183
  0
ARC
  5
306F6
  8
0
 10
6693.5121150734348703
 20
259.3570182209775794
 30
0.0
 40
0.0095
 50
252.5395107791783005
 51
17.4601020406152898
  0
ARC
  5
306F7
  8
0
 10
6693.4617478153340926
 20
259.306579457995781
 30
0.0
 40
0.0095
 50
252.5446010897532858
 51
17.4556723628811099
  0
ARC
  5
306F8
  8
0
 10
6693.4113156575031098
 20
259.256246004163188
 30
0.0
 40
0.0095
 50
252.5380622848090866
 51
17.4619579287808087
  0
ARC
  5
306F9
  8
0
 10
6693.3610153739591624
 20
259.2058341575734062
 30
0.0
 40
0.0095
 50
252.5384038703068086
 51
17.4457069066679082
  0
ARC
  5
306FA
  8
0
 10
6693.3106901881092199
 20
259.1554083816653247
 30
0.0
 40
0.0095
 50
252.5441632270932928
 51
17.4426493174354498
  0
LINE
  5
306FB
  8
0
 10
6693.2937384059368924
 20
259.1324587339000232
 30
0.0
 11
6693.8187745785753577
 21
258.6074225612617852
 31
0.0
  0
LINE
  5
306FC
  8
0
 10
6693.2930310621368335
 20
259.1432763385649878
 30
0.0
 11
6693.2930310621368335
 21
259.1341664145999744
 31
0.0
  0
LINE
  5
306FD
  8
0
 10
6693.2930310621368335
 20
259.1341664145999744
 30
0.0
 11
6693.2937384059368924
 21
259.1324587339000232
 31
0.0
  0
LINE
  5
306FE
  8
0
 10
6694.2303929698209686
 20
258.9750358448224006
 30
0.0
 11
6694.2034758986428642
 21
258.9501404925828183
 31
0.0
  0
LINE
  5
306FF
  8
0
 10
6694.1703078129312416
 20
258.9194636343361253
 30
0.0
 11
6694.1500119272895972
 21
258.9006921558673184
 31
0.0
  0
LINE
  5
30700
  8
0
 10
6694.1190325917796144
 20
258.8720396526059062
 30
0.0
 11
6694.096602556794096
 21
258.8512943189836051
 31
0.0
  0
LINE
  5
30701
  8
0
 10
6694.0676937544376415
 20
258.8245568328443937
 30
0.0
 11
6694.0431224109934192
 21
258.8018310226693188
 31
0.0
  0
LINE
  5
30702
  8
0
 10
6694.0163961386188021
 20
258.7771121384917024
 30
0.0
 11
6693.9897158800113175
 21
258.7524358120256238
 31
0.0
  0
LINE
  5
30703
  8
0
 10
6693.965088824713348
 20
258.7296584744668735
 30
0.0
 11
6693.9362510008513709
 21
258.7029866356867842
 31
0.0
  0
LINE
  5
30704
  8
0
 10
6693.9137610840152774
 20
258.6821859178908767
 30
0.0
 11
6693.8830274658903363
 21
258.6537606763855024
 31
0.0
  0
LINE
  5
30705
  8
0
 10
6693.8624794584111442
 20
258.6347560127418888
 30
0.0
 11
6693.8308267170650652
 21
258.605480682599989
 31
0.0
  0
LINE
  5
30706
  8
0
 10
6694.1733391586985817
 20
258.9596182821130128
 30
0.0
 11
6694.2034758986428642
 21
258.9501404925828183
 31
0.0
  0
LINE
  5
30707
  8
0
 10
6694.1614266166661764
 20
258.9477060650027056
 30
0.0
 11
6694.1703078129312416
 21
258.9194636343361253
 31
0.0
  0
LINE
  5
30708
  8
0
 10
6694.1230069826024192
 20
258.9091885892768801
 30
0.0
 11
6694.1500119272895972
 21
258.9006921558673184
 31
0.0
  0
LINE
  5
30709
  8
0
 10
6694.1110936709701491
 20
258.8972756949655718
 30
0.0
 11
6694.1190325917796144
 21
258.8720396526059062
 31
0.0
  0
LINE
  5
3070A
  8
0
 10
6694.0725676618776561
 20
258.8588520858024253
 30
0.0
 11
6694.096602556794096
 21
258.8512943189836051
 31
0.0
  0
LINE
  5
3070B
  8
0
 10
6694.0606554382748072
 20
258.8469398747316745
 30
0.0
 11
6694.0676937544376415
 21
258.8245568328443937
 31
0.0
  0
LINE
  5
3070C
  8
0
 10
6694.0222119991885847
 20
258.8084085302326116
 30
0.0
 11
6694.0431224109934192
 21
258.8018310226693188
 31
0.0
  0
LINE
  5
3070D
  8
0
 10
6694.0102991392950571
 20
258.7964958183500244
 30
0.0
 11
6694.0163961386188021
 21
258.7771121384917024
 31
0.0
  0
LINE
  5
3070E
  8
0
 10
6693.9718139785181847
 20
258.7580654913169838
 30
0.0
 11
6693.9897158800113175
 21
258.7524358120256238
 31
0.0
  0
LINE
  5
3070F
  8
0
 10
6693.9599016319525617
 20
258.7461531026369244
 30
0.0
 11
6693.965088824713348
 21
258.7296584744668735
 31
0.0
  0
LINE
  5
30710
  8
0
 10
6693.9214100773788232
 20
258.7076551493098009
 30
0.0
 11
6693.9362510008513709
 21
258.7029866356867842
 31
0.0
  0
LINE
  5
30711
  8
0
 10
6693.9094970778251081
 20
258.6957425574636886
 30
0.0
 11
6693.9137610840152774
 21
258.6821859178908767
 31
0.0
  0
LINE
  5
30712
  8
0
 10
6693.8708043067517792
 20
258.6571195179324718
 30
0.0
 11
6693.8830274658903363
 21
258.6537606763855024
 31
0.0
  0
LINE
  5
30713
  8
0
 10
6693.859224385593734
 20
258.6451099509425831
 30
0.0
 11
6693.8624794584111442
 21
258.6347560127418888
 31
0.0
  0
ARC
  5
30714
  8
0
 10
6693.8682870810271197
 20
258.6479590826455137
 30
0.0
 40
0.0095
 50
74.6347627129786559
 51
197.4521135308739019
  0
ARC
  5
30715
  8
0
 10
6693.9185593777410759
 20
258.698592946951976
 30
0.0
 40
0.0095
 50
72.5379734702401606
 51
197.4600656203583071
  0
ARC
  5
30716
  8
0
 10
6693.9689640744627468
 20
258.7490030387306774
 30
0.0
 40
0.0095
 50
72.5430034737854044
 51
197.4571990872811114
  0
ARC
  5
30717
  8
0
 10
6694.0193614126437751
 20
258.7993462922999015
 30
0.0
 40
0.0095
 50
72.5386884969286427
 51
197.4605996242540016
  0
ARC
  5
30718
  8
0
 10
6694.0697179562603196
 20
258.8497895708151759
 30
0.0
 40
0.0095
 50
72.5442580533835581
 51
197.4556816684498131
  0
ARC
  5
30719
  8
0
 10
6694.1201558310185646
 20
258.9001265291004756
 30
0.0
 40
0.0095
 50
72.5351160123781966
 51
197.4628768902358047
  0
ARC
  5
3071A
  8
0
 10
6694.1704890976006936
 20
258.950555878914372
 30
0.0
 40
0.0095
 50
72.5420105894561686
 51
197.4564266121921037
  0
LINE
  5
3071B
  8
0
 10
6693.8187745785753577
 20
258.6074225612617852
 30
0.0
 11
6693.8260026888374341
 21
258.605480682599989
 31
0.0
  0
LINE
  5
3071C
  8
0
 10
6693.8260026888374341
 20
258.605480682599989
 30
0.0
 11
6693.8308267170650652
 21
258.605480682599989
 31
0.0
  0
LINE
  5
3071D
  8
0
 10
6693.6129844570496061
 20
259.4892127284724097
 30
0.0
 11
6694.2034758986428642
 21
258.9501404925828183
 31
0.0
  0
LINE
  5
3071E
  8
0
 10
6694.1733391586985817
 20
258.9596182821130128
 30
0.0
 11
6693.621976255069967
 21
259.4606209355399074
 31
0.0
  0
LINE
  5
3071F
  8
0
 10
6693.6100637911940794
 20
259.4487085014432068
 30
0.0
 11
6694.1614266166661764
 21
258.9477060650027056
 31
0.0
  0
LINE
  5
30720
  8
0
 10
6694.1230069826024192
 20
258.9091885892768801
 30
0.0
 11
6693.5715619589391281
 21
259.4102202586446992
 31
0.0
  0
LINE
  5
30721
  8
0
 10
6693.5596495041336311
 20
259.3983076956641867
 30
0.0
 11
6694.1110936709701491
 21
258.8972756949655718
 31
0.0
  0
LINE
  5
30722
  8
0
 10
6694.0725676618776561
 20
258.8588520858024253
 30
0.0
 11
6693.5211773715382151
 21
259.359868616226322
 31
0.0
  0
LINE
  5
30723
  8
0
 10
6693.509264616945984
 20
259.3479559421355134
 30
0.0
 11
6694.0606554382748072
 21
258.8469398747316745
 31
0.0
  0
LINE
  5
30724
  8
0
 10
6694.0222119991885847
 20
258.8084085302326116
 30
0.0
 11
6693.4708103337816283
 21
259.3094291526074926
 31
0.0
  0
LINE
  5
30725
  8
0
 10
6693.4588981639735721
 20
259.2975169259473773
 30
0.0
 11
6694.0102991392950571
 21
258.7964958183500244
 31
0.0
  0
LINE
  5
30726
  8
0
 10
6693.9718139785181847
 20
258.7580654913169838
 30
0.0
 11
6693.4203778632745525
 21
259.2590966929506067
 31
0.0
  0
LINE
  5
30727
  8
0
 10
6693.4084649719143272
 20
259.2471837973864126
 30
0.0
 11
6693.9599016319525617
 21
258.7461531026369244
 31
0.0
  0
LINE
  5
30728
  8
0
 10
6693.9214100773788232
 20
258.7076551493098009
 30
0.0
 11
6693.3700783879176015
 21
259.2086822758980134
 31
0.0
  0
LINE
  5
30729
  8
0
 10
6693.358164742396184
 20
259.1967719338015854
 30
0.0
 11
6693.9094970778251081
 21
258.6957425574636886
 31
0.0
  0
LINE
  5
3072A
  8
0
 10
6693.8708043067517792
 20
258.6571195179324718
 30
0.0
 11
6693.3197533540451332
 21
259.1582560163379867
 31
0.0
  0
LINE
  5
3072B
  8
0
 10
6693.3078404674934063
 20
259.1463458713944874
 30
0.0
 11
6693.859224385593734
 21
258.6451099509425831
 31
0.0
  0
LINE
  5
3072C
  8
0
 10
6693.2930310621368335
 20
259.1432763385649878
 30
0.0
 11
6693.8308267170650652
 21
258.605480682599989
 31
0.0
  0
LINE
  5
3072D
  8
0
 10
6693.2930310621368335
 20
259.1341664145999744
 30
0.0
 11
6693.8201423843429438
 21
258.6070550913788111
 31
0.0
  0
LINE
  5
3072E
  8
0
 10
6693.3164904564409881
 20
259.1686408394695036
 30
0.0
 11
6693.8830274658903363
 21
258.6537606763855024
 31
0.0
  0
LINE
  5
3072F
  8
0
 10
6693.9137610840152774
 20
258.6821859178908767
 30
0.0
 11
6693.346037030176376
 21
259.2005868516534974
 31
0.0
  0
LINE
  5
30730
  8
0
 10
6693.3658801753617809
 20
259.2220414325987008
 30
0.0
 11
6693.9362510008513709
 21
258.7029866356867842
 31
0.0
  0
LINE
  5
30731
  8
0
 10
6693.965088824713348
 20
258.7296584744668735
 30
0.0
 11
6693.393490743901566
 21
259.2518942191487099
 31
0.0
  0
LINE
  5
30732
  8
0
 10
6693.4152446982334368
 20
259.2754147835390768
 30
0.0
 11
6693.9897158800113175
 21
258.7524358120256238
 31
0.0
  0
LINE
  5
30733
  8
0
 10
6694.0163961386188021
 20
258.7771121384917024
 30
0.0
 11
6693.4409163415539297
 21
259.3031711872989149
 31
0.0
  0
LINE
  5
30734
  8
0
 10
6693.4646940813518086
 20
259.328879886118898
 30
0.0
 11
6694.0431224109934192
 21
258.8018310226693188
 31
0.0
  0
LINE
  5
30735
  8
0
 10
6694.0676937544376415
 20
258.8245568328443937
 30
0.0
 11
6693.488405577127196
 21
259.3545169613246912
 31
0.0
  0
LINE
  5
30736
  8
0
 10
6693.5141168523095985
 20
259.3823162153963153
 30
0.0
 11
6694.096602556794096
 21
258.8512943189836051
 31
0.0
  0
LINE
  5
30737
  8
0
 10
6694.1190325917796144
 20
258.8720396526059062
 30
0.0
 11
6693.5358344202768421
 21
259.4057974385361831
 31
0.0
  0
LINE
  5
30738
  8
0
 10
6693.5635338661613787
 20
259.4357463200421989
 30
0.0
 11
6694.1500119272895972
 21
258.9006921558673184
 31
0.0
  0
LINE
  5
30739
  8
0
 10
6694.1703078129312416
 20
258.9194636343361253
 30
0.0
 11
6693.5833056253522955
 21
259.4571237178308252
 31
0.0
  0
ENDSEC
  0
EOF
