  0
SECTION
  2
HEADER
  9
$ACADVER
  1
AC1009
  9
$INSBASE
 10
6682.4695181359829803
 20
249.8353882733094053
 30
0.0
  9
$EXTMIN
 10
6678.7108980029433951
 20
246.2397542991836872
 30
0.0
  9
$EXTMAX
 10
6682.4809152008810997
 20
253.0804466127472949
 30
0.0
  9
$LIMMIN
 10
0.0
 20
0.0
  9
$LIMMAX
 10
11.6929133858000007
 20
8.2677165353999982
  9
$ORTHOMODE
 70
     0
  9
$REGENMODE
 70
     1
  9
$FILLMODE
 70
     1
  9
$QTEXTMODE
 70
     0
  9
$MIRRTEXT
 70
     0
  9
$DRAGMODE
 70
     2
  9
$LTSCALE
 40
0.6431102362
  9
$OSMODE
 70
  4095
  9
$ATTMODE
 70
     1
  9
$TEXTSIZE
 40
0.2
  9
$TRACEWID
 40
0.05
  9
$TEXTSTYLE
  7
STANDARD
  9
$CLAYER
  8
0
  9
$CELTYPE
  6
BYLAYER
  9
$CECOLOR
 62
   256
  9
$DIMSCALE
 40
1.0
  9
$DIMASZ
 40
0.1875
  9
$DIMEXO
 40
0.0625
  9
$DIMDLI
 40
0.4443307087
  9
$DIMRND
 40
0.0
  9
$DIMDLE
 40
0.0
  9
$DIMEXE
 40
0.125
  9
$DIMTP
 40
0.01
  9
$DIMTM
 40
0.01
  9
$DIMTXT
 40
2.0
  9
$DIMCEN
 40
0.1052362205
  9
$DIMTSZ
 40
0.0
  9
$DIMTOL
 70
     1
  9
$DIMLIM
 70
     0
  9
$DIMTIH
 70
     1
  9
$DIMTOH
 70
     1
  9
$DIMSE1
 70
     0
  9
$DIMSE2
 70
     0
  9
$DIMTAD
 70
     0
  9
$DIMZIN
 70
     0
  9
$DIMBLK
  1

  9
$DIMASO
 70
     1
  9
$DIMSHO
 70
     1
  9
$DIMPOST
  1
\X
  9
$DIMAPOST
  1

  9
$DIMALT
 70
     1
  9
$DIMALTD
 70
     2
  9
$DIMALTF
 40
25.3999999999999986
  9
$DIMLFAC
 40
1.0
  9
$DIMTOFL
 70
     0
  9
$DIMTVP
 40
0.0
  9
$DIMTIX
 70
     0
  9
$DIMSOXD
 70
     0
  9
$DIMSAH
 70
     0
  9
$DIMBLK1
  1

  9
$DIMBLK2
  1

  9
$DIMSTYLE
  2
STANDARD
  9
$DIMCLRD
 70
     0
  9
$DIMCLRE
 70
     0
  9
$DIMCLRT
 70
     0
  9
$DIMTFAC
 40
1.0
  9
$DIMGAP
 40
0.09
  9
$LUNITS
 70
     2
  9
$LUPREC
 70
     4
  9
$SKETCHINC
 40
0.1
  9
$FILLETRAD
 40
0.0
  9
$AUNITS
 70
     0
  9
$AUPREC
 70
     0
  9
$MENU
  1
.
  9
$ELEVATION
 40
0.0
  9
$PELEVATION
 40
0.0
  9
$THICKNESS
 40
0.0
  9
$LIMCHECK
 70
     0
  9
$BLIPMODE
 70
     0
  9
$CHAMFERA
 40
0.0
  9
$CHAMFERB
 40
0.0
  9
$SKPOLY
 70
     0
  9
$TDCREATE
 40
2458060.468368056230247
  9
$TDUPDATE
 40
2460521.6302314819768071
  9
$TDINDWG
 40
1.0022524306
  9
$TDUSRTIMER
 40
1.0022524306
  9
$USRTIMER
 70
     1
  9
$ANGBASE
 50
0.0
  9
$ANGDIR
 70
     0
  9
$PDMODE
 70
     0
  9
$PDSIZE
 40
0.3125
  9
$PLINEWID
 40
0.0
  9
$COORDS
 70
     1
  9
$SPLFRAME
 70
     0
  9
$SPLINETYPE
 70
     6
  9
$SPLINESEGS
 70
     8
  9
$ATTDIA
 70
     1
  9
$ATTREQ
 70
     1
  9
$HANDLING
 70
     1
  9
$HANDSEED
  5
303F1
  9
$SURFTAB1
 70
     6
  9
$SURFTAB2
 70
     6
  9
$SURFTYPE
 70
     6
  9
$SURFU
 70
     6
  9
$SURFV
 70
     6
  9
$UCSNAME
  2

  9
$UCSORG
 10
0.0
 20
0.0
 30
0.0
  9
$UCSXDIR
 10
1.0
 20
0.0
 30
0.0
  9
$UCSYDIR
 10
0.0
 20
1.0
 30
0.0
  9
$PUCSNAME
  2

  9
$PUCSORG
 10
0.0
 20
0.0
 30
0.0
  9
$PUCSXDIR
 10
1.0
 20
0.0
 30
0.0
  9
$PUCSYDIR
 10
0.0
 20
1.0
 30
0.0
  9
$USERI1
 70
     0
  9
$USERI2
 70
     0
  9
$USERI3
 70
     0
  9
$USERI4
 70
     0
  9
$USERI5
 70
     0
  9
$USERR1
 40
0.0
  9
$USERR2
 40
0.0
  9
$USERR3
 40
0.0
  9
$USERR4
 40
0.0
  9
$USERR5
 40
0.0
  9
$WORLDVIEW
 70
     1
  9
$SHADEDGE
 70
     3
  9
$SHADEDIF
 70
    70
  9
$TILEMODE
 70
     1
  9
$MAXACTVP
 70
    64
  9
$PLIMCHECK
 70
     0
  9
$PEXTMIN
 10
1.0000000000000000E+20
 20
1.0000000000000000E+20
 30
1.0000000000000000E+20
  9
$PEXTMAX
 10
-1.0000000000000000E+20
 20
-1.0000000000000000E+20
 30
-1.0000000000000000E+20
  9
$PLIMMIN
 10
0.0
 20
0.0
  9
$PLIMMAX
 10
12.0
 20
9.0
  9
$UNITMODE
 70
     0
  9
$VISRETAIN
 70
     1
  9
$PLINEGEN
 70
     0
  9
$PSLTSCALE
 70
     1
  0
ENDSEC
  0
SECTION
  2
TABLES
  0
TABLE
  2
VPORT
 70
     1
  0
VPORT
  2
*ACTIVE
 70
     0
 10
0.0
 20
0.0
 11
1.0
 21
1.0
 12
2769.2305501566002022
 22
117.0804953534264001
 13
0.0
 23
0.0
 14
1.0
 24
1.0
 15
0.0
 25
0.0
 16
0.0
 26
0.0
 36
60.4960186965801583
 17
3911.3653564453120453
 27
132.5796051025390057
 37
0.0
 40
6.8996637990252898
 41
2.7266187050359711
 42
50.0
 43
0.0
 44
0.0
 50
0.0
 51
0.0
 71
     0
 72
   100
 73
     1
 74
     1
 75
     0
 76
     0
 77
     0
 78
     0
  0
ENDTAB
  0
TABLE
  2
LTYPE
 70
     2
  0
LTYPE
  2
CONTINUOUS
 70
     0
  3
Solid line
 72
    65
 73
     0
 40
0.0
  0
LTYPE
  2
PHANTOM2
 70
     0
  3
___ _ _ ___ _ _ ___ _ _ ___ _ _
 72
    65
 73
     6
 40
1.25
 49
0.625
 49
-0.125
 49
0.125
 49
-0.125
 49
0.125
 49
-0.125
  0
ENDTAB
  0
TABLE
  2
LAYER
 70
     2
  0
LAYER
  2
0
 70
     0
 62
   255
  6
CONTINUOUS
  0
LAYER
  2
DEFPOINTS
 70
     0
 62
     7
  6
CONTINUOUS
  0
ENDTAB
  0
TABLE
  2
STYLE
 70
     1
  0
STYLE
  2
STANDARD
 70
     0
 40
0.0
 41
0.8
 50
0.0
 71
     0
 42
0.2
  3
txt
  4

  0
ENDTAB
  0
TABLE
  2
VIEW
 70
     0
  0
ENDTAB
  0
TABLE
  2
UCS
 70
     0
  0
ENDTAB
  0
TABLE
  2
APPID
 70
    11
  0
APPID
  2
ACAD
 70
     0
  0
APPID
  2
ACAD_MLEADERVER
 70
     0
  0
APPID
  2
ACAD_EXEMPT_FROM_CAD_STANDARDS
 70
     0
  0
APPID
  2
ACAD_NAV_VCDISPLAY
 70
     0
  0
APPID
  2
ACAECLAYERSTANDARD
 70
     0
  0
APPID
  2
ACCMTRANSPARENCY
 70
     0
  0
APPID
  2
ACAD_DSTYLE_DIMJAG
 70
     0
  0
APPID
  2
ACAD_DSTYLE_DIMTALN
 70
     0
  0
APPID
  2
ACDBATTR
 70
     0
  0
APPID
  2
ACADANNOTATIVE
 70
     0
  0
APPID
  2
DCO15
 70
     0
  0
ENDTAB
  0
TABLE
  2
DIMSTYLE
 70
     1
  0
DIMSTYLE
  2
STANDARD
 70
     0
  3

  4

  5

  6

  7

 40
1.0
 41
0.1875
 42
0.0625
 43
0.38
 44
0.125
 45
0.0
 46
0.0
 47
0.01
 48
0.01
140
0.15625
141
0.09
142
0.0
143
25.3999999999999986
144
1.0
145
0.0
146
1.0
147
0.09
 71
     1
 72
     0
 73
     1
 74
     1
 75
     0
 76
     0
 77
     0
 78
     4
170
     0
171
     2
172
     0
173
     0
174
     0
175
     0
176
     0
177
     0
178
     0
  0
ENDTAB
  0
ENDSEC
  0
SECTION
  2
BLOCKS
  0
BLOCK
  8
0
  2
$MODEL_SPACE
 70
     0
 10
0.0
 20
0.0
 30
0.0
  3
$MODEL_SPACE
  1

  0
ENDBLK
  5
21
  8
0
  0
BLOCK
 67
     1
  8
0
  2
$PAPER_SPACE
 70
     0
 10
0.0
 20
0.0
 30
0.0
  3
$PAPER_SPACE
  1

  0
ENDBLK
  5
1D
 67
     1
  8
0
  0
BLOCK
  8
0
  2
_FILLED
 70
     0
 10
0.0
 20
0.0
 30
0.0
  3
_FILLED
  1

  0
SOLID
  5
26C2A
  8
0
  6
BYBLOCK
 62
     0
 10
0.0
 20
0.0
 30
0.0
 11
-1.0
 21
0.1666666667
 31
0.0
 12
-1.0
 22
-0.1666666667
 32
0.0
 13
-1.0
 23
-0.1666666667
 33
0.0
  0
ENDBLK
  5
26C2B
  8
0
  6
BYBLOCK
 62
     0
  0
ENDSEC
  0
SECTION
  2
ENTITIES
  0
ATTDEF
  5
26A5B
  8
DEFPOINTS
 10
6682.4702485342131695
 20
249.8392073836907912
 30
0.0
 40
0.001
  1
K-TS35320-4
  3

  2
MODELNUMBER
 70
     0
1001
ACDBATTR
1070
     0
1070
     1
  0
ATTDEF
  5
26A5C
  8
DEFPOINTS
 10
6682.4701227245559494
 20
249.8375405433116896
 30
0.0
 40
0.001
  1
ELATE
  3

  2
TRADENAME
 70
     0
1001
ACDBATTR
1070
     0
1070
     1
  0
ATTDEF
  5
26A5D
  8
DEFPOINTS
 10
6682.4702485342131695
 20
249.8358740503574893
 30
0.0
 40
0.001
  1
VALVE TRIM
  3

  2
PRODUCT
 70
     0
1001
ACDBATTR
1070
     0
1070
     1
  0
LINE
  5
3017A
  8
0
 10
6682.4695181359829803
 20
253.0607466127472946
 30
0.0
 11
6682.4695181359829803
 21
246.6100299338716013
 31
0.0
  0
LINE
  5
3017B
  8
0
 10
6681.5389258228824474
 20
253.0026400015401862
 30
0.0
 11
6681.5389258228824474
 21
246.6628839630415087
 31
0.0
  0
LINE
  5
3017C
  8
0
 10
6682.4494743235745773
 20
253.08044361234181
 30
0.0
 11
6681.6008263212752354
 21
253.0656304063350035
 31
0.0
  0
ARC
  5
3017D
  8
0
 10
6682.4498181359831506
 20
253.0607466127472946
 30
0.0
 40
0.0197
 50
359.9999999999935199
 51
91.0000000017477362
  0
ARC
  5
3017E
  8
0
 10
6681.6019258228816398
 20
253.0026400015401862
 30
0.0
 40
0.063
 50
91.0000000017477362
 51
180.0
  0
LINE
  5
3017F
  8
0
 10
6681.6008263212788734
 20
246.5998935582466061
 30
0.0
 11
6682.4022454508722149
 21
246.5859047353378912
 31
0.0
  0
ARC
  5
30180
  8
0
 10
6682.4025890021766827
 20
246.6055867764841025
 30
0.0
 40
0.0196850392730335
 50
269.0000000023695748
 51
308.6670899687699148
  0
ARC
  5
30181
  8
0
 10
6682.4132287324018762
 20
246.5363084876323114
 30
0.0
 40
0.0538887231154216
 50
89.4620485519159985
 51
101.760086309380398
  0
ARC
  5
30182
  8
0
 10
6682.4408081674500863
 20
245.2054879208876912
 30
0.0
 40
1.3849715566547569
 50
89.628380337392926
 51
91.1200915574848551
  0
ARC
  5
30183
  8
0
 10
6682.4499181359833528
 20
246.6100299338716013
 30
0.0
 40
0.0196
 50
269.6283803373407864
 51
0.0000000000162844
  0
LINE
  5
30184
  8
0
 10
6682.4022454508822193
 20
246.5890660653446105
 30
0.0
 11
6682.4022454508822193
 21
246.585904735337806
 31
0.0
  0
ARC
  5
30185
  8
0
 10
6681.6019258228816398
 20
246.6628839630415087
 30
0.0
 40
0.063
 50
180.0
 51
269.0000000023695748
  0
LINE
  5
30186
  8
0
 10
6681.5063475102024313
 20
251.0216542151163139
 30
0.0
 11
6681.5063475102024313
 21
248.5408446413597119
 31
0.0
  0
ARC
  5
30187
  8
0
 10
6813.4336897925759331
 20
249.8428031563657896
 30
0.0
 40
131.932609052915609
 50
178.6276127675141083
 51
179.488040980782614
  0
ARC
  5
30188
  8
0
 10
6871.9751505968861238
 20
250.9057788203091945
 30
0.0
 40
190.4834844886680116
 50
180.7113699592624982
 51
181.2763315180785924
  0
LINE
  5
30189
  8
0
 10
6679.1589605190820294
 20
250.9391967797363918
 30
0.0
 11
6679.1589605190820294
 21
248.7263271849352861
 31
0.0
  0
LINE
  5
3018A
  8
0
 10
6681.4246045480313114
 20
250.9862530642467107
 30
0.0
 11
6679.17847306306885
 21
250.9588958878441929
 31
0.0
  0
ARC
  5
3018B
  8
0
 10
6679.1786605190818591
 20
250.9391967797363918
 30
0.0
 40
0.0197
 50
90.5452081456073472
 51
180.0
  0
ARC
  5
3018C
  8
0
 10
6681.4355811281830029
 20
249.8327619823409975
 30
0.0
 40
1.1535433070967931
 50
86.4828693152552432
 51
90.5452081456073472
  0
LINE
  5
3018D
  8
0
 10
6681.424604548026764
 20
248.6792709004155881
 30
0.0
 11
6679.17847306306885
 21
248.7066280768273998
 31
0.0
  0
ARC
  5
3018E
  8
0
 10
6681.4355811281830029
 20
249.8327619823375016
 30
0.0
 40
1.1535433070997649
 50
269.4547918541841796
 51
273.5171306846928019
  0
ARC
  5
3018F
  8
0
 10
6679.1786605190818591
 20
248.7263271849352861
 30
0.0
 40
0.0197
 50
179.9999999999967031
 51
269.4547918541841796
  0
LINE
  5
30190
  8
0
 10
6679.1392754796834197
 20
250.9242481086573946
 30
0.0
 11
6679.1392754796834197
 21
246.2791542991836877
 31
0.0
  0
LINE
  5
30191
  8
0
 10
6679.1032576644902292
 20
250.9596427170658899
 30
0.0
 11
6678.7641669228532919
 21
250.9537238661079925
 31
0.0
  0
ARC
  5
30192
  8
0
 10
6679.1038754796818466
 20
250.9242481086573946
 30
0.0
 40
0.0354
 50
0.0000000000032569
 51
91.0000000077934459
  0
LINE
  5
30193
  8
0
 10
6678.7296482573628964
 20
246.2849266690190859
 30
0.0
 11
6678.7293847381024534
 21
250.9183272443657984
 31
0.0
  0
LINE
  5
30194
  8
0
 10
6679.0991878548657041
 20
246.2397602999947139
 30
0.0
 11
6678.7683606324853827
 21
246.2455349106591029
 31
0.0
  0
ARC
  5
30195
  8
0
 10
6679.0998754796819412
 20
246.2791542991836877
 30
0.0
 40
0.0394
 50
268.9999999968970883
 51
0.0000000000032569
  0
ARC
  5
30196
  8
0
 10
6678.7690482572998008
 20
246.2849289098481904
 30
0.0
 40
0.0394
 50
180.0032586307237068
 51
268.9999999968970883
  0
ARC
  5
30197
  8
0
 10
6678.7647847380458188
 20
250.9183292576994972
 30
0.0
 40
0.0354
 50
91.0000000077934459
 51
180.0032586307171982
  0
ARC
  5
30198
  8
0
 10
6517.4133814887645713
 20
245.6885455248261962
 30
0.0
 40
161.317539257050413
 50
0.2278034932526209
 51
0.5093501206822352
  0
ARC
  5
30199
  8
0
 10
6941.0891466910543386
 20
249.4550530924819043
 30
0.0
 40
262.3749678740066997
 50
180.2792751262296065
 51
180.5093501206821998
  0
ARC
  5
3019A
  8
0
 10
7703.1656003895495815
 20
253.1696492656892872
 30
0.0
 40
1024.4604745636479493
 50
180.1923357662805074
 51
180.2792751262296065
  0
ARC
  5
3019B
  8
0
 10
6710.0830209848600134
 20
249.83631136309711
 30
0.0
 40
31.3723009079858883
 50
178.0235035705156008
 51
180.1929676209092861
  0
ARC
  5
3019C
  8
0
 10
6679.1747085505821815
 20
250.864930783887786
 30
0.0
 40
0.0354330709000115
 50
180.0
 51
243.6122000588312062
  0
ARC
  5
3019D
  8
0
 10
6679.1747085505821815
 20
248.8005931806877982
 30
0.0
 40
0.0354330708999932
 50
116.3877999411637063
 51
180.0
  0
ENDSEC
  0
EOF
