  0
SECTION
  2
HEADER
  9
$ACADVER
  1
AC1009
  9
$INSBASE
 10
7306.4782588752696029
 20
117.0633680439195956
 30
0.0
  9
$EXTMIN
 10
7303.2332005358321112
 20
108.9726394892011001
 30
0.0
  9
$EXTMAX
 10
7309.723317214708004
 20
117.0684939790978945
 30
0.0
  9
$LIMMIN
 10
0.0
 20
0.0
  9
$LIMMAX
 10
11.6929133858000007
 20
8.2677165353999982
  9
$ORTHOMODE
 70
     0
  9
$REGENMODE
 70
     1
  9
$FILLMODE
 70
     1
  9
$QTEXTMODE
 70
     0
  9
$MIRRTEXT
 70
     0
  9
$DRAGMODE
 70
     2
  9
$LTSCALE
 40
0.6431102362
  9
$OSMODE
 70
  4095
  9
$ATTMODE
 70
     1
  9
$TEXTSIZE
 40
0.2
  9
$TRACEWID
 40
0.05
  9
$TEXTSTYLE
  7
STANDARD
  9
$CLAYER
  8
0
  9
$CELTYPE
  6
BYLAYER
  9
$CECOLOR
 62
   256
  9
$DIMSCALE
 40
1.0
  9
$DIMASZ
 40
0.1875
  9
$DIMEXO
 40
0.0625
  9
$DIMDLI
 40
0.4443307087
  9
$DIMRND
 40
0.0
  9
$DIMDLE
 40
0.0
  9
$DIMEXE
 40
0.125
  9
$DIMTP
 40
0.01
  9
$DIMTM
 40
0.01
  9
$DIMTXT
 40
2.0
  9
$DIMCEN
 40
0.1052362205
  9
$DIMTSZ
 40
0.0
  9
$DIMTOL
 70
     1
  9
$DIMLIM
 70
     0
  9
$DIMTIH
 70
     1
  9
$DIMTOH
 70
     1
  9
$DIMSE1
 70
     0
  9
$DIMSE2
 70
     0
  9
$DIMTAD
 70
     0
  9
$DIMZIN
 70
     0
  9
$DIMBLK
  1

  9
$DIMASO
 70
     1
  9
$DIMSHO
 70
     1
  9
$DIMPOST
  1
\X
  9
$DIMAPOST
  1

  9
$DIMALT
 70
     1
  9
$DIMALTD
 70
     2
  9
$DIMALTF
 40
25.3999999999999986
  9
$DIMLFAC
 40
1.0
  9
$DIMTOFL
 70
     0
  9
$DIMTVP
 40
0.0
  9
$DIMTIX
 70
     0
  9
$DIMSOXD
 70
     0
  9
$DIMSAH
 70
     0
  9
$DIMBLK1
  1

  9
$DIMBLK2
  1

  9
$DIMSTYLE
  2
STANDARD
  9
$DIMCLRD
 70
     0
  9
$DIMCLRE
 70
     0
  9
$DIMCLRT
 70
     0
  9
$DIMTFAC
 40
1.0
  9
$DIMGAP
 40
0.09
  9
$LUNITS
 70
     2
  9
$LUPREC
 70
     4
  9
$SKETCHINC
 40
0.1
  9
$FILLETRAD
 40
0.0
  9
$AUNITS
 70
     0
  9
$AUPREC
 70
     0
  9
$MENU
  1
.
  9
$ELEVATION
 40
0.0
  9
$PELEVATION
 40
0.0
  9
$THICKNESS
 40
0.0
  9
$LIMCHECK
 70
     0
  9
$BLIPMODE
 70
     0
  9
$CHAMFERA
 40
0.0
  9
$CHAMFERB
 40
0.0
  9
$SKPOLY
 70
     0
  9
$TDCREATE
 40
2458060.468368056230247
  9
$TDUPDATE
 40
2460523.4810532410629094
  9
$TDINDWG
 40
0.9647987269
  9
$TDUSRTIMER
 40
0.9647987269
  9
$USRTIMER
 70
     1
  9
$ANGBASE
 50
0.0
  9
$ANGDIR
 70
     0
  9
$PDMODE
 70
     0
  9
$PDSIZE
 40
0.3125
  9
$PLINEWID
 40
0.0
  9
$COORDS
 70
     1
  9
$SPLFRAME
 70
     0
  9
$SPLINETYPE
 70
     6
  9
$SPLINESEGS
 70
     8
  9
$ATTDIA
 70
     1
  9
$ATTREQ
 70
     1
  9
$HANDLING
 70
     1
  9
$HANDSEED
  5
340B9
  9
$SURFTAB1
 70
     6
  9
$SURFTAB2
 70
     6
  9
$SURFTYPE
 70
     6
  9
$SURFU
 70
     6
  9
$SURFV
 70
     6
  9
$UCSNAME
  2

  9
$UCSORG
 10
0.0
 20
0.0
 30
0.0
  9
$UCSXDIR
 10
1.0
 20
0.0
 30
0.0
  9
$UCSYDIR
 10
0.0
 20
1.0
 30
0.0
  9
$PUCSNAME
  2

  9
$PUCSORG
 10
0.0
 20
0.0
 30
0.0
  9
$PUCSXDIR
 10
1.0
 20
0.0
 30
0.0
  9
$PUCSYDIR
 10
0.0
 20
1.0
 30
0.0
  9
$USERI1
 70
     0
  9
$USERI2
 70
     0
  9
$USERI3
 70
     0
  9
$USERI4
 70
     0
  9
$USERI5
 70
     0
  9
$USERR1
 40
0.0
  9
$USERR2
 40
0.0
  9
$USERR3
 40
0.0
  9
$USERR4
 40
0.0
  9
$USERR5
 40
0.0
  9
$WORLDVIEW
 70
     1
  9
$SHADEDGE
 70
     3
  9
$SHADEDIF
 70
    70
  9
$TILEMODE
 70
     1
  9
$MAXACTVP
 70
    64
  9
$PLIMCHECK
 70
     0
  9
$PEXTMIN
 10
1.0000000000000000E+20
 20
1.0000000000000000E+20
 30
1.0000000000000000E+20
  9
$PEXTMAX
 10
-1.0000000000000000E+20
 20
-1.0000000000000000E+20
 30
-1.0000000000000000E+20
  9
$PLIMMIN
 10
0.0
 20
0.0
  9
$PLIMMAX
 10
12.0
 20
9.0
  9
$UNITMODE
 70
     0
  9
$VISRETAIN
 70
     1
  9
$PLINEGEN
 70
     0
  9
$PSLTSCALE
 70
     1
  0
ENDSEC
  0
SECTION
  2
TABLES
  0
TABLE
  2
VPORT
 70
     1
  0
VPORT
  2
*ACTIVE
 70
     0
 10
0.0
 20
0.0
 11
1.0
 21
1.0
 12
3395.1129024299580124
 22
-19.5590383683895404
 13
0.0
 23
0.0
 14
1.0
 24
1.0
 15
0.0
 25
0.0
 16
0.0
 26
0.0
 36
60.4960186965801583
 17
3911.3653564453120453
 27
132.5796051025390057
 37
0.0
 40
8.1697892340968377
 41
2.8917682926829258
 42
50.0
 43
0.0
 44
0.0
 50
0.0
 51
0.0
 71
     0
 72
   100
 73
     1
 74
     1
 75
     0
 76
     0
 77
     0
 78
     0
  0
ENDTAB
  0
TABLE
  2
LTYPE
 70
     2
  0
LTYPE
  2
CONTINUOUS
 70
     0
  3
Solid line
 72
    65
 73
     0
 40
0.0
  0
LTYPE
  2
PHANTOM2
 70
     0
  3
___ _ _ ___ _ _ ___ _ _ ___ _ _
 72
    65
 73
     6
 40
1.25
 49
0.625
 49
-0.125
 49
0.125
 49
-0.125
 49
0.125
 49
-0.125
  0
ENDTAB
  0
TABLE
  2
LAYER
 70
     2
  0
LAYER
  2
0
 70
     0
 62
   255
  6
CONTINUOUS
  0
LAYER
  2
DEFPOINTS
 70
     0
 62
     7
  6
CONTINUOUS
  0
ENDTAB
  0
TABLE
  2
STYLE
 70
     1
  0
STYLE
  2
STANDARD
 70
     0
 40
0.0
 41
0.8
 50
0.0
 71
     0
 42
0.2
  3
txt
  4

  0
ENDTAB
  0
TABLE
  2
VIEW
 70
     0
  0
ENDTAB
  0
TABLE
  2
UCS
 70
     0
  0
ENDTAB
  0
TABLE
  2
APPID
 70
    11
  0
APPID
  2
ACAD
 70
     0
  0
APPID
  2
ACAD_MLEADERVER
 70
     0
  0
APPID
  2
ACAD_EXEMPT_FROM_CAD_STANDARDS
 70
     0
  0
APPID
  2
ACAD_NAV_VCDISPLAY
 70
     0
  0
APPID
  2
ACAECLAYERSTANDARD
 70
     0
  0
APPID
  2
ACCMTRANSPARENCY
 70
     0
  0
APPID
  2
ACAD_DSTYLE_DIMJAG
 70
     0
  0
APPID
  2
ACAD_DSTYLE_DIMTALN
 70
     0
  0
APPID
  2
ACDBATTR
 70
     0
  0
APPID
  2
ACADANNOTATIVE
 70
     0
  0
APPID
  2
DCO15
 70
     0
  0
ENDTAB
  0
TABLE
  2
DIMSTYLE
 70
     1
  0
DIMSTYLE
  2
STANDARD
 70
     0
  3

  4

  5

  6

  7

 40
1.0
 41
0.1875
 42
0.0625
 43
0.38
 44
0.125
 45
0.0
 46
0.0
 47
0.01
 48
0.01
140
0.15625
141
0.09
142
0.0
143
25.3999999999999986
144
1.0
145
0.0
146
1.0
147
0.09
 71
     1
 72
     0
 73
     1
 74
     1
 75
     0
 76
     0
 77
     0
 78
     4
170
     0
171
     2
172
     0
173
     0
174
     0
175
     0
176
     0
177
     0
178
     0
  0
ENDTAB
  0
ENDSEC
  0
SECTION
  2
BLOCKS
  0
BLOCK
  8
0
  2
$MODEL_SPACE
 70
     0
 10
0.0
 20
0.0
 30
0.0
  3
$MODEL_SPACE
  1

  0
ENDBLK
  5
21
  8
0
  0
BLOCK
 67
     1
  8
0
  2
$PAPER_SPACE
 70
     0
 10
0.0
 20
0.0
 30
0.0
  3
$PAPER_SPACE
  1

  0
ENDBLK
  5
1D
 67
     1
  8
0
  0
BLOCK
  8
0
  2
_FILLED
 70
     0
 10
0.0
 20
0.0
 30
0.0
  3
_FILLED
  1

  0
SOLID
  5
257AF
  8
0
  6
BYBLOCK
 62
     0
 10
0.0
 20
0.0
 30
0.0
 11
-1.0
 21
0.1666666667
 31
0.0
 12
-1.0
 22
-0.1666666667
 32
0.0
 13
-1.0
 23
-0.1666666667
 33
0.0
  0
ENDBLK
  5
257B0
  8
0
  6
BYBLOCK
 62
     0
  0
ENDSEC
  0
SECTION
  2
ENTITIES
  0
ATTDEF
  5
256E4
  8
DEFPOINTS
 10
7306.4681696767611356
 20
117.0674939790979039
 30
0.0
 40
0.001
  1
K-TS35321-4H
  3

  2
MODELNUMBER
 70
     0
1001
ACDBATTR
1070
     0
1070
     1
  0
ATTDEF
  5
256E5
  8
DEFPOINTS
 10
7306.4680438671030061
 20
117.0658271387188023
 30
0.0
 40
0.001
  1
ELATE
  3

  2
TRADENAME
 70
     0
1001
ACDBATTR
1070
     0
1070
     1
  0
ATTDEF
  5
256E6
  8
DEFPOINTS
 10
7306.4681696767611356
 20
117.064160645764602
 30
0.0
 40
0.001
  1
SHOWER TRIM
  3

  2
PRODUCT
 70
     0
1001
ACDBATTR
1070
     0
1070
     1
  0
LINE
  5
33D81
  8
0
 10
7304.2456849679656443
 20
110.5409426506032986
 30
0.0
 11
7304.2456849679656443
 21
110.6284270508742935
 31
0.0
  0
LINE
  5
33D82
  8
0
 10
7306.0451880091713974
 20
111.8012987851251978
 30
0.0
 11
7306.0451880091713974
 21
112.2918524609937947
 31
0.0
  0
LINE
  5
33D83
  8
0
 10
7306.0689803459708855
 20
113.4314976473129946
 30
0.0
 11
7306.0689803459708855
 21
113.8121497103897042
 31
0.0
  0
LINE
  5
33D84
  8
0
 10
7306.0767588752705706
 20
112.2590466024180955
 30
0.0
 11
7306.0767588752705706
 21
113.1371317732974973
 31
0.0
  0
LINE
  5
33D85
  8
0
 10
7306.0767588752705706
 20
114.1720552912835984
 30
0.0
 11
7306.0767588752705706
 21
116.6918674378488987
 31
0.0
  0
LINE
  5
33D86
  8
0
 10
7303.2529005358328504
 20
117.0633680439195956
 30
0.0
 11
7309.7036172147099933
 21
117.0633680439195956
 31
0.0
  0
LINE
  5
33D87
  8
0
 10
7306.0451880091713974
 20
116.7090373352196053
 30
0.0
 11
7306.9113297413714463
 21
116.7090373352196053
 31
0.0
  0
ARC
  5
33D88
  8
0
 10
7306.0451880091713974
 20
118.212356142119603
 30
0.0
 40
1.5033188069000629
 50
242.0642988304799985
 51
270.0
  0
ARC
  5
33D89
  8
0
 10
7305.3777820201503346
 20
116.9537426228877024
 30
0.0
 40
0.0787
 50
181.0000000188296099
 51
242.0642988304799985
  0
LINE
  5
33D8A
  8
0
 10
7305.2990940065419636
 20
116.9523691184753034
 30
0.0
 11
7305.2973661637342957
 21
117.0513621055197007
 31
0.0
  0
ARC
  5
33D8B
  8
0
 10
7305.3091643665366064
 20
117.0515680439196018
 30
0.0
 40
0.0118
 50
90.0
 51
181.0000000188466913
  0
LINE
  5
33D8C
  8
0
 10
7305.3409126126416595
 20
116.8842132277374048
 30
0.0
 11
7307.6156051379002747
 21
116.8842132277374048
 31
0.0
  0
ARC
  5
33D8D
  8
0
 10
7402.0420278841411346
 20
112.7990480124297932
 30
0.0
 40
96.0441924273595191
 50
177.6679562765552021
 51
177.6770772683508994
  0
ARC
  5
33D8E
  8
0
 10
7306.0783057995486161
 20
116.7068565891207044
 30
0.0
 40
0.0009696503113352
 50
112.1208566161331959
 51
162.7439817004334941
  0
ARC
  5
33D8F
  8
0
 10
7305.766583164131589
 20
117.3089191616150941
 30
0.0
 40
0.6770096053942787
 50
297.3807296825642084
 51
297.6157985196579148
  0
ARC
  5
33D90
  8
0
 10
7306.5596732329531733
 20
116.0265944223525025
 30
0.0
 40
1.2290620435456101
 50
176.5641791130109937
 51
181.323924570413908
  0
ARC
  5
33D91
  8
0
 10
12907.6738024203605164
 20
169.2608185463901975
 30
0.0
 40
5602.5960467367949605
 50
180.5447063028491925
 51
180.5674706864805898
  0
LINE
  5
33D92
  8
0
 10
7305.3722424651414258
 20
113.7528104270195968
 30
0.0
 11
7306.0689803459708855
 21
113.7528104270195968
 31
0.0
  0
LINE
  5
33D93
  8
0
 10
7305.3900732258498465
 20
113.7331253876195944
 30
0.0
 11
7306.0689803459708855
 21
113.7331253876188981
 31
0.0
  0
ARC
  5
33D94
  8
0
 10
7305.3722424651414258
 20
113.772510427020606
 30
0.0
 40
0.0197
 50
180.5674706843840909
 51
269.9999999987492743
  0
LINE
  5
33D95
  8
0
 10
7305.3546786174401859
 20
113.6971075724310936
 30
0.0
 11
7305.3605990008363733
 21
113.3579290351900966
 31
0.0
  0
LINE
  5
33D96
  8
0
 10
7305.3959936092451244
 20
113.3231468503785067
 30
0.0
 11
7306.0720910235913834
 21
113.3231468503785067
 31
0.0
  0
ARC
  5
33D97
  8
0
 10
7305.3959936092451244
 20
113.3585468503785023
 30
0.0
 40
0.0354
 50
181.0000000009432881
 51
270.0
  0
ARC
  5
33D98
  8
0
 10
7305.3900732258498465
 20
113.6977253876195988
 30
0.0
 40
0.0354
 50
89.9999999999478888
 51
181.000000000960398
  0
LINE
  5
33D99
  8
0
 10
7303.2480167414223615
 20
116.1946762764361978
 30
0.0
 11
7303.2332035362387614
 21
117.0433242315122015
 31
0.0
  0
LINE
  5
33D9A
  8
0
 10
7303.3110071462160704
 20
116.132775778043694
 30
0.0
 11
7306.0767588752705706
 21
116.132775778043694
 31
0.0
  0
ARC
  5
33D9B
  8
0
 10
7303.2529005358328504
 20
117.0436680439195953
 30
0.0
 40
0.0197
 50
90.0
 51
181.0000000017265052
  0
ARC
  5
33D9C
  8
0
 10
7303.3110071462160704
 20
116.1957757780436964
 30
0.0
 40
0.063
 50
181.0000000017313084
 51
270.0
  0
LINE
  5
33D9D
  8
0
 10
7306.0767588752705706
 20
116.1001961791130981
 30
0.0
 11
7305.2891534685040824
 21
116.1001961791130981
 31
0.0
  0
ARC
  5
33D9E
  8
0
 10
7306.4590509188237775
 20
247.2034212134807944
 30
0.0
 40
131.1084447106908897
 50
268.6241392906958936
 51
269.4887356335929098
  0
ARC
  5
33D9F
  8
0
 10
7270.1145103060007386
 20
114.7692595283455006
 30
0.0
 40
35.9672069399155276
 50
358.475143557152478
 51
359.0486096178856883
  0
ARC
  5
33DA0
  8
0
 10
7265.3332762003637981
 20
112.2077832608896983
 30
0.0
 40
40.7540803986299096
 50
1.306675624770901
 51
1.7206672094621249
  0
ARC
  5
33DA1
  8
0
 10
7306.2873747389467098
 20
112.2650390220456984
 30
0.0
 40
0.2107010942670422
 50
181.6297336155510891
 51
203.8622998045283055
  0
ARC
  5
33DA2
  8
0
 10
7306.3276875379642661
 20
112.2831561270257055
 30
0.0
 40
0.2548971940836049
 50
203.9208154752114979
 51
223.5259018600906131
  0
ARC
  5
33DA3
  8
0
 10
7306.4028279067360927
 20
112.3545262612954048
 30
0.0
 40
0.3585300609001223
 50
223.5259018600906131
 51
243.94799340734221
  0
ARC
  5
33DA4
  8
0
 10
7306.4702352555168545
 20
112.4924140090416955
 30
0.0
 40
0.5120122476466247
 50
243.94799340734221
 51
260.6078437450813112
  0
ARC
  5
33DA5
  8
0
 10
7306.4967320465393641
 20
112.7698993858581957
 30
0.0
 40
0.790333665560786
 50
261.995655557399175
 51
268.6606528418074049
  0
ARC
  5
33DA6
  8
0
 10
7306.2702890253221994
 20
112.2508845533327957
 30
0.0
 40
0.1928364627035916
 50
181.3553862810983901
 51
195.5392716378156877
  0
ARC
  5
33DA7
  8
0
 10
7306.3195183260631893
 20
112.270082475165097
 30
0.0
 40
0.2454667787292463
 50
196.7782707137907892
 51
230.3266973028923132
  0
ARC
  5
33DA8
  8
0
 10
7306.4041720700051883
 20
112.3627975283555003
 30
0.0
 40
0.3709210278331991
 50
229.4048494079291061
 51
244.9218754891221863
  0
LINE
  5
33DA9
  8
0
 10
7306.2469558398706795
 20
112.026842969119599
 30
0.0
 11
7306.248009422771247
 21
111.9947803625196059
 31
0.0
  0
ARC
  5
33DAA
  8
0
 10
7306.2687048764883002
 20
112.2177246577188043
 30
0.0
 40
0.1894250273722907
 50
178.1850333235018127
 51
187.798405734793306
  0
ARC
  5
33DAB
  8
0
 10
7306.2771125246272277
 20
112.2188761239195998
 30
0.0
 40
0.1979111585067943
 50
187.7984057347941018
 51
205.8249874281534062
  0
ARC
  5
33DAC
  8
0
 10
7306.3250230760531849
 20
112.2420627721568991
 30
0.0
 40
0.2511374827681449
 50
205.8249874281540883
 51
227.4463160579350927
  0
ARC
  5
33DAD
  8
0
 10
7306.4052707625996845
 20
112.3294731872514944
 30
0.0
 40
0.3697978041198782
 50
227.4463160579350927
 51
244.8326856286672921
  0
ARC
  5
33DAE
  8
0
 10
7306.2748824810705628
 20
112.199876572765703
 30
0.0
 40
0.1946119643910962
 50
180.4594136137293958
 51
201.7329401317425095
  0
ARC
  5
33DAF
  8
0
 10
7306.3086457454328411
 20
112.2133350975985024
 30
0.0
 40
0.2309587649519058
 50
201.7329401317425095
 51
221.2299513906984032
  0
ARC
  5
33DB0
  8
0
 10
7306.3835616856513298
 20
112.2789882529582002
 30
0.0
 40
0.3305716903548823
 50
221.2299513906984032
 51
244.8485376738013883
  0
ARC
  5
33DB1
  8
0
 10
7306.4582947023563975
 20
112.3968948771679948
 30
0.0
 40
0.46938942309379
 50
242.7075674705569952
 51
259.4087178290230895
  0
ARC
  5
33DB2
  8
0
 10
7306.4815447382252387
 20
112.6258153090776943
 30
0.0
 40
0.6989475775326782
 50
260.9846319579726241
 51
269.7306424989840821
  0
ARC
  5
33DB3
  8
0
 10
7306.3020439911915673
 20
112.1870962892913042
 30
0.0
 40
0.2773965591159463
 50
144.3056424004834923
 51
157.812394629085901
  0
ARC
  5
33DB4
  8
0
 10
7306.3393703690871916
 20
112.2461211037550015
 30
0.0
 40
0.3094998551616643
 50
198.1012640131789908
 51
236.7012974100155134
  0
ARC
  5
33DB5
  8
0
 10
7306.4663262367857897
 20
112.4394024787746957
 30
0.0
 40
0.5407475195221806
 50
236.7012974100155134
 51
253.0773663143079091
  0
ARC
  5
33DB6
  8
0
 10
7306.4784354926769083
 20
112.5194333508395061
 30
0.0
 40
0.6209481466687078
 50
254.157974025616511
 51
269.9837032574769751
  0
ARC
  5
33DB7
  8
0
 10
7306.3609046256951842
 20
111.9201046949377059
 30
0.0
 40
0.3373304406011661
 50
200.621596504154013
 51
228.4242843761373933
  0
ARC
  5
33DB8
  8
0
 10
7306.4369007171580961
 20
112.0057742605306998
 30
0.0
 40
0.4518497856322015
 50
228.4242843761373933
 51
251.8827466508074053
  0
ARC
  5
33DB9
  8
0
 10
7306.5183938918344211
 20
112.3684378693275931
 30
0.0
 40
0.8226333093714815
 50
254.3436476584732873
 51
267.2035166894219742
  0
ARC
  5
33DBA
  8
0
 10
7306.301989620454151
 20
111.5526001789313995
 30
0.0
 40
0.4825166654177101
 50
122.1550963042403026
 51
148.5965480578337861
  0
ARC
  5
33DBB
  8
0
 10
7306.2003472545329714
 20
111.6148943801787965
 30
0.0
 40
0.3633039105937216
 50
148.6292615296366932
 51
171.4663512876491893
  0
ARC
  5
33DBC
  8
0
 10
7306.1649780243842542
 20
111.6174983431274939
 30
0.0
 40
0.3279507505907
 50
170.9992955562076133
 51
204.0353327824680889
  0
ARC
  5
33DBD
  8
0
 10
7306.319610347910384
 20
111.7064285872944964
 30
0.0
 40
0.5057258340161228
 50
206.1020130908324006
 51
245.9794303062809036
  0
ARC
  5
33DBE
  8
0
 10
7306.5100579086947619
 20
112.1769772073778029
 30
0.0
 40
1.0132017905149071
 50
246.9741244668402089
 51
268.2014938575824203
  0
ARC
  5
33DBF
  8
0
 10
7306.2501824480495998
 20
111.6315337046475946
 30
0.0
 40
0.2541732694748186
 50
141.8533830545597141
 51
185.9107413758644043
  0
ARC
  5
33DC0
  8
0
 10
7306.2690493051695739
 20
111.6421698063731043
 30
0.0
 40
0.2741711822921862
 50
187.7159140326689908
 51
223.4948449676780058
  0
ARC
  5
33DC1
  8
0
 10
7306.387746970115586
 20
111.7500157126376052
 30
0.0
 40
0.4345217613240527
 50
223.038211221147094
 51
244.7708545811888996
  0
ARC
  5
33DC2
  8
0
 10
7306.472381385632616
 20
111.9303085592760993
 30
0.0
 40
0.6336911325899311
 50
244.7967827962870899
 51
270.5314263709316833
  0
ARC
  5
33DC3
  8
0
 10
7306.0783231141167562
 20
111.7219606282583015
 30
0.0
 40
0.0184208829734979
 50
98.6011660361639031
 51
119.4008684081342011
  0
ARC
  5
33DC4
  8
0
 10
7306.7693752873874473
 20
110.4955840573697969
 30
0.0
 40
1.426097195128661
 50
119.4008684081342011
 51
120.7984864065251003
  0
ARC
  5
33DC5
  8
0
 10
7306.2647644538628811
 20
111.5769344566305961
 30
0.0
 40
0.2674239054917456
 50
147.5146233900389063
 51
170.9782346417183021
  0
LINE
  5
33DC6
  8
0
 10
7306.0006488913695648
 20
111.6188691067196004
 30
0.0
 11
7306.0356693324301887
 21
111.6507749401117024
 31
0.0
  0
ARC
  5
33DC7
  8
0
 10
7306.0659020820448859
 20
111.6175909071812953
 30
0.0
 40
0.0448909700361443
 50
87.860464759478873
 51
132.3354977178904903
  0
ARC
  5
33DC8
  8
0
 10
7306.0777603384858594
 20
111.9350019979258946
 30
0.0
 40
0.2727415515567081
 50
267.8604647594788162
 51
272.1395599990826213
  0
ARC
  5
33DC9
  8
0
 10
7306.088678622898442
 20
111.6427546139256037
 30
0.0
 40
0.0197097134251535
 50
15.2034320749717793
 51
92.1395599990827066
  0
ARC
  5
33DCA
  8
0
 10
7303.9129768318498463
 20
111.6595482623924056
 30
0.0
 40
2.1947524665780751
 50
359.1154557084267935
 51
359.696522892517919
  0
ARC
  5
33DCB
  8
0
 10
7306.0953633254930537
 20
111.6270680104604054
 30
0.0
 40
0.0121852913601544
 50
324.3503438752080115
 51
353.3956947360259733
  0
ARC
  5
33DCC
  8
0
 10
7306.3284947518086483
 20
111.4793980268139961
 30
0.0
 40
0.2638008385270123
 50
147.8013210582147963
 51
155.9713994679219127
  0
ARC
  5
33DCD
  8
0
 10
7306.3024756022286965
 20
111.585091241447202
 30
0.0
 40
0.1991843771811902
 50
152.2547134182046875
 51
168.2461624116824055
  0
ARC
  5
33DCE
  8
0
 10
7306.3023478472714487
 20
111.6086585455195035
 30
0.0
 40
0.1985701253002274
 50
157.3987375959065957
 51
168.5952790801279946
  0
ARC
  5
33DCF
  8
0
 10
7306.2928352017715952
 20
111.6225521182195024
 30
0.0
 40
0.2087409629003033
 50
156.7382380556099122
 51
168.980757265966588
  0
ARC
  5
33DD0
  8
0
 10
7306.2883563857785703
 20
111.6209884169881974
 30
0.0
 40
0.2246563912816045
 50
153.2376674092786004
 51
169.3644482237799878
  0
ARC
  5
33DD1
  8
0
 10
7306.2786355984781039
 20
111.6088431521359041
 30
0.0
 40
0.2459213425812815
 50
148.2958977764675126
 51
170.0214878175137017
  0
LINE
  5
33DD2
  8
0
 10
7306.0006488913695648
 20
111.6188691067196004
 30
0.0
 11
7306.0004520720849541
 21
111.5871665012088982
 31
0.0
  0
LINE
  5
33DD3
  8
0
 10
7306.0012016553773719
 20
111.5836251763884945
 30
0.0
 11
7306.020216418371092
 21
111.5825512066195984
 31
0.0
  0
LINE
  5
33DD4
  8
0
 10
7306.020216418371092
 20
111.5825512066195984
 30
0.0
 11
7306.0200987539537891
 21
111.5631215704117949
 31
0.0
  0
ARC
  5
33DD5
  8
0
 10
7306.2502341195086046
 20
111.5231784925255027
 30
0.0
 40
0.2410935520434754
 50
165.6935930400127859
 51
172.2166049360251066
  0
LINE
  5
33DD6
  8
0
 10
7306.009381988408677
 20
111.5541770691408061
 30
0.0
 11
7306.0365218186698257
 21
111.5768287027195953
 31
0.0
  0
ARC
  5
33DD7
  8
0
 10
7306.0663425059119618
 20
111.5373773187262998
 30
0.0
 40
0.0494538682660768
 50
88.5696767146969393
 51
127.0850671153924054
  0
ARC
  5
33DD8
  8
0
 10
7306.0780214212372812
 20
-13688.2916995241594122
 30
0.0
 40
13799.8785153062399331
 50
89.999958807453865
 51
90.0000433644996036
  0
ARC
  5
33DD9
  8
0
 10
7306.0895029350112964
 20
111.5655428643363933
 30
0.0
 40
0.0213300478263289
 50
41.1998299019751926
 51
94.1945436225151695
  0
ARC
  5
33DDA
  8
0
 10
7306.0990497389848315
 20
111.5739004093732945
 30
0.0
 40
0.0086418633551702
 50
5.3619173495112253
 51
41.1998299019751926
  0
ARC
  5
33DDB
  8
0
 10
7306.3059634146138706
 20
111.6166661963598017
 30
0.0
 40
0.202699781468191
 50
191.9464230411790879
 51
209.9794672267331066
  0
ARC
  5
33DDC
  8
0
 10
7305.8664419955839548
 20
111.4909792452927064
 30
0.0
 40
0.2650673721283294
 50
359.942918982963306
 51
5.2816667774225481
  0
ARC
  5
33DDD
  8
0
 10
7306.1151754123548017
 20
111.4907183713796002
 30
0.0
 40
0.0163338241297796
 50
335.904232982714916
 51
359.9887755327879972
  0
ARC
  5
33DDE
  8
0
 10
7306.4961669579388399
 20
111.3271156481206958
 30
0.0
 40
0.3983009358090776
 50
156.7958062453284072
 51
166.9076261608034883
  0
LINE
  5
33DDF
  8
0
 10
7306.0556951232547362
 20
111.4699785456792966
 30
0.0
 11
7306.0692800032711602
 21
111.490361208819607
 31
0.0
  0
ARC
  5
33DE0
  8
0
 10
7306.1184308354249879
 20
111.4576025769919028
 30
0.0
 40
0.0590671842965141
 50
112.4673833373896059
 51
146.3168651248755907
  0
ARC
  5
33DE1
  8
0
 10
7306.8988725646868261
 20
109.5704116562754962
 30
0.0
 40
2.1012667005066281
 50
111.8864214745563004
 51
112.4673833373896059
  0
ARC
  5
33DE2
  8
0
 10
7306.120361250960741
 20
111.505341946357504
 30
0.0
 40
0.0156333938345993
 50
58.5280059033523301
 51
107.7783428332475069
  0
ARC
  5
33DE3
  8
0
 10
7306.3003292895336926
 20
111.6289307839827956
 30
0.0
 40
0.216542995773355
 50
191.2148131893171126
 51
210.3852635812689869
  0
ARC
  5
33DE4
  8
0
 10
7306.2920560487427792
 20
111.6294841607773947
 30
0.0
 40
0.228540704784602
 50
190.7599480577353859
 51
210.8749930460502071
  0
ARC
  5
33DE5
  8
0
 10
7306.2794925659391083
 20
111.6196549594550049
 30
0.0
 40
0.246767809910523
 50
190.0032114321062124
 51
211.5915275983666959
  0
LINE
  5
33DE6
  8
0
 10
7306.1129579266989822
 20
111.4134148470989061
 30
0.0
 11
7306.1221218982709615
 21
111.4256565540195965
 31
0.0
  0
ARC
  5
33DE7
  8
0
 10
7306.1736620528981803
 20
111.3870743109601023
 30
0.0
 40
0.064381495932376
 50
112.1973772587245008
 51
143.1819844764580125
  0
ARC
  5
33DE8
  8
0
 10
7286.0887717439518383
 20
160.6100363246407881
 30
0.0
 40
53.0986019429473117
 50
292.1973772587244866
 51
292.2179336141152817
  0
ARC
  5
33DE9
  8
0
 10
7306.1757475027434339
 20
111.4324104942037934
 30
0.0
 40
0.0231965719062132
 50
90.9790427603337832
 51
112.2179336141151964
  0
ARC
  5
33DEA
  8
0
 10
7306.1755097561999719
 20
111.4463226013298964
 30
0.0
 40
0.0092824334812721
 50
56.3643708463127524
 51
90.9790427603337832
  0
ARC
  5
33DEB
  8
0
 10
7306.4126804428060495
 20
111.7137986637879976
 30
0.0
 40
0.348290631055942
 50
228.2260241126433016
 51
241.2464168234052977
  0
ARC
  5
33DEC
  8
0
 10
7306.2402888021206309
 20
111.4033693135292964
 30
0.0
 40
0.0070255056964719
 50
1.7005787354681601
 51
46.3579035624887723
  0
ARC
  5
33DED
  8
0
 10
7303.0789876550134068
 20
111.2353678422824999
 30
0.0
 40
3.1727856471577831
 50
2.6392732119853211
 51
3.0390459950351301
  0
ARC
  5
33DEE
  8
0
 10
7306.2204170932773195
 20
111.3804701077201997
 30
0.0
 40
0.02800840886077
 50
351.0326506669937885
 51
2.0405211969387769
  0
ARC
  5
33DEF
  8
0
 10
7307.1500706188762706
 20
111.2020309628288999
 30
0.0
 40
0.9186310068470195
 50
169.076847725681688
 51
171.3600497989700102
  0
LINE
  5
33DF0
  8
0
 10
7306.2090824970973699
 20
111.3539075297665022
 30
0.0
 11
7306.211629513070875
 21
111.3623546010196037
 31
0.0
  0
ARC
  5
33DF1
  8
0
 10
7306.3086131990730792
 20
111.3331114479840949
 30
0.0
 40
0.1012965811363283
 50
150.4924553972404055
 51
163.2205482551842977
  0
ARC
  5
33DF2
  8
0
 10
7306.2788092582077297
 20
111.3499788875582936
 30
0.0
 40
0.0670506265023151
 50
141.1326674537478993
 51
150.4924553972410877
  0
ARC
  5
33DF3
  8
0
 10
7307.212494071657602
 20
110.5974687601082991
 30
0.0
 40
1.2662331909101241
 50
140.4042928270226867
 51
141.1326674537478993
  0
ARC
  5
33DF4
  8
0
 10
7306.2521413074528027
 20
111.3918204708325987
 30
0.0
 40
0.0199298281428664
 50
125.3940107055376956
 51
140.4042928270226867
  0
ARC
  5
33DF5
  8
0
 10
7306.2434800004084536
 20
111.4040108123191999
 30
0.0
 40
0.0049758097763188
 50
80.639945100832648
 51
125.3940107055363029
  0
ARC
  5
33DF6
  8
0
 10
7306.4105169043068599
 20
111.7248322976410009
 30
0.0
 40
0.3643631250866202
 50
228.0455203609787986
 51
241.5258838669159047
  0
ARC
  5
33DF7
  8
0
 10
7306.4039678889075731
 20
111.7255362381595063
 30
0.0
 40
0.3776529569243867
 50
227.5971276756810937
 51
241.995240182436504
  0
ARC
  5
33DF8
  8
0
 10
7306.3955966791136234
 20
111.7185943025838952
 30
0.0
 40
0.4008002692865726
 50
226.9687875022003993
 51
242.6839108900576036
  0
LINE
  5
33DF9
  8
0
 10
7306.3013345105709959
 20
111.3201385681627045
 30
0.0
 11
7306.3031485898700339
 21
111.3250018221196029
 31
0.0
  0
ARC
  5
33DFA
  8
0
 10
7306.4105716036310696
 20
111.2849311477920935
 30
0.0
 40
0.1146532285902673
 50
142.8101728634790959
 51
159.5435995845980131
  0
ARC
  5
33DFB
  8
0
 10
7306.4992449996743744
 20
111.2176491882240015
 30
0.0
 40
0.2259628564268241
 50
138.7267876763509094
 51
142.8101728634798064
  0
ARC
  5
33DFC
  8
0
 10
7306.3541734923301192
 20
111.3449774972264947
 30
0.0
 40
0.0329389187503391
 50
129.975571183583213
 51
138.726787676349602
  0
ARC
  5
33DFD
  8
0
 10
7306.3359221892478672
 20
111.3667473966508936
 30
0.0
 40
0.0045304942053468
 50
83.3692417015610232
 51
129.9755711835836962
  0
ARC
  5
33DFE
  8
0
 10
7306.4750714565880116
 20
111.8610536045272994
 30
0.0
 40
0.50904532165214
 50
254.1972927867720955
 51
264.358651136813819
  0
ARC
  5
33DFF
  8
0
 10
7305.4140749117559608
 20
111.2696206068953018
 30
0.0
 40
1.014511587275654
 50
1.612039715981946
 51
4.7977887986614309
  0
LINE
  5
33E00
  8
0
 10
7306.4250317395699312
 20
111.3544737330196028
 30
0.0
 11
7306.4247769894773228
 21
111.3342379572563061
 31
0.0
  0
LINE
  5
33E01
  8
0
 10
7306.4247769894773228
 20
111.3342379572563061
 30
0.0
 11
7306.4254912372898616
 21
111.2983546325444024
 31
0.0
  0
ARC
  5
33E02
  8
0
 10
7306.4746908528650238
 20
111.8732777112689973
 30
0.0
 40
0.5269972723371775
 50
253.9979931707995888
 51
264.5849482966663118
  0
ARC
  5
33E03
  8
0
 10
7306.4748512159367237
 20
111.8881330624438988
 30
0.0
 40
0.5561358722015882
 50
253.7492694208071953
 51
264.8341409460496152
  0
LINE
  5
33E04
  8
0
 10
7305.8370272737929554
 20
111.6174983431274939
 30
0.0
 11
7305.8059689359697586
 21
111.3878298377195932
 31
0.0
  0
ARC
  5
33E05
  8
0
 10
7306.1395116557996516
 20
111.3463462833685043
 30
0.0
 40
0.3361125276335669
 50
172.9103842552283083
 51
189.6851120085740945
  0
ARC
  5
33E06
  8
0
 10
7306.1811305976543736
 20
111.3534492094455999
 30
0.0
 40
0.3783332320324276
 50
189.6851120085740945
 51
221.8149497614955123
  0
ARC
  5
33E07
  8
0
 10
7306.371588172216434
 20
111.5238273771341966
 30
0.0
 40
0.6338773725116251
 50
221.8149497614955123
 51
245.816208825958995
  0
ARC
  5
33E08
  8
0
 10
7306.504284006630769
 20
111.9150083395662989
 30
0.0
 40
1.0458226184420409
 50
247.9644749716763101
 51
268.5740563425944742
  0
ARC
  5
33E09
  8
0
 10
7306.4294279942596404
 20
109.7601056883063961
 30
0.0
 40
2.7627568286667148
 50
97.3338829386448623
 51
113.1399180093902004
  0
ARC
  5
33E0A
  8
0
 10
7306.2053224337360007
 20
110.2845011441018954
 30
0.0
 40
2.192481547493994
 50
113.1399180093902004
 51
128.0776206550210929
  0
ARC
  5
33E0B
  8
0
 10
7305.8502276186973177
 20
110.7377348212501005
 30
0.0
 40
1.616709809937293
 50
128.0776206550210929
 51
150.056056233038305
  0
ARC
  5
33E0C
  8
0
 10
7305.4341293332599889
 20
110.9774267894866995
 30
0.0
 40
1.1365119103358681
 50
150.056056233038305
 51
170.3363155748266138
  0
ARC
  5
33E0D
  8
0
 10
7305.4524077354672045
 20
110.9743143275241977
 30
0.0
 40
1.1550534153108101
 50
170.3363155748266138
 51
197.6212343014622945
  0
ARC
  5
33E0E
  8
0
 10
7305.5552141955658954
 20
111.0069683975546013
 30
0.0
 40
1.2629211886607901
 50
197.6212343014622945
 51
226.1022804848093983
  0
ARC
  5
33E0F
  8
0
 10
7306.2722424942439829
 20
111.752130403916297
 30
0.0
 40
2.2970372347742982
 50
226.1022804848093983
 51
243.3381740549799019
  0
ARC
  5
33E10
  8
0
 10
7306.3032302089923178
 20
111.8138450170333016
 30
0.0
 40
2.3660946886626322
 50
243.3381740549799019
 51
260.6383394806468914
  0
ARC
  5
33E11
  8
0
 10
7306.546798531130662
 20
113.232815547620902
 30
0.0
 40
3.8057983768308028
 50
260.4952222051463764
 51
268.9680889709375151
  0
ARC
  5
33E12
  8
0
 10
7305.5180258989303184
 20
110.5873114298312032
 30
0.0
 40
1.2731855749619061
 50
182.0871450797924922
 51
220.1623370051318886
  0
ARC
  5
33E13
  8
0
 10
7306.0429951105816144
 20
111.030353615226403
 30
0.0
 40
1.9601201069389
 50
220.1623370051318886
 51
239.9445253367279918
  0
ARC
  5
33E14
  8
0
 10
7306.3421805237248918
 20
111.5474011873568969
 30
0.0
 40
2.5574894259400192
 50
239.9445253367279918
 51
258.2079100574457016
  0
ARC
  5
33E15
  8
0
 10
7306.6048351513427406
 20
113.2237889637441981
 30
0.0
 40
4.2530334360985398
 50
259.3595074535675167
 51
268.294544928956725
  0
ARC
  5
33E16
  8
0
 10
7330.0938941548856747
 20
107.5874870029869044
 30
0.0
 40
26.0264718036382305
 50
172.3163246508264876
 51
173.2902194666432081
  0
LINE
  5
33E17
  8
0
 10
7306.0725315825593498
 20
113.3069375004416059
 30
0.0
 11
7305.3959936092451244
 21
113.3231468503785067
 31
0.0
  0
LINE
  5
33E18
  8
0
 10
7308.7108327825762899
 20
110.5409426506032986
 30
0.0
 11
7308.7108327825762899
 21
110.6284270508742935
 31
0.0
  0
LINE
  5
33E19
  8
0
 10
7306.9113297413714463
 20
111.8012987851251978
 30
0.0
 11
7306.9113297413714463
 21
112.2918524609937947
 31
0.0
  0
LINE
  5
33E1A
  8
0
 10
7306.8875374045719582
 20
113.4314976473129946
 30
0.0
 11
7306.8875374045719582
 21
113.8121497103897042
 31
0.0
  0
LINE
  5
33E1B
  8
0
 10
7306.8797588752704542
 20
112.2590466024180955
 30
0.0
 11
7306.8797588752704542
 21
113.1371317732974973
 31
0.0
  0
LINE
  5
33E1C
  8
0
 10
7306.8797588752704542
 20
114.1720552912835984
 30
0.0
 11
7306.8797588752704542
 21
116.6918674378488987
 31
0.0
  0
ARC
  5
33E1D
  8
0
 10
7306.9113297413714463
 20
118.212356142119603
 30
0.0
 40
1.5033188069000629
 50
270.0
 51
297.9357011695199731
  0
ARC
  5
33E1E
  8
0
 10
7307.5787357303906902
 20
116.9537426228877024
 30
0.0
 40
0.0787
 50
297.9357011695199731
 51
358.9999999811703901
  0
LINE
  5
33E1F
  8
0
 10
7307.6574237439999706
 20
116.9523691184753034
 30
0.0
 11
7307.659151586808548
 21
117.0513621055197007
 31
0.0
  0
ARC
  5
33E20
  8
0
 10
7307.6473533840053278
 20
117.0515680439196018
 30
0.0
 40
0.0118
 50
358.9999999811532803
 51
90.0
  0
ARC
  5
33E21
  8
0
 10
7210.9144898664007997
 20
112.7990480124297932
 30
0.0
 40
96.0441924273595191
 50
2.3229227316491108
 51
2.3320437234448281
  0
ARC
  5
33E22
  8
0
 10
7306.8782119509924087
 20
116.7068565891207044
 30
0.0
 40
0.0009696503113352
 50
17.256018299566481
 51
67.8791433838668041
  0
ARC
  5
33E23
  8
0
 10
7307.1899345864112547
 20
117.3089191616150941
 30
0.0
 40
0.6770096053942787
 50
242.3842014803421137
 51
242.6192703174357916
  0
ARC
  5
33E24
  8
0
 10
7306.3968445175887609
 20
116.0265944223503993
 30
0.0
 40
1.2290620435456101
 50
358.6760754295859783
 51
3.4331827550642489
  0
ARC
  5
33E25
  8
0
 10
1705.2827153301830094
 20
169.2608185463901975
 30
0.0
 40
5602.5960467367949605
 50
359.4325293135185007
 51
359.4552936971508075
  0
LINE
  5
33E26
  8
0
 10
7307.5842752854014179
 20
113.7528104270195968
 30
0.0
 11
7306.8875374045719582
 21
113.7528104270195968
 31
0.0
  0
LINE
  5
33E27
  8
0
 10
7307.5664445246929972
 20
113.7331253876195944
 30
0.0
 11
7306.8875374045719582
 21
113.7331253876188981
 31
0.0
  0
ARC
  5
33E28
  8
0
 10
7307.5842752853995989
 20
113.772510427020606
 30
0.0
 40
0.0197
 50
270.0000000012507257
 51
359.4325293156157954
  0
LINE
  5
33E29
  8
0
 10
7307.6018391330999293
 20
113.6971075724310936
 30
0.0
 11
7307.5959187497055609
 21
113.3579290351900966
 31
0.0
  0
LINE
  5
33E2A
  8
0
 10
7307.5605241412968098
 20
113.3231468503785067
 30
0.0
 11
7306.8844267269505508
 21
113.3231468503785067
 31
0.0
  0
ARC
  5
33E2B
  8
0
 10
7307.5605241412968098
 20
113.3585468503785023
 30
0.0
 40
0.0354
 50
270.0
 51
358.9999999990566835
  0
ARC
  5
33E2C
  8
0
 10
7307.5664445246929972
 20
113.6977253876195988
 30
0.0
 40
0.0354
 50
358.9999999990387778
 51
90.0000000000521254
  0
LINE
  5
33E2D
  8
0
 10
7309.7085010091195727
 20
116.1946762764361978
 30
0.0
 11
7309.7233142143040823
 21
117.0433242315122015
 31
0.0
  0
LINE
  5
33E2E
  8
0
 10
7309.6455106043258638
 20
116.132775778043694
 30
0.0
 11
7306.8797588752704542
 21
116.132775778043694
 31
0.0
  0
ARC
  5
33E2F
  8
0
 10
7309.7036172147099933
 20
117.0436680439195953
 30
0.0
 40
0.0197
 50
358.9999999982734948
 51
90.0
  0
ARC
  5
33E30
  8
0
 10
7309.6455106043258638
 20
116.1957757780436964
 30
0.0
 40
0.063
 50
270.0
 51
358.9999999982686063
  0
LINE
  5
33E31
  8
0
 10
7306.8797588752704542
 20
116.1001961791130981
 30
0.0
 11
7307.6673642820360328
 21
116.1001961791130981
 31
0.0
  0
ARC
  5
33E32
  8
0
 10
7306.4974668317190662
 20
247.2034212134807944
 30
0.0
 40
131.1084447106908897
 50
270.5112643664072039
 51
271.3758607093041064
  0
ARC
  5
33E33
  8
0
 10
7342.8420074445402861
 20
114.7692595283455006
 30
0.0
 40
35.9672069399155276
 50
180.9513903821143117
 51
181.5248564428474936
  0
ARC
  5
33E34
  8
0
 10
7347.6232415501781361
 20
112.2077832608896983
 30
0.0
 40
40.7540803986299096
 50
178.2793327905378931
 51
178.6933243752291105
  0
ARC
  5
33E35
  8
0
 10
7306.6691430115934054
 20
112.2650390220456984
 30
0.0
 40
0.2107010942670422
 50
336.137700195471723
 51
358.3702663844488256
  0
ARC
  5
33E36
  8
0
 10
7306.6288302125776681
 20
112.2831561270257055
 30
0.0
 40
0.2548971940836049
 50
316.4740981399094721
 51
336.0791845247885021
  0
ARC
  5
33E37
  8
0
 10
7306.553689843806751
 20
112.3545262612954048
 30
0.0
 40
0.3585300609001223
 50
296.05200659265779
 51
316.4740981399094721
  0
ARC
  5
33E38
  8
0
 10
7306.4862824950241702
 20
112.4924140090416955
 30
0.0
 40
0.5120122476466247
 50
279.3921562549186888
 51
296.05200659265779
  0
ARC
  5
33E39
  8
0
 10
7306.4597857040007511
 20
112.7698993858581957
 30
0.0
 40
0.790333665560786
 50
271.3393471581924814
 51
278.004344442600825
  0
ARC
  5
33E3A
  8
0
 10
7306.687812874053634
 20
112.2177246577188043
 30
0.0
 40
0.1894250273722907
 50
354.1191439974389255
 51
3.6240646171997022
  0
ARC
  5
33E3B
  8
0
 10
7306.6816352694695524
 20
112.199876572765703
 30
0.0
 40
0.1946119643910962
 50
338.2670598682574905
 51
359.5405863862706042
  0
ARC
  5
33E3C
  8
0
 10
7306.6478720051081837
 20
112.2133350975985024
 30
0.0
 40
0.2309587649519058
 50
318.7700486093016252
 51
338.2670598682574905
  0
ARC
  5
33E3D
  8
0
 10
7306.5729560648924235
 20
112.2789882529582002
 30
0.0
 40
0.3305716903548823
 50
295.1514623261986117
 51
318.7700486093016252
  0
ARC
  5
33E3E
  8
0
 10
7306.4982230481837178
 20
112.3968948771679948
 30
0.0
 40
0.46938942309379
 50
280.5912821709767968
 51
297.2924325294429764
  0
ARC
  5
33E3F
  8
0
 10
7306.4749730123148765
 20
112.6258153090776943
 30
0.0
 40
0.6989475775326782
 50
270.2693575010159179
 51
279.0153680420273759
  0
ARC
  5
33E40
  8
0
 10
7306.6544737593503669
 20
112.1870962892913042
 30
0.0
 40
0.2773965591159463
 50
22.187605370914099
 51
35.6943575995164721
  0
ARC
  5
33E41
  8
0
 10
7306.6171473814529236
 20
112.2461211037550015
 30
0.0
 40
0.3094998551616643
 50
303.2987025899846003
 51
341.8987359868208955
  0
ARC
  5
33E42
  8
0
 10
7306.4901915137570541
 20
112.4394024787746957
 30
0.0
 40
0.5407475195221806
 50
286.9226336856921193
 51
303.2987025899846003
  0
ARC
  5
33E43
  8
0
 10
7306.4780822578650259
 20
112.5194333508395061
 30
0.0
 40
0.6209481466687078
 50
270.0162967425230249
 51
285.8420259743833753
  0
ARC
  5
33E44
  8
0
 10
7306.595613124844931
 20
111.9201046949377059
 30
0.0
 40
0.3373304406011661
 50
311.5757156238626067
 51
339.378403495845987
  0
ARC
  5
33E45
  8
0
 10
7306.5196170333847476
 20
112.0057742605306998
 30
0.0
 40
0.4518497856322015
 50
288.1172533491925947
 51
311.5757156238626067
  0
ARC
  5
33E46
  8
0
 10
7306.4381238587093321
 20
112.3684378693275931
 30
0.0
 40
0.8226333093714815
 50
272.7964833105780258
 51
285.6563523415267127
  0
ARC
  5
33E47
  8
0
 10
7306.6545281300877832
 20
111.5526001789313995
 30
0.0
 40
0.4825166654177101
 50
31.403451942166221
 51
57.8449036957597187
  0
ARC
  5
33E48
  8
0
 10
7306.7561704960098723
 20
111.6148943801787965
 30
0.0
 40
0.3633039105937216
 50
8.5336487123507982
 51
31.3707384703632997
  0
ARC
  5
33E49
  8
0
 10
7306.7915397261585895
 20
111.6174983431274939
 30
0.0
 40
0.3279507505907
 50
335.9646672175318258
 51
9.0007044437923795
  0
ARC
  5
33E4A
  8
0
 10
7306.6369074026306407
 20
111.7064285872944964
 30
0.0
 40
0.5057258340161228
 50
294.0205696937189828
 51
333.8979869091668888
  0
ARC
  5
33E4B
  8
0
 10
7306.4464598418471724
 20
112.1769772073778029
 30
0.0
 40
1.0132017905149071
 50
271.7985061424175797
 51
293.0258755331598195
  0
ARC
  5
33E4C
  8
0
 10
7306.7063353024923344
 20
111.6315337046475946
 30
0.0
 40
0.2541732694748186
 50
354.089258624135482
 51
38.1466169454402504
  0
ARC
  5
33E4D
  8
0
 10
7306.6874684453723603
 20
111.6421698063731043
 30
0.0
 40
0.2741711822921862
 50
316.5051550323219089
 51
352.2840859673308955
  0
ARC
  5
33E4E
  8
0
 10
7306.5687707804263482
 20
111.7500157126376052
 30
0.0
 40
0.4345217613240527
 50
295.229145418811072
 51
316.961788778852906
  0
ARC
  5
33E4F
  8
0
 10
7306.4841363649093182
 20
111.9303085592760993
 30
0.0
 40
0.6336911325899311
 50
269.468573629068203
 51
295.2032172037128817
  0
ARC
  5
33E50
  8
0
 10
7306.8781946364242685
 20
111.7219606282583015
 30
0.0
 40
0.0184208829734979
 50
60.5991315918657421
 51
81.3988339638361111
  0
ARC
  5
33E51
  8
0
 10
7306.1871424631563059
 20
110.4955840573697969
 30
0.0
 40
1.426097195128661
 50
59.20151359347485
 51
60.5991315918657421
  0
ARC
  5
33E52
  8
0
 10
7306.6917532966790532
 20
111.5769344566305961
 30
0.0
 40
0.2674239054917456
 50
9.021765358281657
 51
32.4853766099610723
  0
LINE
  5
33E53
  8
0
 10
7306.9558688591705504
 20
111.6188691067196004
 30
0.0
 11
7306.9208484181099266
 21
111.6507749401117024
 31
0.0
  0
ARC
  5
33E54
  8
0
 10
7306.8906156684961388
 20
111.6175909071812953
 30
0.0
 40
0.0448909700361443
 50
47.6645022821095097
 51
92.1395352405211554
  0
ARC
  5
33E55
  8
0
 10
7306.8787574120560748
 20
111.9350019979258946
 30
0.0
 40
0.2727415515567081
 50
267.8604400009173219
 51
272.139535240521127
  0
ARC
  5
33E56
  8
0
 10
7306.8678391276453112
 20
111.6427546139256037
 30
0.0
 40
0.0197097134251535
 50
87.8604400009173077
 51
164.7965679250281994
  0
ARC
  5
33E57
  8
0
 10
7309.0435409186911784
 20
111.6595482623924056
 30
0.0
 40
2.1947524665780751
 50
180.3034771074821094
 51
180.8845442915732065
  0
ARC
  5
33E58
  8
0
 10
7306.8611544250488805
 20
111.6270680104604054
 30
0.0
 40
0.0121852913601544
 50
186.6043052639739983
 51
215.6496561247919033
  0
ARC
  5
33E59
  8
0
 10
7306.6280229987332859
 20
111.4793980268139961
 30
0.0
 40
0.2638008385270123
 50
24.0286005320781086
 51
32.1986789417852179
  0
ARC
  5
33E5A
  8
0
 10
7306.6540421483141472
 20
111.585091241447202
 30
0.0
 40
0.1991843771811902
 50
11.7538375883175998
 51
27.7452865817952592
  0
ARC
  5
33E5B
  8
0
 10
7306.654169903271395
 20
111.6086585455195035
 30
0.0
 40
0.1985701253002274
 50
11.4047209198720108
 51
22.601262404093351
  0
ARC
  5
33E5C
  8
0
 10
7306.6636825487703391
 20
111.6225521182195024
 30
0.0
 40
0.2087409629003033
 50
11.0192427340333694
 51
23.2617619443900594
  0
ARC
  5
33E5D
  8
0
 10
7306.668161364763364
 20
111.6209884169881974
 30
0.0
 40
0.2246563912816045
 50
10.6355517762199696
 51
26.7623325907213889
  0
ARC
  5
33E5E
  8
0
 10
7306.6778821520629208
 20
111.6088431521359041
 30
0.0
 40
0.2459213425812815
 50
9.978512182486293
 51
31.7041022235324803
  0
LINE
  5
33E5F
  8
0
 10
7306.9558688591705504
 20
111.6188691067196004
 30
0.0
 11
7306.9560656784569801
 21
111.5871665012088982
 31
0.0
  0
LINE
  5
33E60
  8
0
 10
7306.9553160951663813
 20
111.5836251763884945
 30
0.0
 11
7306.9363013321708422
 21
111.5825512066195984
 31
0.0
  0
LINE
  5
33E61
  8
0
 10
7306.9363013321708422
 20
111.5825512066195984
 30
0.0
 11
7306.9364189965881451
 21
111.5631215704117949
 31
0.0
  0
ARC
  5
33E62
  8
0
 10
7306.7062836310306011
 20
111.5231784925255027
 30
0.0
 40
0.2410935520434754
 50
7.7833950639748668
 51
14.3064069599872301
  0
LINE
  5
33E63
  8
0
 10
7306.9471357621341667
 20
111.5541770691408061
 30
0.0
 11
7306.9199959318702895
 21
111.5768287027195953
 31
0.0
  0
ARC
  5
33E64
  8
0
 10
7306.8901752446308819
 20
111.5373773187262998
 30
0.0
 40
0.0494538682660768
 50
52.9149328846076017
 51
91.4303232853030323
  0
ARC
  5
33E65
  8
0
 10
7306.878496329304653
 20
-13688.2916995241594122
 30
0.0
 40
13799.8785153062399331
 50
89.9999566355003964
 51
90.000041192546135
  0
ARC
  5
33E66
  8
0
 10
7306.8670148155315474
 20
111.5655428643363933
 30
0.0
 40
0.0213300478263289
 50
85.8054563774848447
 51
138.8001700980248074
  0
ARC
  5
33E67
  8
0
 10
7306.8574680115561932
 20
111.5739004093732945
 30
0.0
 40
0.0086418633551702
 50
138.8001700980248074
 51
174.6380826504887125
  0
ARC
  5
33E68
  8
0
 10
7306.6505543359271542
 20
111.6166661963598017
 30
0.0
 40
0.202699781468191
 50
330.0205327732668934
 51
348.0535769588208268
  0
ARC
  5
33E69
  8
0
 10
7307.0900757549561604
 20
111.4909792452927064
 30
0.0
 40
0.2650673721283294
 50
174.7183332225773995
 51
180.057081017036694
  0
ARC
  5
33E6A
  8
0
 10
7306.8413423381871326
 20
111.4907183713796002
 30
0.0
 40
0.0163338241297796
 50
180.0112244672118891
 51
204.0957670172851124
  0
ARC
  5
33E6B
  8
0
 10
7306.4603507926040038
 20
111.3271156481206958
 30
0.0
 40
0.3983009358090776
 50
13.0923738391965205
 51
23.2041937546715715
  0
LINE
  5
33E6C
  8
0
 10
7306.900822627287198
 20
111.4699785456792966
 30
0.0
 11
7306.8872377472716835
 21
111.490361208819607
 31
0.0
  0
ARC
  5
33E6D
  8
0
 10
7306.8380869151151273
 20
111.4576025769919028
 30
0.0
 40
0.0590671842965141
 50
33.6831348751237414
 51
67.5326166626103515
  0
ARC
  5
33E6E
  8
0
 10
7306.0576451858541986
 20
109.5704116562754962
 30
0.0
 40
2.1012667005066281
 50
67.5326166626103515
 51
68.1135785254436428
  0
ARC
  5
33E6F
  8
0
 10
7306.8361564995811932
 20
111.505341946357504
 30
0.0
 40
0.0156333938345993
 50
72.2216571667524647
 51
121.4719940966476059
  0
ARC
  5
33E70
  8
0
 10
7306.6561884610073321
 20
111.6289307839827956
 30
0.0
 40
0.216542995773355
 50
329.6147364187310131
 51
348.7851868106828874
  0
ARC
  5
33E71
  8
0
 10
7306.664461701799155
 20
111.6294841607773947
 30
0.0
 40
0.228540704784602
 50
329.1250069539498213
 51
349.240051942264472
  0
ARC
  5
33E72
  8
0
 10
7306.6770251846019164
 20
111.6196549594550049
 30
0.0
 40
0.246767809910523
 50
328.4084724016332757
 51
349.9967885678937023
  0
LINE
  5
33E73
  8
0
 10
7306.843559823842952
 20
111.4134148470989061
 30
0.0
 11
7306.8343958522718822
 21
111.4256565540195965
 31
0.0
  0
ARC
  5
33E74
  8
0
 10
7306.782855697643754
 20
111.3870743109601023
 30
0.0
 40
0.064381495932376
 50
36.8180155235419804
 51
67.8026227412755276
  0
ARC
  5
33E75
  8
0
 10
7326.8677460065882769
 20
160.6100363246407881
 30
0.0
 40
53.0986019429473117
 50
247.7820663858846899
 51
247.8026227412755986
  0
ARC
  5
33E76
  8
0
 10
7306.7807702477994098
 20
111.4324104942037934
 30
0.0
 40
0.0231965719062132
 50
67.7820663858847325
 51
89.0209572396662168
  0
ARC
  5
33E77
  8
0
 10
7306.7810079943419623
 20
111.4463226013298964
 30
0.0
 40
0.0092824334812721
 50
89.0209572396662168
 51
123.635629153687205
  0
ARC
  5
33E78
  8
0
 10
7306.5438373077349752
 20
111.7137986637879976
 30
0.0
 40
0.348290631055942
 50
298.7535831765947023
 51
311.7739758873565847
  0
ARC
  5
33E79
  8
0
 10
7306.7162289484203939
 20
111.4033693135292964
 30
0.0
 40
0.0070255056964719
 50
133.6420964375112135
 51
178.2994212645317873
  0
ARC
  5
33E7A
  8
0
 10
7309.877530095527618
 20
111.2353678422824999
 30
0.0
 40
3.1727856471577831
 50
176.9609540049648899
 51
177.3607267880146878
  0
ARC
  5
33E7B
  8
0
 10
7306.7361006572646147
 20
111.3804701077201997
 30
0.0
 40
0.02800840886077
 50
177.959478803061188
 51
188.9673493330060978
  0
ARC
  5
33E7C
  8
0
 10
7305.8064471316665731
 20
111.2020309628288999
 30
0.0
 40
0.9186310068470195
 50
8.6399502010299614
 51
10.9231522743182907
  0
LINE
  5
33E7D
  8
0
 10
7306.7474352534427453
 20
111.3539075297665022
 30
0.0
 11
7306.7448882374710593
 21
111.3623546010196037
 31
0.0
  0
ARC
  5
33E7E
  8
0
 10
7306.6479045514697646
 20
111.3331114479840949
 30
0.0
 40
0.1012965811363283
 50
16.7794517448157308
 51
29.5075446027595909
  0
ARC
  5
33E7F
  8
0
 10
7306.677708492333295
 20
111.3499788875582936
 30
0.0
 40
0.0670506265023151
 50
29.5075446027588804
 51
38.8673325462521007
  0
ARC
  5
33E80
  8
0
 10
7305.7440236788852417
 20
110.5974687601082991
 30
0.0
 40
1.2662331909101241
 50
38.8673325462521007
 51
39.5957071729773276
  0
ARC
  5
33E81
  8
0
 10
7306.704376443088222
 20
111.3918204708325987
 30
0.0
 40
0.0199298281428664
 50
39.5957071729773276
 51
54.6059892944623115
  0
ARC
  5
33E82
  8
0
 10
7306.7130377501343901
 20
111.4040108123191999
 30
0.0
 40
0.0049758097763188
 50
54.6059892944637184
 51
99.3600548991673378
  0
ARC
  5
33E83
  8
0
 10
7306.5460008462341648
 20
111.7248322976410009
 30
0.0
 40
0.3643631250866202
 50
298.4741161330841237
 51
311.9544796390212014
  0
ARC
  5
33E84
  8
0
 10
7306.5525498616343612
 20
111.7255362381595063
 30
0.0
 40
0.3776529569243867
 50
298.0047598175635244
 51
312.4028723243188779
  0
ARC
  5
33E85
  8
0
 10
7306.5609210714292203
 20
111.7185943025838952
 30
0.0
 40
0.4008002692865726
 50
297.3160891099423111
 51
313.0312124977995722
  0
LINE
  5
33E86
  8
0
 10
7306.6551832399691193
 20
111.3201385681627045
 30
0.0
 11
7306.6533691606700813
 21
111.3250018221196029
 31
0.0
  0
ARC
  5
33E87
  8
0
 10
7306.5459461469108646
 20
111.2849311477920935
 30
0.0
 40
0.1146532285902673
 50
20.4564004154019905
 51
37.1898271365208473
  0
ARC
  5
33E88
  8
0
 10
7306.4572727508675598
 20
111.2176491882240015
 30
0.0
 40
0.2259628564268241
 50
37.1898271365202078
 51
41.2732123236491404
  0
ARC
  5
33E89
  8
0
 10
7306.602344258211815
 20
111.3449774972264947
 30
0.0
 40
0.0329389187503391
 50
41.2732123236503625
 51
50.024428816416787
  0
ARC
  5
33E8A
  8
0
 10
7306.6205955612931575
 20
111.3667473966508936
 30
0.0
 40
0.0045304942053468
 50
50.0244288164162683
 51
96.630758298438991
  0
ARC
  5
33E8B
  8
0
 10
7306.4814462939539226
 20
111.8610536045272994
 30
0.0
 40
0.50904532165214
 50
275.641348863186181
 51
285.8027072132279045
  0
ARC
  5
33E8C
  8
0
 10
7307.5424428387841544
 20
111.2696206068953018
 30
0.0
 40
1.014511587275654
 50
175.202211201338514
 51
178.3879602840179928
  0
LINE
  5
33E8D
  8
0
 10
7306.5314860109710935
 20
111.3544737330196028
 30
0.0
 11
7306.5317407610646114
 21
111.3342379572563061
 31
0.0
  0
LINE
  5
33E8E
  8
0
 10
7306.5317407610646114
 20
111.3342379572563061
 30
0.0
 11
7306.5310265132511631
 21
111.2983546325444024
 31
0.0
  0
ARC
  5
33E8F
  8
0
 10
7306.4818268976769104
 20
111.8732777112689973
 30
0.0
 40
0.5269972723371775
 50
275.4150517033338019
 51
286.0020068292005249
  0
ARC
  5
33E90
  8
0
 10
7306.4816665346052105
 20
111.8881330624438988
 30
0.0
 40
0.5561358722015882
 50
275.1658590539503848
 51
286.2507305791928047
  0
LINE
  5
33E91
  8
0
 10
7307.1194904767498883
 20
111.6174983431274939
 30
0.0
 11
7307.1505488145721756
 21
111.3878298377195932
 31
0.0
  0
ARC
  5
33E92
  8
0
 10
7306.8170060947431921
 20
111.3463462833685043
 30
0.0
 40
0.3361125276335669
 50
350.3148879914259055
 51
7.0896157447717201
  0
ARC
  5
33E93
  8
0
 10
7306.7753871528875607
 20
111.3534492094455999
 30
0.0
 40
0.3783332320324276
 50
318.1850502385044024
 51
350.3148879914259055
  0
ARC
  5
33E94
  8
0
 10
7306.5849295783245907
 20
111.5238273771341966
 30
0.0
 40
0.6338773725116251
 50
294.1837911740408913
 51
318.1850502385044024
  0
ARC
  5
33E95
  8
0
 10
7306.4522337439102557
 20
111.9150083395662989
 30
0.0
 40
1.0458226184420409
 50
271.4259436574055258
 51
292.0355250283237183
  0
ARC
  5
33E96
  8
0
 10
7306.5270897562813843
 20
109.7601056883063961
 30
0.0
 40
2.7627568286667148
 50
66.8600819906098138
 51
82.6661170613551235
  0
ARC
  5
33E97
  8
0
 10
7306.751195316805024
 20
110.2845011441018954
 30
0.0
 40
2.192481547493994
 50
51.9223793449788715
 51
66.8600819906098138
  0
ARC
  5
33E98
  8
0
 10
7307.1062901318437071
 20
110.7377348212501005
 30
0.0
 40
1.616709809937293
 50
29.9439437669616701
 51
51.9223793449788715
  0
ARC
  5
33E99
  8
0
 10
7307.5223884172819453
 20
110.9774267894866995
 30
0.0
 40
1.1365119103358681
 50
9.6636844251734288
 51
29.9439437669616701
  0
ARC
  5
33E9A
  8
0
 10
7307.5041100150747297
 20
110.9743143275241977
 30
0.0
 40
1.1550534153108101
 50
342.3787656985376771
 51
9.6636844251734288
  0
ARC
  5
33E9B
  8
0
 10
7307.4013035549769484
 20
111.0069683975546013
 30
0.0
 40
1.2629211886607901
 50
313.8977195151906017
 51
342.3787656985376771
  0
ARC
  5
33E9C
  8
0
 10
7306.6842752562988608
 20
111.752130403916297
 30
0.0
 40
2.2970372347742982
 50
296.6618259450200981
 51
313.8977195151906017
  0
ARC
  5
33E9D
  8
0
 10
7306.6532875415496164
 20
111.8138450170333016
 30
0.0
 40
2.3660946886626322
 50
279.3616605193529949
 51
296.6618259450200981
  0
ARC
  5
33E9E
  8
0
 10
7306.4097192194112722
 20
113.232815547620902
 30
0.0
 40
3.8057983768308028
 50
271.0319110290625986
 51
279.5047777948536236
  0
ARC
  5
33E9F
  8
0
 10
7307.4384918516134348
 20
110.5873114298312032
 30
0.0
 40
1.2731855749619061
 50
319.8376629948680829
 51
357.9128549202073941
  0
ARC
  5
33EA0
  8
0
 10
7306.9135226399612293
 20
111.030353615226403
 30
0.0
 40
1.9601201069389
 50
300.0554746632719798
 51
319.8376629948680829
  0
ARC
  5
33EA1
  8
0
 10
7306.6143372268170424
 20
111.5474011873568969
 30
0.0
 40
2.5574894259400192
 50
281.7920899425542984
 51
300.0554746632719798
  0
ARC
  5
33EA2
  8
0
 10
7306.3516825991991936
 20
113.2237889637441981
 30
0.0
 40
4.2530334360985398
 50
271.705455071043275
 51
280.6404925464324833
  0
ARC
  5
33EA3
  8
0
 10
7282.8626235956562596
 20
107.5874870029869044
 30
0.0
 40
26.0264718036382305
 50
6.7097805333567626
 51
7.6836753491734884
  0
LINE
  5
33EA4
  8
0
 10
7306.8839861679825844
 20
113.3069375004416059
 30
0.0
 11
7307.5605241412968098
 21
113.3231468503785067
 31
0.0
  0
ARC
  5
33EA5
  8
0
 10
7305.4460900736712574
 20
113.7685584585196068
 30
0.0
 40
0.0354330708999799
 50
269.9999999999478746
 51
333.6122000588326273
  0
ARC
  5
33EA6
  8
0
 10
7307.5104276768706768
 20
113.7685584585196068
 30
0.0
 40
0.0354330708999799
 50
206.3877999411674011
 51
270.0000000000521254
  0
ARC
  5
33EA8
  8
0
 10
7306.410591829598161
 20
111.7152737836124032
 30
0.0
 40
0.2354864173528108
 50
202.4181773407379978
 51
248.5513220399917032
  0
ARC
  5
33EA9
  8
0
 10
7306.4760579406392935
 20
111.8501369491654032
 30
0.0
 40
0.3851237948953409
 50
246.8227432673417923
 51
270.3274400425362956
  0
ARC
  5
33EAA
  8
0
 10
7306.4804080777494164
 20
111.8505123054379027
 30
0.0
 40
0.3854988531602368
 50
269.6805674823310142
 51
293.000268305456018
  0
ARC
  5
33EAB
  8
0
 10
7306.5456004763127567
 20
111.7148644097300973
 30
0.0
 40
0.2352659542437055
 50
291.2934699848602236
 51
337.5769054204919257
  0
ENDSEC
  0
EOF
