  0
SECTION
  2
HEADER
  9
$ACADVER
  1
AC1009
  9
$INSBASE
 10
3859.7286729916399963
 20
279.4512848666573177
 30
0.0
  9
$EXTMIN
 10
3851.690671013147039
 20
225.0931752335239935
 30
0.0
  9
$EXTMAX
 10
3892.8547892818478431
 20
289.4136663919488228
 30
0.0
  9
$LIMMIN
 10
0.0
 20
0.0
  9
$LIMMAX
 10
11.6929133858000007
 20
8.2677165353999982
  9
$ORTHOMODE
 70
     0
  9
$REGENMODE
 70
     1
  9
$FILLMODE
 70
     1
  9
$QTEXTMODE
 70
     0
  9
$MIRRTEXT
 70
     0
  9
$DRAGMODE
 70
     2
  9
$LTSCALE
 40
0.6431102362
  9
$OSMODE
 70
  4095
  9
$ATTMODE
 70
     1
  9
$TEXTSIZE
 40
0.2
  9
$TRACEWID
 40
0.05
  9
$TEXTSTYLE
  7
STANDARD
  9
$CLAYER
  8
0
  9
$CELTYPE
  6
BYLAYER
  9
$CECOLOR
 62
   256
  9
$DIMSCALE
 40
1.0
  9
$DIMASZ
 40
0.1875
  9
$DIMEXO
 40
0.0625
  9
$DIMDLI
 40
0.4443307087
  9
$DIMRND
 40
0.0
  9
$DIMDLE
 40
0.0
  9
$DIMEXE
 40
0.125
  9
$DIMTP
 40
0.01
  9
$DIMTM
 40
0.01
  9
$DIMTXT
 40
2.0
  9
$DIMCEN
 40
0.1052362205
  9
$DIMTSZ
 40
0.0
  9
$DIMTOL
 70
     1
  9
$DIMLIM
 70
     0
  9
$DIMTIH
 70
     1
  9
$DIMTOH
 70
     1
  9
$DIMSE1
 70
     0
  9
$DIMSE2
 70
     0
  9
$DIMTAD
 70
     0
  9
$DIMZIN
 70
     0
  9
$DIMBLK
  1

  9
$DIMASO
 70
     1
  9
$DIMSHO
 70
     1
  9
$DIMPOST
  1
\X
  9
$DIMAPOST
  1

  9
$DIMALT
 70
     1
  9
$DIMALTD
 70
     2
  9
$DIMALTF
 40
25.3999999999999986
  9
$DIMLFAC
 40
1.0
  9
$DIMTOFL
 70
     0
  9
$DIMTVP
 40
0.0
  9
$DIMTIX
 70
     0
  9
$DIMSOXD
 70
     0
  9
$DIMSAH
 70
     0
  9
$DIMBLK1
  1

  9
$DIMBLK2
  1

  9
$DIMSTYLE
  2
STANDARD
  9
$DIMCLRD
 70
     0
  9
$DIMCLRE
 70
     0
  9
$DIMCLRT
 70
     0
  9
$DIMTFAC
 40
1.0
  9
$DIMGAP
 40
0.09
  9
$LUNITS
 70
     2
  9
$LUPREC
 70
     4
  9
$SKETCHINC
 40
0.1
  9
$FILLETRAD
 40
0.0
  9
$AUNITS
 70
     0
  9
$AUPREC
 70
     0
  9
$MENU
  1
.
  9
$ELEVATION
 40
0.0
  9
$PELEVATION
 40
0.0
  9
$THICKNESS
 40
0.0
  9
$LIMCHECK
 70
     0
  9
$BLIPMODE
 70
     0
  9
$CHAMFERA
 40
0.0
  9
$CHAMFERB
 40
0.0
  9
$SKPOLY
 70
     0
  9
$TDCREATE
 40
2458060.468368056230247
  9
$TDUPDATE
 40
2459948.8881828710436821
  9
$TDINDWG
 40
0.3490695602
  9
$TDUSRTIMER
 40
0.3490695602
  9
$USRTIMER
 70
     1
  9
$ANGBASE
 50
0.0
  9
$ANGDIR
 70
     0
  9
$PDMODE
 70
     0
  9
$PDSIZE
 40
0.3125
  9
$PLINEWID
 40
0.0
  9
$COORDS
 70
     1
  9
$SPLFRAME
 70
     0
  9
$SPLINETYPE
 70
     6
  9
$SPLINESEGS
 70
     8
  9
$ATTDIA
 70
     1
  9
$ATTREQ
 70
     1
  9
$HANDLING
 70
     1
  9
$HANDSEED
  5
1E22B
  9
$SURFTAB1
 70
     6
  9
$SURFTAB2
 70
     6
  9
$SURFTYPE
 70
     6
  9
$SURFU
 70
     6
  9
$SURFV
 70
     6
  9
$UCSNAME
  2

  9
$UCSORG
 10
0.0
 20
0.0
 30
0.0
  9
$UCSXDIR
 10
1.0
 20
0.0
 30
0.0
  9
$UCSYDIR
 10
0.0
 20
1.0
 30
0.0
  9
$PUCSNAME
  2

  9
$PUCSORG
 10
0.0
 20
0.0
 30
0.0
  9
$PUCSXDIR
 10
1.0
 20
0.0
 30
0.0
  9
$PUCSYDIR
 10
0.0
 20
1.0
 30
0.0
  9
$USERI1
 70
     0
  9
$USERI2
 70
     0
  9
$USERI3
 70
     0
  9
$USERI4
 70
     0
  9
$USERI5
 70
     0
  9
$USERR1
 40
0.0
  9
$USERR2
 40
0.0
  9
$USERR3
 40
0.0
  9
$USERR4
 40
0.0
  9
$USERR5
 40
0.0
  9
$WORLDVIEW
 70
     1
  9
$SHADEDGE
 70
     3
  9
$SHADEDIF
 70
    70
  9
$TILEMODE
 70
     1
  9
$MAXACTVP
 70
    64
  9
$PLIMCHECK
 70
     0
  9
$PEXTMIN
 10
1.0000000000000000E+20
 20
1.0000000000000000E+20
 30
1.0000000000000000E+20
  9
$PEXTMAX
 10
-1.0000000000000000E+20
 20
-1.0000000000000000E+20
 30
-1.0000000000000000E+20
  9
$PLIMMIN
 10
0.0
 20
0.0
  9
$PLIMMAX
 10
12.0
 20
9.0
  9
$UNITMODE
 70
     0
  9
$VISRETAIN
 70
     1
  9
$PLINEGEN
 70
     0
  9
$PSLTSCALE
 70
     1
  0
ENDSEC
  0
SECTION
  2
TABLES
  0
TABLE
  2
VPORT
 70
     1
  0
VPORT
  2
*ACTIVE
 70
     0
 10
0.0
 20
0.0
 11
1.0
 21
1.0
 12
67.3809526148863824
 22
148.7448711265020052
 13
0.0
 23
0.0
 14
1.0
 24
1.0
 15
0.0
 25
0.0
 16
0.0
 26
0.0
 36
17.1152628219792007
 17
3803.5440673828129547
 27
125.9952621967499056
 37
0.0
 40
30.0387384253074217
 41
2.5251322751322749
 42
50.0
 43
0.0
 44
0.0
 50
0.0
 51
0.0
 71
     0
 72
   100
 73
     1
 74
     1
 75
     0
 76
     0
 77
     0
 78
     1
  0
ENDTAB
  0
TABLE
  2
LTYPE
 70
     2
  0
LTYPE
  2
CONTINUOUS
 70
     0
  3
Solid line
 72
    65
 73
     0
 40
0.0
  0
LTYPE
  2
PHANTOM2
 70
     0
  3
___ _ _ ___ _ _ ___ _ _ ___ _ _
 72
    65
 73
     6
 40
1.25
 49
0.625
 49
-0.125
 49
0.125
 49
-0.125
 49
0.125
 49
-0.125
  0
ENDTAB
  0
TABLE
  2
LAYER
 70
     2
  0
LAYER
  2
0
 70
     0
 62
   255
  6
CONTINUOUS
  0
LAYER
  2
DEFPOINTS
 70
     0
 62
     7
  6
CONTINUOUS
  0
ENDTAB
  0
TABLE
  2
STYLE
 70
     1
  0
STYLE
  2
STANDARD
 70
     0
 40
0.0
 41
0.8
 50
0.0
 71
     0
 42
0.2
  3
txt
  4

  0
ENDTAB
  0
TABLE
  2
VIEW
 70
     0
  0
ENDTAB
  0
TABLE
  2
UCS
 70
     0
  0
ENDTAB
  0
TABLE
  2
APPID
 70
     9
  0
APPID
  2
ACAD
 70
     0
  0
APPID
  2
ACAD_MLEADERVER
 70
     0
  0
APPID
  2
ACAD_EXEMPT_FROM_CAD_STANDARDS
 70
     0
  0
APPID
  2
ACAD_NAV_VCDISPLAY
 70
     0
  0
APPID
  2
ACAECLAYERSTANDARD
 70
     0
  0
APPID
  2
ACCMTRANSPARENCY
 70
     0
  0
APPID
  2
ACAD_DSTYLE_DIMJAG
 70
     0
  0
APPID
  2
ACAD_DSTYLE_DIMTALN
 70
     0
  0
APPID
  2
ACDBATTR
 70
     0
  0
ENDTAB
  0
TABLE
  2
DIMSTYLE
 70
     1
  0
DIMSTYLE
  2
STANDARD
 70
     0
  3

  4

  5

  6

  7

 40
1.0
 41
0.1875
 42
0.0625
 43
0.38
 44
0.125
 45
0.0
 46
0.0
 47
0.01
 48
0.01
140
0.15625
141
0.09
142
0.0
143
25.3999999999999986
144
1.0
145
0.0
146
1.0
147
0.09
 71
     1
 72
     0
 73
     1
 74
     1
 75
     0
 76
     0
 77
     0
 78
     4
170
     0
171
     2
172
     0
173
     0
174
     0
175
     0
176
     0
177
     0
178
     0
  0
ENDTAB
  0
ENDSEC
  0
SECTION
  2
BLOCKS
  0
BLOCK
  8
0
  2
$MODEL_SPACE
 70
     0
 10
0.0
 20
0.0
 30
0.0
  3
$MODEL_SPACE
  1

  0
ENDBLK
  5
21
  8
0
  0
BLOCK
 67
     1
  8
0
  2
$PAPER_SPACE
 70
     0
 10
0.0
 20
0.0
 30
0.0
  3
$PAPER_SPACE
  1

  0
ENDBLK
  5
1D
 67
     1
  8
0
  0
BLOCK
  8
0
  2
_FILLED
 70
     0
 10
0.0
 20
0.0
 30
0.0
  3
_FILLED
  1

  0
SOLID
  5
D1BB
  8
0
  6
BYBLOCK
 62
     0
 10
0.0
 20
0.0
 30
0.0
 11
-1.0
 21
0.1666666667
 31
0.0
 12
-1.0
 22
-0.1666666667
 32
0.0
 13
-1.0
 23
-0.1666666667
 33
0.0
  0
ENDBLK
  5
D1BC
  8
0
  6
BYBLOCK
 62
     0
  0
ENDSEC
  0
SECTION
  2
ENTITIES
  0
LINE
  5
1D73A
  8
0
 10
3856.2299979968679509
 20
279.4512848666573177
 30
0.0
 11
3856.2299979968679509
 21
279.268284866657325
 31
0.0
  0
LINE
  5
1D73B
  8
0
 10
3856.2299979968679509
 20
279.4512848666573177
 30
0.0
 11
3863.2273479864129513
 21
279.4512848666573177
 31
0.0
  0
ARC
  5
1D73C
  8
0
 10
3856.3576696899908711
 20
279.2706119724430209
 30
0.0
 40
0.1276928997490793
 50
181.044229725210414
 51
263.7517116814511269
  0
ARC
  5
1D73D
  8
0
 10
3856.3398984334889974
 20
279.0717756130042062
 30
0.0
 40
0.0720062698889063
 50
21.4017011081863409
 51
86.9163293221452165
  0
ARC
  5
1D73E
  8
0
 10
3856.6446729233121005
 20
279.198284866657275
 30
0.0
 40
0.2580000000000205
 50
202.8614013021083053
 51
250.2312257561177091
  0
ARC
  5
1D73F
  8
0
 10
3856.5032948321049844
 20
278.8049195967732885
 30
0.0
 40
0.1600000002683092
 50
41.9999163894844898
 51
70.2312255760149355
  0
ARC
  5
1D740
  8
0
 10
3856.8146729233358201
 20
279.0852848667689159
 30
0.0
 40
0.259000000111707
 50
221.999916408581214
 51
269.9999999947369247
  0
LINE
  5
1D741
  8
0
 10
3856.8146729233121732
 20
278.8262848666573177
 30
0.0
 11
3859.3226729233119841
 21
278.8262848666573177
 31
0.0
  0
ARC
  5
1D742
  8
0
 10
3857.249808180366017
 20
279.1792901129824145
 30
0.0
 40
0.4410053336990451
 50
233.1736434277077024
 51
269.9639332793540802
  0
LINE
  5
1D743
  8
0
 10
3857.2495305750130683
 20
278.7382848666572954
 30
0.0
 11
3859.3226729233119841
 21
278.7382848666572954
 31
0.0
  0
LINE
  5
1D744
  8
0
 10
3858.6004549077119918
 20
278.7382848666572954
 30
0.0
 11
3858.6270104516129322
 21
278.5830058848571866
 31
0.0
  0
ARC
  5
1D745
  8
0
 10
3858.6575668272898838
 20
278.5882315835726786
 30
0.0
 40
0.0310000003487269
 50
189.7047399736580076
 51
224.9999996573172893
  0
LINE
  5
1D746
  8
0
 10
3858.6356465166959424
 20
278.5663112732403874
 30
0.0
 11
3858.6700382832891592
 21
278.5319195062347717
 31
0.0
  0
ARC
  5
1D747
  8
0
 10
3858.6481179720740329
 20
278.5099991952819209
 30
0.0
 40
0.0310000012263033
 50
2.0000013587504282
 51
44.999999657314973
  0
LINE
  5
1D748
  8
0
 10
3858.6790990889121531
 20
278.5110810804571884
 30
0.0
 11
3858.69554700760591
 21
278.0400746350222789
 31
0.0
  0
ARC
  5
1D749
  8
0
 10
3862.1833807402408638
 20
278.1607973693891154
 30
0.0
 40
3.4899223666284929
 50
181.9823602477208908
 51
206.4002502696170893
  0
ARC
  5
1D74A
  8
0
 10
3859.2883244633590039
 20
276.7207373994904742
 30
0.0
 40
0.2564984667113042
 50
205.8148456463198102
 51
241.0525318000588868
  0
ARC
  5
1D74B
  8
0
 10
3859.2550510104961177
 20
276.4971522907737835
 30
0.0
 40
0.0908778734888658
 50
180.5468932702478924
 51
269.1311239709207257
  0
LINE
  5
1D74C
  8
0
 10
3859.2536729233120241
 20
276.4062848666573018
 30
0.0
 11
3859.3226729233119841
 21
276.4062848666573018
 31
0.0
  0
LINE
  5
1D74D
  8
0
 10
3858.5036729233120241
 20
279.4512848666573177
 30
0.0
 11
3858.5286729233789629
 21
279.3091580913076086
 31
0.0
  0
ARC
  5
1D74E
  8
0
 10
3858.597614502451961
 20
279.3212848666966011
 30
0.0
 40
0.0700000000459396
 50
189.9762327691445023
 51
259.387385649953103
  0
ARC
  5
1D74F
  8
0
 10
3858.579197727322935
 20
279.2229953839770928
 30
0.0
 40
0.0300000000509669
 50
19.4444479257714988
 51
79.3873856499790662
  0
ARC
  5
1D750
  8
0
 10
3858.6734939032589864
 20
279.2562845551842088
 30
0.0
 40
0.0699996885273083
 50
199.4444479257714988
 51
270.0001803622882903
  0
LINE
  5
1D751
  8
0
 10
3858.6734941236131817
 20
279.1862848666572177
 30
0.0
 11
3860.7838520800219158
 21
279.1862848666572177
 31
0.0
  0
ARC
  5
1D752
  8
0
 10
3858.7130801674120448
 20
279.1562848666571881
 30
0.0
 40
0.0300000000000239
 50
39.9439038070156798
 51
89.9994765457704204
  0
ARC
  5
1D753
  8
0
 10
3858.78974750817315
 20
279.2204885964010259
 30
0.0
 40
0.0700000002620389
 50
219.9439038070156869
 51
261.3496607281322213
  0
ARC
  5
1D754
  8
0
 10
3859.4516729224637857
 20
283.571425927251596
 30
0.0
 40
4.4709999901589068
 50
261.349693887630508
 51
266.3708502481567848
  0
ARC
  5
1D755
  8
0
 10
3859.1667674250870732
 20
279.0794519993062863
 30
0.0
 40
0.0300000000405909
 50
18.5618802278690715
 51
86.370850248156799
  0
ARC
  5
1D756
  8
0
 10
3859.2615654660521614
 20
279.1112848667050912
 30
0.0
 40
0.0700000000478315
 50
198.5618802278706028
 51
269.9999999676135189
  0
LINE
  5
1D757
  8
0
 10
3859.2615654660121436
 20
279.041284866657179
 30
0.0
 11
3860.1957805172678491
 21
279.041284866657179
 31
0.0
  0
LINE
  5
1D758
  8
0
 10
3858.6700382854669442
 20
278.531919504057214
 30
0.0
 11
3859.3226729233119841
 21
278.531919504057214
 31
0.0
  0
LINE
  5
1D759
  8
0
 10
3858.635646518611793
 20
278.5663112713572218
 30
0.0
 11
3859.3226729233119841
 21
278.5663112713572218
 31
0.0
  0
LINE
  5
1D75A
  8
0
 10
3856.3437716964599531
 20
279.1436776208573178
 30
0.0
 11
3858.8312812339131597
 21
279.1436776208573178
 31
0.0
  0
LINE
  5
1D75B
  8
0
 10
3856.5574108481519033
 20
278.9554900350572098
 30
0.0
 11
3859.3226729233119841
 21
278.9554900350572098
 31
0.0
  0
LINE
  5
1D75C
  8
0
 10
3858.584722956213227
 20
279.2524821919573128
 30
0.0
 11
3860.8726230267129722
 21
279.2524821919573128
 31
0.0
  0
LINE
  5
1D75D
  8
0
 10
3859.1641772768030023
 20
276.4962848666572199
 30
0.0
 11
3859.3226740629079359
 21
276.4962848666572199
 31
0.0
  0
LINE
  5
1D75E
  8
0
 10
3859.0574230122128938
 20
276.6090414582729977
 30
0.0
 11
3859.3226740124177923
 21
276.6090414582729977
 31
0.0
  0
ARC
  5
1DD8E
  8
0
 10
3859.7257615107200763
 20
275.1350389964752026
 30
0.0
 40
0.5809213803370509
 50
248.5559480545408917
 51
270.2704890324902749
  0
ARC
  5
1DD8F
  8
0
 10
3859.6674972748642176
 20
274.9886625861067841
 30
0.0
 40
0.4233775142254784
 50
228.5328196306194002
 51
248.6529492496285911
  0
ARC
  5
1DD90
  8
0
 10
3859.5986298066359268
 20
274.9057930606929858
 30
0.0
 40
0.3156939954072031
 50
217.8454345686346869
 51
227.9392168590325127
  0
ARC
  5
1DD91
  8
0
 10
3859.5511136478248773
 20
274.8688753622532204
 30
0.0
 40
0.2555217276561219
 50
213.7561106483875903
 51
217.8454345686346869
  0
ARC
  5
1DD92
  8
0
 10
3859.539135816839007
 20
274.8100774140780231
 30
0.0
 40
0.2170396017374859
 50
188.0291245903289052
 51
202.5364409786510009
  0
ARC
  5
1DD93
  8
0
 10
3859.5147855966151837
 20
274.8054092754417184
 30
0.0
 40
0.1922799310958799
 50
182.3899857940270124
 51
187.6652201151113104
  0
ARC
  5
1DD94
  8
0
 10
3859.5658741702441148
 20
274.8181569067320993
 30
0.0
 40
0.3405140120014933
 50
135.5787301333081132
 51
151.6746476798541892
  0
ARC
  5
1DD95
  8
0
 10
3859.5071032635660231
 20
274.8498353320509864
 30
0.0
 40
0.2737491851654121
 50
151.6746476798541892
 51
175.1287104699678139
  0
ARC
  5
1DD96
  8
0
 10
3859.4813969738111155
 20
274.8520261631484232
 30
0.0
 40
0.2479497069950242
 50
175.1287104699678139
 51
198.7403893514270976
  0
ARC
  5
1DD97
  8
0
 10
3859.5330021807590128
 20
274.8695341174109785
 30
0.0
 40
0.3024439805160826
 50
198.740389351428604
 51
224.0337202033153972
  0
ARC
  5
1DD98
  8
0
 10
3859.6485984055020708
 20
274.9812956437879734
 30
0.0
 40
0.4632330533818911
 50
224.0337202033153972
 51
246.8536588393656075
  0
ARC
  5
1DD99
  8
0
 10
3859.7252785743171444
 20
275.1606676357167771
 30
0.0
 40
0.658307807714853
 50
246.8536588393656075
 51
261.2429459586072085
  0
ARC
  5
1DD9A
  8
0
 10
3859.7341794246449354
 20
275.2743596483302895
 30
0.0
 40
0.7720765199845172
 50
261.8746308843416841
 51
269.5758753122991038
  0
ARC
  5
1DD9B
  8
0
 10
3859.5247906141507883
 20
274.8507236144977242
 30
0.0
 40
0.2263783150590916
 50
153.2302290183064883
 51
175.3165010119791134
  0
ARC
  5
1DD9C
  8
0
 10
3859.5065846427251017
 20
274.8522151392342039
 30
0.0
 40
0.2081113492031279
 50
175.3165010119791134
 51
201.7911386647660095
  0
ARC
  5
1DD9D
  8
0
 10
3859.5549285100441921
 20
274.8715426342008072
 30
0.0
 40
0.2601755554204787
 50
201.7911386647660095
 51
213.77765591839281
  0
ARC
  5
1DD9E
  8
0
 10
3859.5331736318830735
 20
274.8588392911598248
 30
0.0
 40
0.2556490820378344
 50
145.4256153370104983
 51
167.2886680945196076
  0
ARC
  5
1DD9F
  8
0
 10
3859.505665438548931
 20
274.8663676657237147
 30
0.0
 40
0.2271622171527901
 50
167.61428677346629
 51
198.0819527174224959
  0
ARC
  5
1DDA0
  8
0
 10
3859.5482899557941892
 20
274.8802846465969765
 30
0.0
 40
0.2720011715002227
 50
198.0819527174224959
 51
225.2499029091484886
  0
ARC
  5
1DDA1
  8
0
 10
3859.6656586126591719
 20
274.9986816321459173
 30
0.0
 40
0.4387142417778354
 50
225.2499029091497107
 51
244.4389328755194981
  0
ARC
  5
1DDA2
  8
0
 10
3859.7065612870660516
 20
275.0842011801681792
 30
0.0
 40
0.5335120364124308
 50
244.4389328755194981
 51
259.5426856108787774
  0
ARC
  5
1DDA3
  8
0
 10
3859.7332160465489324
 20
275.228617759822896
 30
0.0
 40
0.6803678319475612
 50
259.5426856108787774
 51
269.6031803556145974
  0
ARC
  5
1DDA4
  8
0
 10
3859.5495287651428953
 20
274.794662704277016
 30
0.0
 40
0.2516956729513527
 50
154.3298523824905999
 51
172.5385317410114112
  0
ARC
  5
1DDA5
  8
0
 10
3868.8341211997480968
 20
274.8192605174202754
 30
0.0
 40
9.6006566163595153
 50
179.835845917318693
 51
180.2748931425637977
  0
ARC
  5
1DDA6
  8
0
 10
3859.5061543645670099
 20
274.7745065440226995
 30
0.0
 40
0.2725824208799932
 50
180.2748931425637977
 51
193.9050471637530109
  0
ARC
  5
1DDA7
  8
0
 10
3859.9647621531639743
 20
274.8880433713118236
 30
0.0
 40
0.7450352914528828
 50
193.9050471637530109
 51
201.2005167481922001
  0
ARC
  5
1DDA8
  8
0
 10
3859.1948545033501432
 20
274.5894078861584831
 30
0.0
 40
0.0807618641696733
 50
14.6237940804575999
 51
21.2005167481921895
  0
ARC
  5
1DDA9
  8
0
 10
3859.2636578650990486
 20
274.6066882791362787
 30
0.0
 40
0.009846123759476
 50
0.0695562936021484
 51
18.4106296831301393
  0
ARC
  5
1DDAA
  8
0
 10
3859.2835041168909811
 20
274.1712556614695018
 30
0.0
 40
0.0100001352883883
 50
180.0001725127436032
 51
207.1120104576199026
  0
ARC
  5
1DDAB
  8
0
 10
3859.6264636944861195
 20
274.3468481203112219
 30
0.0
 40
0.3952974016510031
 50
207.1120683623794037
 51
219.9751241643893138
  0
ARC
  5
1DDAC
  8
0
 10
3859.6690251655090833
 20
274.3825299570606262
 30
0.0
 40
0.4508372278065106
 50
219.9751241643893138
 51
242.9857576255747915
  0
ARC
  5
1DDAD
  8
0
 10
3859.7276629423631675
 20
274.4975423881767256
 30
0.0
 40
0.5799350519000354
 50
242.9857576255747915
 51
257.3509798908945072
  0
ARC
  5
1DDAE
  8
0
 10
3859.7377869332540286
 20
274.6046751072873917
 30
0.0
 40
0.6868188633950048
 50
258.4840443296827743
 51
269.2255747433731017
  0
ARC
  5
1DDAF
  8
0
 10
3859.5136171094468409
 20
273.9892648383552114
 30
0.0
 40
0.311392625589419
 50
140.4522722006705067
 51
162.9700868008789882
  0
ARC
  5
1DDB0
  8
0
 10
3859.4657276850730341
 20
274.0039334483597031
 30
0.0
 40
0.2613070479614558
 50
162.9700868008773966
 51
194.1475339034288083
  0
ARC
  5
1DDB1
  8
0
 10
3859.5127199654789365
 20
274.0157785475958008
 30
0.0
 40
0.3097692063295916
 50
194.1475339034271883
 51
226.5367632365181976
  0
ARC
  5
1DDB2
  8
0
 10
3859.6762949713129274
 20
274.1883722926937139
 30
0.0
 40
0.5475619383051692
 50
226.536763236519306
 51
243.5699415447896001
  0
ARC
  5
1DDB3
  8
0
 10
3859.6858202857579272
 20
274.2075356644695034
 30
0.0
 40
0.5689620886107014
 50
243.5699415447888896
 51
259.1874250824163255
  0
ARC
  5
1DDB4
  8
0
 10
3859.7428931925642246
 20
274.506365982736213
 30
0.0
 40
0.8731937040069063
 50
259.1874250824163255
 51
269.0557901370385139
  0
ARC
  5
1DDB5
  8
0
 10
3859.5411978521619858
 20
273.9511034251775072
 30
0.0
 40
0.3168650884847874
 50
142.9384931853172986
 51
156.6494687138956863
  0
ARC
  5
1DDB6
  8
0
 10
3859.4944418821378349
 20
273.9712886297658088
 30
0.0
 40
0.2659380503103493
 50
156.6494687138942083
 51
179.8505971368938958
  0
ARC
  5
1DDB7
  8
0
 10
3859.4788098313001683
 20
273.9713293915543204
 30
0.0
 40
0.2503059463282535
 50
179.8505971368938958
 51
200.3643376203403932
  0
ARC
  5
1DDB8
  8
0
 10
3859.4633100751329948
 20
273.9655760631279122
 30
0.0
 40
0.2337728513598304
 50
200.3643376203420132
 51
223.5196042776543095
  0
ARC
  5
1DDB9
  8
0
 10
3859.6527988114808068
 20
274.1455174214423778
 30
0.0
 40
0.4950865969514919
 50
223.5196042776543095
 51
244.5289086916698977
  0
ARC
  5
1DDBA
  8
0
 10
3859.7103086902770883
 20
274.266246115062188
 30
0.0
 40
0.6288131972305503
 50
244.5289086916698977
 51
265.3983678239055166
  0
ARC
  5
1DDBB
  8
0
 10
3859.7430388442871845
 20
274.6728987574214784
 30
0.0
 40
1.036780885313012
 50
265.3983678239055166
 51
269.196731624349809
  0
ARC
  5
1DDBC
  8
0
 10
3859.3660693649421773
 20
273.9511150531474755
 30
0.0
 40
0.1421220847476767
 50
164.5309269057873962
 51
201.7494268604880858
  0
ARC
  5
1DDBD
  8
0
 10
3859.4850996808049786
 20
273.9986019537271886
 30
0.0
 40
0.2702752034034219
 50
201.7494268604866079
 51
215.5646776006744005
  0
ARC
  5
1DDBE
  8
0
 10
3859.6640087119999407
 20
273.6381787832016244
 30
0.0
 40
0.8603373215099075
 50
116.9940027371580982
 51
132.8002815720745104
  0
ARC
  5
1DDBF
  8
0
 10
3859.7563986118398134
 20
273.5384077514713113
 30
0.0
 40
0.9963158211528524
 50
132.8002816018872068
 51
149.1611252368412011
  0
ARC
  5
1DDC0
  8
0
 10
3859.8869447505849166
 20
273.459199930137288
 30
0.0
 40
1.149008806475148
 50
149.1068954776162059
 51
161.8341288175280965
  0
ARC
  5
1DDC1
  8
0
 10
3859.6222665892278201
 20
270.647951898026804
 30
0.0
 40
3.2756056523183692
 50
104.6249788344281058
 51
118.6376887122468986
  0
ARC
  5
1DDC2
  8
0
 10
3859.2293414221039711
 20
271.3675010525872153
 30
0.0
 40
2.455763488979898
 50
118.6376887122468986
 51
142.435634539894096
  0
ARC
  5
1DDC3
  8
0
 10
3860.0596558993229337
 20
273.4221473899739863
 30
0.0
 40
1.3247946502093191
 50
162.6403224789530952
 51
172.530849540772806
  0
ARC
  5
1DDC4
  8
0
 10
3859.5020568209079102
 20
271.8935077523884729
 30
0.0
 40
1.8612812182711109
 50
113.9630544175836064
 51
126.4268842777902933
  0
ARC
  5
1DDC5
  8
0
 10
3859.1754617090869033
 20
272.3076032244986777
 30
0.0
 40
1.3342696173813779
 50
125.7013663373683983
 51
153.9129007238296083
  0
ARC
  5
1DDC6
  8
0
 10
3858.8360060387340127
 20
272.4845598109662888
 30
0.0
 40
0.951630108337518
 50
154.4944128589810077
 51
185.7486881726136971
  0
ARC
  5
1DDC7
  8
0
 10
3858.9084126965799442
 20
272.5059643098369975
 30
0.0
 40
1.0259127406951269
 50
186.5330624601201066
 51
215.6787947741659082
  0
ARC
  5
1DDC8
  8
0
 10
3859.5068208039001547
 20
273.0456804081625251
 30
0.0
 40
1.8289696677975551
 50
218.4803762496756008
 51
248.5871035422570969
  0
ARC
  5
1DDC9
  8
0
 10
3859.7183565865589117
 20
273.6524680656992246
 30
0.0
 40
2.471224222639544
 50
249.1573673994518003
 51
270.2352699560968858
  0
ARC
  5
1DDCA
  8
0
 10
3859.7208435489069416
 20
273.6735873079433077
 30
0.0
 40
2.8270728478351961
 50
251.6441143712488042
 51
270.1552529046334143
  0
ARC
  5
1DDCB
  8
0
 10
3859.5085511253410004
 20
273.0337684069278907
 30
0.0
 40
2.1529539420033461
 50
225.1967427979589047
 51
251.6441143712488042
  0
ARC
  5
1DDCC
  8
0
 10
3858.8235187456548374
 20
272.3440152569327779
 30
0.0
 40
1.180828040102635
 50
188.8256795881129051
 51
225.1967427979589047
  0
ARC
  5
1DDCD
  8
0
 10
3858.6803395394549625
 20
272.3217842302814802
 30
0.0
 40
1.0359332381455459
 50
161.6869287484028064
 51
188.8256795881129051
  0
ARC
  5
1DDCE
  8
0
 10
3858.9090147510009956
 20
272.2460992552724974
 30
0.0
 40
1.276807827544677
 50
135.469057886610301
 51
161.6869287484028064
  0
ARC
  5
1DDCF
  8
0
 10
3859.3965707953789206
 20
271.7664614215491952
 30
0.0
 40
1.9607400960822441
 50
115.6464584564085953
 51
135.469057886610301
  0
ARC
  5
1DDD0
  8
0
 10
3859.6772498615500808
 20
271.1818559840402827
 30
0.0
 40
2.6092339324072591
 50
110.8203719772798053
 51
115.6464584564085953
  0
ARC
  5
1DDD1
  8
0
 10
3859.7426357036401896
 20
273.648372741341575
 30
0.0
 40
4.075352633121625
 50
250.5810998270013954
 51
267.8591868750913818
  0
ARC
  5
1DDD2
  8
0
 10
3859.42405444510905
 20
272.7289937318710145
 30
0.0
 40
3.102359248904452
 50
221.6724217048187882
 51
250.4848814579104896
  0
ARC
  5
1DDD3
  8
0
 10
3858.3108681027802049
 20
271.6354201533007995
 30
0.0
 40
1.5456758457528379
 50
183.9438777200248865
 51
218.8270415138946987
  0
ARC
  5
1DDD4
  8
0
 10
3858.7210007255789606
 20
271.5483551431489104
 30
0.0
 40
1.960958279225657
 50
158.1201243797999041
 51
174.5667804087781008
  0
ARC
  5
1DDD5
  8
0
 10
3858.7911430936419492
 20
271.4960123708265201
 30
0.0
 40
2.045677256055638
 50
137.990187316382702
 51
157.4918036560455903
  0
ARC
  5
1DDD6
  8
0
 10
3859.2506202674831002
 20
271.0821547539806033
 30
0.0
 40
2.664060147396123
 50
135.3962513505458105
 51
137.990187316382702
  0
ARC
  5
1DDD7
  8
0
 10
3858.5905074192510256
 20
271.9090418239574092
 30
0.0
 40
1.6197169918383481
 50
143.8435159462071908
 51
167.2058312249928065
  0
ARC
  5
1DDD8
  8
0
 10
3858.7620728176639204
 20
271.8700814835484039
 30
0.0
 40
1.7956504851176081
 50
167.2058312249928065
 51
190.222853496564511
  0
ARC
  5
1DDD9
  8
0
 10
3858.8061016429969641
 20
272.048624752374792
 30
0.0
 40
1.878186993800856
 50
195.3514797092454955
 51
216.1829361130930067
  0
ARC
  5
1DDDA
  8
0
 10
3859.5224894240241156
 20
272.9017656140674717
 30
0.0
 40
2.9719724649556478
 50
221.3115623257787945
 51
243.3879765004814999
  0
ARC
  5
1DDDB
  8
0
 10
3859.7235768464088324
 20
273.5676859133183143
 30
0.0
 40
3.6593413830143979
 50
245.2438995132746982
 51
260.2207766895213013
  0
ARC
  5
1DDDC
  8
0
 10
3859.8562925530600296
 20
275.3810054133750214
 30
0.0
 40
5.471724917657979
 50
262.0766997023351905
 51
268.6617727691856885
  0
ARC
  5
1DDDD
  8
0
 10
3859.7271369757240791
 20
273.7038829882441746
 30
0.0
 40
3.9589827554941119
 50
254.7233211607016017
 51
270.0197838548915001
  0
ARC
  5
1DDDE
  8
0
 10
3859.5193357046669007
 20
272.9430729165201797
 30
0.0
 40
3.1703045362628708
 50
231.3990988585954085
 51
254.7233211607016017
  0
ARC
  5
1DDDF
  8
0
 10
3858.7253069878888709
 20
271.948442407353582
 30
0.0
 40
1.8976021151002089
 50
207.9100778288324989
 51
231.3990988585954085
  0
ARC
  5
1DDE0
  8
0
 10
3858.4940816345738313
 20
271.8259628077692014
 30
0.0
 40
1.635941234703731
 50
182.4275614378476007
 51
207.9100778288324989
  0
ARC
  5
1DDE1
  8
0
 10
3858.247678035807894
 20
271.815516697058797
 30
0.0
 40
1.3893163075088171
 50
163.4747804792305033
 51
182.4275614378476007
  0
ARC
  5
1DDE2
  8
0
 10
3858.6700828530310901
 20
271.6901924225091989
 30
0.0
 40
1.829920442083832
 50
152.4407540455408139
 51
163.4747804792305033
  0
ARC
  5
1DDE3
  8
0
 10
3859.6227123404191843
 20
271.1930322312713884
 30
0.0
 40
2.904476720737343
 50
148.2880102829419116
 51
152.4407540455408139
  0
ARC
  5
1DDE4
  8
0
 10
3859.7273953623280249
 20
273.8871841555654782
 30
0.0
 40
3.8303627238404072
 50
260.1978662277127228
 51
270.0165831495390876
  0
ARC
  5
1DDE5
  8
0
 10
3859.6543445423490084
 20
273.464358899125898
 30
0.0
 40
3.4012734326865739
 50
240.0068648218893088
 51
260.1978662277127228
  0
ARC
  5
1DDE6
  8
0
 10
3859.044135357335108
 20
272.4071530809437149
 30
0.0
 40
2.1806017358435068
 50
220.5793238054116898
 51
240.0068648218901046
  0
ARC
  5
1DDE7
  8
0
 10
3858.7459638526529488
 20
272.1517757815723257
 30
0.0
 40
1.788015680005177
 50
201.7610113960234912
 51
220.5793238054116898
  0
ARC
  5
1DDE8
  8
0
 10
3858.320758655454938
 20
271.9820413768110257
 30
0.0
 40
1.3301846763769389
 50
177.0329257835036003
 51
201.7610113960234912
  0
ARC
  5
1DDE9
  8
0
 10
3858.6538137202578582
 20
271.9647786149395188
 30
0.0
 40
1.6636868190057661
 50
164.0291337640055076
 51
177.0329257835036003
  0
ARC
  5
1DDEA
  8
0
 10
3859.599479462904128
 20
273.8199080138733166
 30
0.0
 40
0.6583119139481135
 50
119.6808778928266008
 51
133.2223523874299929
  0
ARC
  5
1DDEB
  8
0
 10
3859.4556988297272255
 20
273.9652462740485817
 30
0.0
 40
0.4539684591996056
 50
132.5608719106120077
 51
167.1200794582937874
  0
ARC
  5
1DDEC
  8
0
 10
3859.380432636075966
 20
273.9947267998556981
 30
0.0
 40
0.374215762884989
 50
168.9517739507444105
 51
209.6602072479765866
  0
ARC
  5
1DDED
  8
0
 10
3859.5760350986010963
 20
274.1285814506690031
 30
0.0
 40
0.6107402410127032
 50
211.4919017404305066
 51
240.7302488295906073
  0
ARC
  5
1DDEE
  8
0
 10
3859.690181633328848
 20
274.3322400441161903
 30
0.0
 40
0.8442059859847904
 50
240.7302488295906073
 51
260.9609749186196268
  0
ARC
  5
1DDEF
  8
0
 10
3859.7420736121539449
 20
274.6584349911755112
 30
0.0
 40
1.1745027025192021
 50
260.9609749186196268
 51
269.3380180496354228
  0
LINE
  5
1DDF0
  8
0
 10
3863.2273479864129513
 20
279.4512848666573177
 30
0.0
 11
3863.2273479864129513
 21
279.268284866657325
 31
0.0
  0
ARC
  5
1DDF1
  8
0
 10
3863.099676293290031
 20
279.2706119724430209
 30
0.0
 40
0.1276928997490793
 50
276.2482883185488731
 51
358.955770274789586
  0
ARC
  5
1DDF2
  8
0
 10
3863.1174475497919047
 20
279.0717756130042062
 30
0.0
 40
0.0720062698889063
 50
93.0836706778547693
 51
158.598298891813613
  0
ARC
  5
1DDF3
  8
0
 10
3862.8126730599678922
 20
279.198284866657275
 30
0.0
 40
0.2580000000000205
 50
289.7687742438823193
 51
337.1385986978917231
  0
ARC
  5
1DDF4
  8
0
 10
3862.9540511511759178
 20
278.8049195967732885
 30
0.0
 40
0.1600000002683092
 50
109.7687744239851071
 51
138.0000836105155031
  0
ARC
  5
1DDF5
  8
0
 10
3862.6426730599450821
 20
279.0852848667689159
 30
0.0
 40
0.259000000111707
 50
270.0000000052630753
 51
318.000083591418786
  0
LINE
  5
1DDF6
  8
0
 10
3862.6426730599678194
 20
278.8262848666573177
 30
0.0
 11
3860.1346730599689181
 21
278.8262848666573177
 31
0.0
  0
ARC
  5
1DDF7
  8
0
 10
3862.2075378029148851
 20
279.1792901129824145
 30
0.0
 40
0.4410053336990451
 50
270.0360667206459198
 51
306.8263565722922976
  0
LINE
  5
1DDF8
  8
0
 10
3862.2078154082678338
 20
278.7382848666572954
 30
0.0
 11
3860.1346729242909532
 21
278.7382848666572954
 31
0.0
  0
LINE
  5
1DDF9
  8
0
 10
3860.8568910755689103
 20
278.7382848666572954
 30
0.0
 11
3860.8303355316688794
 21
278.5830058848571866
 31
0.0
  0
ARC
  5
1DDFA
  8
0
 10
3860.7997791559910183
 20
278.5882315835726786
 30
0.0
 40
0.0310000003487269
 50
315.0000003426827107
 51
350.2952600263420209
  0
LINE
  5
1DDFB
  8
0
 10
3860.8216994665849597
 20
278.5663112732403874
 30
0.0
 11
3860.7873076999908335
 21
278.5319195062347717
 31
0.0
  0
ARC
  5
1DDFC
  8
0
 10
3860.8092280112059598
 20
278.5099991952819209
 30
0.0
 40
0.0310000012263033
 50
135.0000003426850128
 51
177.99999864124959
  0
LINE
  5
1DDFD
  8
0
 10
3860.7782468943678396
 20
278.5110810804571884
 30
0.0
 11
3860.7617989756749921
 21
278.0400746350222789
 31
0.0
  0
ARC
  5
1DDFE
  8
0
 10
3857.2739652430409478
 20
278.1607973693891154
 30
0.0
 40
3.4899223666284929
 50
333.5997497303828823
 51
358.0176397522790808
  0
ARC
  5
1DDFF
  8
0
 10
3860.1690215199228078
 20
276.7207373994904742
 30
0.0
 40
0.2564984667113042
 50
298.9474681999411132
 51
334.1851543536801046
  0
ARC
  5
1DE00
  8
0
 10
3860.2022949727847845
 20
276.4971522907737835
 30
0.0
 40
0.0908778734888658
 50
270.8688760290792743
 51
359.453106729751994
  0
LINE
  5
1DE01
  8
0
 10
3860.2036730599688781
 20
276.4062848666573018
 30
0.0
 11
3860.1346730599689181
 21
276.4062848666573018
 31
0.0
  0
LINE
  5
1DE02
  8
0
 10
3860.9536730599688781
 20
279.4512848666573177
 30
0.0
 11
3860.9286730599019393
 21
279.3091580913076086
 31
0.0
  0
ARC
  5
1DE03
  8
0
 10
3860.8597314808289411
 20
279.3212848666966011
 30
0.0
 40
0.0700000000459396
 50
280.6126143500467833
 51
350.0237672308555261
  0
ARC
  5
1DE04
  8
0
 10
3860.8781482559570577
 20
279.2229953839770928
 30
0.0
 40
0.0300000000509669
 50
100.6126143500209054
 51
160.5555520742285012
  0
ARC
  5
1DE05
  8
0
 10
3860.7838520800219158
 20
279.2562845551842088
 30
0.0
 40
0.0699996885273083
 50
269.9998196377117097
 51
340.5555520742285012
  0
ARC
  5
1DE06
  8
0
 10
3860.7442658158679478
 20
279.1562848666571881
 30
0.0
 40
0.0300000000000239
 50
90.0005234542295938
 51
140.0560961929843131
  0
ARC
  5
1DE07
  8
0
 10
3860.6675984751068427
 20
279.2204885964010259
 30
0.0
 40
0.0700000002620389
 50
278.6503392718677787
 51
320.0560961929843984
  0
ARC
  5
1DE08
  8
0
 10
3860.0056730608171165
 20
283.571425927251596
 30
0.0
 40
4.4709999901589068
 50
273.6291497518432152
 51
278.6503061123697762
  0
ARC
  5
1DE09
  8
0
 10
3860.2905785581938289
 20
279.0794519993062863
 30
0.0
 40
0.0300000000405909
 50
93.6291497518432152
 51
161.4381197721293972
  0
ARC
  5
1DE0A
  8
0
 10
3860.1957805172291955
 20
279.1112848667050912
 30
0.0
 40
0.0700000000478315
 50
270.0000000323864811
 51
341.4381197721294257
  0
LINE
  5
1DE0B
  8
0
 10
3860.7873076978130484
 20
278.531919504057214
 30
0.0
 11
3860.1346728318849273
 21
278.531919504057214
 31
0.0
  0
LINE
  5
1DE0C
  8
0
 10
3860.8216994646681997
 20
278.5663112713572218
 30
0.0
 11
3860.1346730599689181
 21
278.5663112713572218
 31
0.0
  0
LINE
  5
1DE0D
  8
0
 10
3863.1135742868209491
 20
279.1436776208573178
 30
0.0
 11
3860.6260647493681972
 21
279.1436776208573178
 31
0.0
  0
LINE
  5
1DE0E
  8
0
 10
3862.8999351351289988
 20
278.9554900350572098
 30
0.0
 11
3860.1346730599689181
 21
278.9554900350572098
 31
0.0
  0
LINE
  5
1DE0F
  8
0
 10
3860.2931687064778998
 20
276.4962848666572199
 30
0.0
 11
3860.1346719203729663
 21
276.4962848666572199
 31
0.0
  0
LINE
  5
1DE10
  8
0
 10
3860.3999229710680083
 20
276.6090414582729977
 30
0.0
 11
3860.1346719708631099
 21
276.6090414582729977
 31
0.0
  0
ARC
  5
1DE11
  8
0
 10
3859.7312464619608363
 20
275.1350389964752026
 30
0.0
 40
0.5809213803370509
 50
269.7295109675097251
 51
291.4440519454590799
  0
ARC
  5
1DE12
  8
0
 10
3859.7895106978171498
 20
274.9886625861067841
 30
0.0
 40
0.4233775142254784
 50
291.3470507503712952
 51
311.4671803693806282
  0
ARC
  5
1DE13
  8
0
 10
3859.8583781660449858
 20
274.9057930606929858
 30
0.0
 40
0.3156939954072031
 50
312.0607831409674873
 51
322.1545654313653131
  0
ARC
  5
1DE14
  8
0
 10
3859.9058943248569449
 20
274.8688753622532204
 30
0.0
 40
0.2555217276561219
 50
322.1545654313653131
 51
326.2438893516123812
  0
ARC
  5
1DE15
  8
0
 10
3859.9178721558409961
 20
274.8100774140780231
 30
0.0
 40
0.2170396017374859
 50
337.4635590213489991
 51
351.9708754096711232
  0
ARC
  5
1DE16
  8
0
 10
3859.8930597078838218
 20
274.8103817866581267
 30
0.0
 40
0.2416720487141167
 50
352.7210974646449131
 51
358.7371848207919243
  0
ARC
  5
1DE17
  8
0
 10
3859.8911338024367979
 20
274.8181569067320993
 30
0.0
 40
0.3405140120014933
 50
28.3253523201458215
 51
44.3399533418642591
  0
ARC
  5
1DE18
  8
0
 10
3859.9499047091148896
 20
274.8498353320509864
 30
0.0
 40
0.2737491851654121
 50
4.8712895300322332
 51
28.3253523201458215
  0
ARC
  5
1DE19
  8
0
 10
3859.9756109988697972
 20
274.8520261631484232
 30
0.0
 40
0.2479497069950242
 50
341.2596106485729024
 51
4.8712895300322332
  0
ARC
  5
1DE1A
  8
0
 10
3859.9240057919228093
 20
274.8695341174109785
 30
0.0
 40
0.3024439805160826
 50
315.9662797966844892
 51
341.2596106485714245
  0
ARC
  5
1DE1B
  8
0
 10
3859.8084095671788418
 20
274.9812956437879734
 30
0.0
 40
0.4632330533818911
 50
293.1463411606343925
 51
315.9662797966844892
  0
ARC
  5
1DE1C
  8
0
 10
3859.731729398364223
 20
275.1606676357167771
 30
0.0
 40
0.658307807714853
 50
278.7570540413927915
 51
293.1463411606343925
  0
ARC
  5
1DE1D
  8
0
 10
3859.7228285480359773
 20
275.2743596483302895
 30
0.0
 40
0.7720765199845172
 50
270.4241246877010099
 51
278.1253691156583159
  0
ARC
  5
1DE1E
  8
0
 10
3859.9322173585301243
 20
274.8507236144977242
 30
0.0
 40
0.2263783150590916
 50
4.6834989880208884
 51
26.5792039023328499
  0
ARC
  5
1DE1F
  8
0
 10
3859.9504233299549014
 20
274.8522151392342039
 30
0.0
 40
0.2081113492031279
 50
338.208861335234019
 51
4.6834989880208884
  0
ARC
  5
1DE20
  8
0
 10
3859.9020794626358111
 20
274.8715426342008072
 30
0.0
 40
0.2601755554204787
 50
326.2223440816072184
 51
338.208861335234019
  0
ARC
  5
1DE21
  8
0
 10
3859.9238343407969296
 20
274.8588392911598248
 30
0.0
 40
0.2556490820378344
 50
12.7113319054803693
 51
34.4406643036355433
  0
ARC
  5
1DE22
  8
0
 10
3859.9513425341310722
 20
274.8663676657237147
 30
0.0
 40
0.2271622171527901
 50
341.9180472825773904
 51
12.3857132265336407
  0
ARC
  5
1DE23
  8
0
 10
3859.9087180168871782
 20
274.8802846465969765
 30
0.0
 40
0.2720011715002227
 50
314.7500970908513978
 51
341.9180472825773904
  0
ARC
  5
1DE24
  8
0
 10
3859.7913493600221955
 20
274.9986816321459173
 30
0.0
 40
0.4387142417778354
 50
295.5610671244804735
 51
314.7500970908503177
  0
ARC
  5
1DE25
  8
0
 10
3859.7504466856148611
 20
275.0842011801681792
 30
0.0
 40
0.5335120364124308
 50
280.4573143891212794
 51
295.5610671244804735
  0
ARC
  5
1DE26
  8
0
 10
3859.7237919261319803
 20
275.228617759822896
 30
0.0
 40
0.6803678319475612
 50
270.3968196443855163
 51
280.4573143891212794
  0
ARC
  5
1DE27
  8
0
 10
3859.9074792075371079
 20
274.794662704277016
 30
0.0
 40
0.2516956729513527
 50
7.4614682589886021
 51
25.4919479059712089
  0
ARC
  5
1DE28
  8
0
 10
3850.6228867729328158
 20
274.8192605174202754
 30
0.0
 40
9.6006566163595153
 50
359.7251068574361739
 51
0.1641540826829266
  0
ARC
  5
1DE29
  8
0
 10
3859.9508536081139027
 20
274.7745065440226995
 30
0.0
 40
0.2725824208799932
 50
346.0949528362469891
 51
359.7251068574361739
  0
ARC
  5
1DE2A
  8
0
 10
3859.4922458195169384
 20
274.8880433713118236
 30
0.0
 40
0.7450352914528828
 50
338.7994832518062935
 51
346.0949528362469891
  0
ARC
  5
1DE2B
  8
0
 10
3860.2621534693312242
 20
274.5894078861584831
 30
0.0
 40
0.0807618641696733
 50
158.7994832518077999
 51
165.3762059195424001
  0
ARC
  5
1DE2C
  8
0
 10
3860.193350107581864
 20
274.6066882791362787
 30
0.0
 40
0.009846123759476
 50
161.5893703168698039
 51
180.0936151583073013
  0
ARC
  5
1DE2D
  8
0
 10
3859.8305442781938837
 20
274.3468481203112219
 30
0.0
 40
0.3952974016510031
 50
320.0248758356107146
 51
333.2395240416944944
  0
ARC
  5
1DE2E
  8
0
 10
3859.7879828071718293
 20
274.3825299570606262
 30
0.0
 40
0.4508372278065106
 50
297.0142423744251801
 51
320.0248758356107146
  0
ARC
  5
1DE2F
  8
0
 10
3859.7293450303181999
 20
274.4975423881767256
 30
0.0
 40
0.5799350519000354
 50
282.6490201091054928
 51
297.0142423744251801
  0
ARC
  5
1DE30
  8
0
 10
3859.7192210394268841
 20
274.6046751072873917
 30
0.0
 40
0.6868188633950048
 50
270.7744252566268983
 51
281.5159556703172257
  0
ARC
  5
1DE31
  8
0
 10
3859.9433908632340717
 20
273.9892648383552114
 30
0.0
 40
0.311392625589419
 50
17.0299131991209798
 51
39.5477260980661995
  0
ARC
  5
1DE32
  8
0
 10
3859.9912802876078786
 20
274.0039334483597031
 30
0.0
 40
0.2613070479614558
 50
345.8524660965712201
 51
17.0299131991225288
  0
ARC
  5
1DE33
  8
0
 10
3859.9442880072010666
 20
274.0157785475958008
 30
0.0
 40
0.3097692063295916
 50
313.4632367634818024
 51
345.8524660965728117
  0
ARC
  5
1DE34
  8
0
 10
3859.7807130013679853
 20
274.1883722926937139
 30
0.0
 40
0.5475619383051692
 50
296.4300584552104851
 51
313.4632367634818024
  0
ARC
  5
1DE35
  8
0
 10
3859.771187686922076
 20
274.2075356644695034
 30
0.0
 40
0.5689620886107014
 50
280.8125749175836745
 51
296.4300584552112241
  0
ARC
  5
1DE36
  8
0
 10
3859.7141147801171428
 20
274.506365982736213
 30
0.0
 40
0.8731937040069063
 50
270.9442098629614861
 51
280.8125749175836745
  0
ARC
  5
1DE37
  8
0
 10
3859.9158101205189269
 20
273.9511034251775072
 30
0.0
 40
0.3168650884847874
 50
23.3505312861043102
 51
37.0615068146826374
  0
ARC
  5
1DE38
  8
0
 10
3859.9625660905430777
 20
273.9712886297658088
 30
0.0
 40
0.2659380503103493
 50
0.149402863106108
 51
23.3505312861058094
  0
ARC
  5
1DE39
  8
0
 10
3859.9781981413798349
 20
273.9713293915543204
 30
0.0
 40
0.2503059463282535
 50
339.6356623796596068
 51
0.149402863106108
  0
ARC
  5
1DE3A
  8
0
 10
3859.9936978975479178
 20
273.9655760631279122
 30
0.0
 40
0.2337728513598304
 50
316.4803957223456905
 51
339.6356623796580152
  0
ARC
  5
1DE3B
  8
0
 10
3859.8042091611991964
 20
274.1455174214423778
 30
0.0
 40
0.4950865969514919
 50
295.4710913083300738
 51
316.4803957223456905
  0
ARC
  5
1DE3C
  8
0
 10
3859.7466992824038243
 20
274.266246115062188
 30
0.0
 40
0.6288131972305503
 50
274.6016321760944834
 51
295.4710913083300738
  0
ARC
  5
1DE3D
  8
0
 10
3859.7139691283941829
 20
274.6728987574214784
 30
0.0
 40
1.036780885313012
 50
270.8032683756503047
 51
274.6016321760944834
  0
ARC
  5
1DE3E
  8
0
 10
3860.09093860773919
 20
273.9511150531474755
 30
0.0
 40
0.1421220847476767
 50
338.2505731395119142
 51
15.4690730942125292
  0
ARC
  5
1DE3F
  8
0
 10
3859.9719082918750246
 20
273.9986019537271886
 30
0.0
 40
0.2702752034034219
 50
324.4353223993256279
 51
338.2505731395132784
  0
ARC
  5
1DE40
  8
0
 10
3859.792999264754144
 20
273.6381787882577896
 30
0.0
 40
0.8603373150331911
 50
47.199718398112779
 51
63.0059969074784831
  0
ARC
  5
1DE41
  8
0
 10
3859.7006093608401898
 20
273.5384077514713113
 30
0.0
 40
0.9963158211528524
 50
30.8388747631587812
 51
47.199718398112779
  0
ARC
  5
1DE42
  8
0
 10
3859.5700632220969055
 20
273.4591999301377996
 30
0.0
 40
1.1490088064741659
 50
18.1658711824641408
 51
30.8931045223865617
  0
ARC
  5
1DE43
  8
0
 10
3859.8347413834530926
 20
270.647951898026804
 30
0.0
 40
3.2756056523183692
 50
61.3623112877530872
 51
75.3750211655718942
  0
ARC
  5
1DE44
  8
0
 10
3860.227666550576032
 20
271.3675010525872153
 30
0.0
 40
2.455763488979898
 50
37.5643654601058969
 51
61.3623112877530872
  0
ARC
  5
1DE45
  8
0
 10
3859.3973520733570695
 20
273.4221473899739863
 30
0.0
 40
1.3247946502093191
 50
7.46915045922717
 51
17.3596775210469083
  0
ARC
  5
1DE46
  8
0
 10
3859.9549511517730025
 20
271.8935077523884729
 30
0.0
 40
1.8612812182711109
 50
53.5731157222096925
 51
66.0369455824163509
  0
ARC
  5
1DE47
  8
0
 10
3860.2815462635940094
 20
272.3076032244986777
 30
0.0
 40
1.3342696173813779
 50
26.0870992761688889
 51
54.2986336626315875
  0
ARC
  5
1DE48
  8
0
 10
3860.6210019339459905
 20
272.4845598109662888
 30
0.0
 40
0.951630108337518
 50
354.2513118273863029
 51
25.505587141018971
  0
ARC
  5
1DE49
  8
0
 10
3860.548595276101878
 20
272.5059643098369975
 30
0.0
 40
1.0259127406951269
 50
324.3212052258340918
 51
353.4669375398798934
  0
ARC
  5
1DE4A
  8
0
 10
3859.9501871687812127
 20
273.0456804081625251
 30
0.0
 40
1.8289696677975551
 50
291.4128964577429883
 51
321.5196237503243992
  0
ARC
  5
1DE4B
  8
0
 10
3859.7386513861210915
 20
273.6524680656992246
 30
0.0
 40
2.471224222639544
 50
269.7647300439031142
 51
290.8426326005481997
  0
ARC
  5
1DE4C
  8
0
 10
3859.7361644237739711
 20
273.6735873079433077
 30
0.0
 40
2.8270728478351961
 50
269.8447470953665857
 51
288.3558856287511958
  0
ARC
  5
1DE4D
  8
0
 10
3859.9484568473399122
 20
273.0337684069278907
 30
0.0
 40
2.1529539420033461
 50
288.3558856287511958
 51
314.803257202041209
  0
ARC
  5
1DE4E
  8
0
 10
3860.6334892270251657
 20
272.3440152569327779
 30
0.0
 40
1.180828040102635
 50
314.803257202041209
 51
351.1743204118870949
  0
ARC
  5
1DE4F
  8
0
 10
3860.7766684332259501
 20
272.3217842302814802
 30
0.0
 40
1.0359332381455459
 50
351.1743204118870949
 51
18.3130712515972007
  0
ARC
  5
1DE50
  8
0
 10
3860.5479932216790075
 20
272.2460992552724974
 30
0.0
 40
1.276807827544677
 50
18.3130712515972007
 51
44.5309421133896919
  0
ARC
  5
1DE51
  8
0
 10
3860.0604371773029015
 20
271.7664614215491952
 30
0.0
 40
1.9607400960822441
 50
44.5309421133896919
 51
64.3535415435914047
  0
ARC
  5
1DE52
  8
0
 10
3859.7797581111321961
 20
271.1818559840402827
 30
0.0
 40
2.6092339324072591
 50
64.3535415435914047
 51
69.1796280227202374
  0
ARC
  5
1DE53
  8
0
 10
3859.7155717412529157
 20
273.6438481598406156
 30
0.0
 40
4.07079908802889
 50
272.1310755687234177
 51
289.4286377291838903
  0
ARC
  5
1DE54
  8
0
 10
3860.1945777282930976
 20
272.4085497255496762
 30
0.0
 40
2.7468133364530858
 50
288.5769486303469762
 51
321.0391989250343272
  0
ARC
  5
1DE55
  8
0
 10
3860.8865375823638715
 20
271.79001932601318
 30
0.0
 40
1.820414593665701
 50
322.4826925621683813
 51
351.7597435846504936
  0
ARC
  5
1DE56
  8
0
 10
3860.7358843964520929
 20
271.548316678891581
 30
0.0
 40
1.961086614788522
 50
5.4339918231672506
 51
21.8795808803637115
  0
ARC
  5
1DE57
  8
0
 10
3860.6658648790380539
 20
271.4960123708265201
 30
0.0
 40
2.045677256055638
 50
22.50819634395436
 51
42.0098126836172767
  0
ARC
  5
1DE58
  8
0
 10
3860.206387705196903
 20
271.0821547539806033
 30
0.0
 40
2.664060147396123
 50
42.0098126836172767
 51
44.6037486494541611
  0
ARC
  5
1DE59
  8
0
 10
3860.8665005534298871
 20
271.9090418239574092
 30
0.0
 40
1.6197169918383481
 50
12.7941687750071704
 51
36.1564840537927878
  0
ARC
  5
1DE5A
  8
0
 10
3860.6949351550169922
 20
271.8700814835484039
 30
0.0
 40
1.7956504851176081
 50
349.7771465034355174
 51
12.7941687750071704
  0
ARC
  5
1DE5B
  8
0
 10
3860.6509063296830391
 20
272.048624752374792
 30
0.0
 40
1.878186993800856
 50
323.8170638869070785
 51
344.6485202907545045
  0
ARC
  5
1DE5C
  8
0
 10
3859.9345185486558876
 20
272.9017656140674717
 30
0.0
 40
2.9719724649556478
 50
296.6120234995186138
 51
318.6884376742212908
  0
ARC
  5
1DE5D
  8
0
 10
3859.7334311262711708
 20
273.5676859133183143
 30
0.0
 40
3.6593413830143979
 50
279.7792233104786987
 51
294.7561004867253018
  0
ARC
  5
1DE5E
  8
0
 10
3859.600715419620883
 20
275.3810054133750214
 30
0.0
 40
5.471724917657979
 50
271.3382272308144252
 51
277.9233002976649232
  0
ARC
  5
1DE5F
  8
0
 10
3859.7298709969559241
 20
273.7038829882441746
 30
0.0
 40
3.9589827554941119
 50
269.9802161450824087
 51
285.2766788392984267
  0
ARC
  5
1DE60
  8
0
 10
3859.9376722680140119
 20
272.9430729165201797
 30
0.0
 40
3.1703045362628708
 50
285.2766788392984267
 51
308.6009011414045062
  0
ARC
  5
1DE61
  8
0
 10
3860.7317009847920417
 20
271.948442407353582
 30
0.0
 40
1.8976021151002089
 50
308.6009011414045062
 51
332.0899221711674727
  0
ARC
  5
1DE62
  8
0
 10
3860.9629263381070814
 20
271.8259628077692014
 30
0.0
 40
1.635941234703731
 50
332.0899221711674727
 51
357.5724385621508077
  0
ARC
  5
1DE63
  8
0
 10
3861.2093299368730186
 20
271.815516697058797
 30
0.0
 40
1.3893163075088171
 50
357.5724385621508077
 51
16.525219520769479
  0
ARC
  5
1DE64
  8
0
 10
3860.7869251196498226
 20
271.6901924225091989
 30
0.0
 40
1.829920442083832
 50
16.525219520769479
 51
27.5592459544591186
  0
ARC
  5
1DE65
  8
0
 10
3859.8342956322608188
 20
271.1930322312713884
 30
0.0
 40
2.904476720737343
 50
27.5592459544591186
 51
31.7119897170581311
  0
ARC
  5
1DE66
  8
0
 10
3859.7296126103519782
 20
273.8871841555654782
 30
0.0
 40
3.8303627238404072
 50
269.9834168504607987
 51
279.8021337722872772
  0
ARC
  5
1DE67
  8
0
 10
3859.8026634303319042
 20
273.464358899125898
 30
0.0
 40
3.4012734326865739
 50
279.8021337722872772
 51
299.9931351781107196
  0
ARC
  5
1DE68
  8
0
 10
3860.4128726153458047
 20
272.4071530809437149
 30
0.0
 40
2.1806017358435068
 50
299.9931351781098101
 51
319.4206761945882818
  0
ARC
  5
1DE69
  8
0
 10
3860.7110441200288733
 20
272.1517757815723257
 30
0.0
 40
1.788015680005177
 50
319.4206761945882818
 51
338.2389886039765088
  0
ARC
  5
1DE6A
  8
0
 10
3861.1362493172259747
 20
271.9820413768110257
 30
0.0
 40
1.3301846763769389
 50
338.2389886039765088
 51
2.967074216496361
  0
ARC
  5
1DE6B
  8
0
 10
3860.8031942524230544
 20
271.9647786149395188
 30
0.0
 40
1.6636868190057661
 50
2.967074216496361
 51
15.9708662359944995
  0
ARC
  5
1DE6C
  8
0
 10
3859.8575284893281605
 20
273.8199079893611838
 30
0.0
 40
0.6583119458145132
 50
46.777647776624562
 51
60.3191210495500911
  0
ARC
  5
1DE6D
  8
0
 10
3860.0013091429527776
 20
273.9652462740485817
 30
0.0
 40
0.4539684591996056
 50
12.8799205417061895
 51
47.4391280893879284
  0
ARC
  5
1DE6E
  8
0
 10
3860.0765753366040371
 20
273.9947267998556981
 30
0.0
 40
0.374215762884989
 50
330.3397927520232997
 51
11.0482260492555806
  0
ARC
  5
1DE6F
  8
0
 10
3859.8809728740798164
 20
274.1285814506690031
 30
0.0
 40
0.6107402410127032
 50
299.2697511704084832
 51
328.5080982595694081
  0
ARC
  5
1DE70
  8
0
 10
3859.7668263393520647
 20
274.3322400441161903
 30
0.0
 40
0.8442059859847904
 50
279.0390250813803164
 51
299.2697511704084832
  0
ARC
  5
1DE71
  8
0
 10
3859.7149343605260583
 20
274.6584349911755112
 30
0.0
 40
1.1745027025192021
 50
270.6619819503646909
 51
279.0390250813803164
  0
LINE
  5
1E124
  8
0
 10
3859.3226729233119841
 20
274.7973910051248936
 30
0.0
 11
3859.3226729233119841
 21
279.041284866657179
 31
0.0
  0
LINE
  5
1E126
  8
0
 10
3860.1346730599689181
 20
274.8050556976157281
 30
0.0
 11
3860.1346730599689181
 21
279.041284866657179
 31
0.0
  0
LINE
  5
1E128
  8
0
 10
3859.2735039816029712
 20
274.1712556313598839
 30
0.0
 11
3859.2735039816029712
 21
274.6067002321930204
 31
0.0
  0
LINE
  5
1E12A
  8
0
 10
3860.1835039969651007
 20
274.1688608379644734
 30
0.0
 11
3860.1835039969651007
 21
274.6067043666391783
 31
0.0
  0
LINE
  5
1E159
  8
0
 10
3856.7688525728472086
 20
271.5291096383537024
 30
0.0
 11
3856.7688525728472086
 21
271.7340294888434187
 31
0.0
  0
LINE
  5
1E15B
  8
0
 10
3862.688157805307128
 20
271.5291096383537024
 30
0.0
 11
3862.688157805307128
 21
271.7340294888434187
 31
0.0
  0
LINE
  5
1E15C
  8
0
 10
3859.5903986875841838
 20
269.5758645491786751
 30
0.0
 11
3859.8669472956958089
 21
269.5758645491786751
 31
0.0
  0
ATTDEF
  5
1E160
  8
DEFPOINTS
 10
3859.7297292204580117
 20
279.4555787267345863
 30
0.0
 40
0.001
  1
K-TS395-4SG
  3

  2
MODELNUMBER
 70
     0
1001
ACDBATTR
1070
     0
1070
     1
  0
ATTDEF
  5
1E161
  8
DEFPOINTS
 10
3859.7297292204580117
 20
279.4539120600679212
 30
0.0
 40
0.001
  1
DEVONSHIRE/RITE-TEMP
  3

  2
TRADENAME
 70
     0
1001
ACDBATTR
1070
     0
1070
     1
  0
ATTDEF
  5
1E162
  8
DEFPOINTS
 10
3859.7297292204580117
 20
279.4522453934013129
 30
0.0
 40
0.001
  1
BATH AND SHOWER TRIM
  3

  2
PRODUCT
 70
     0
1001
ACDBATTR
1070
     0
1070
     1
  0
ENDSEC
  0
EOF
