  0
SECTION
  2
HEADER
  9
$ACADVER
  1
AC1009
  9
$INSBASE
 10
2979.8136950566208725
 20
138.1861705428217988
 30
0.0
  9
$EXTMIN
 10
2970.7337933124058509
 20
126.3070765476074939
 30
-0.0000000000000058
  9
$EXTMAX
 10
2979.8279192614031672
 20
166.9378946727331083
 30
0.0000000000000104
  9
$LIMMIN
 10
0.0
 20
0.0
  9
$LIMMAX
 10
11.6929133858000007
 20
8.2677165353999982
  9
$ORTHOMODE
 70
     0
  9
$REGENMODE
 70
     1
  9
$FILLMODE
 70
     1
  9
$QTEXTMODE
 70
     0
  9
$MIRRTEXT
 70
     0
  9
$DRAGMODE
 70
     2
  9
$LTSCALE
 40
0.6431102362
  9
$OSMODE
 70
  4095
  9
$ATTMODE
 70
     1
  9
$TEXTSIZE
 40
0.2
  9
$TRACEWID
 40
0.05
  9
$TEXTSTYLE
  7
STANDARD
  9
$CLAYER
  8
0
  9
$CELTYPE
  6
BYLAYER
  9
$CECOLOR
 62
   256
  9
$DIMSCALE
 40
1.0
  9
$DIMASZ
 40
0.1875
  9
$DIMEXO
 40
0.0625
  9
$DIMDLI
 40
0.4443307087
  9
$DIMRND
 40
0.0
  9
$DIMDLE
 40
0.0
  9
$DIMEXE
 40
0.125
  9
$DIMTP
 40
0.01
  9
$DIMTM
 40
0.01
  9
$DIMTXT
 40
2.0
  9
$DIMCEN
 40
0.1052362205
  9
$DIMTSZ
 40
0.0
  9
$DIMTOL
 70
     1
  9
$DIMLIM
 70
     0
  9
$DIMTIH
 70
     1
  9
$DIMTOH
 70
     1
  9
$DIMSE1
 70
     0
  9
$DIMSE2
 70
     0
  9
$DIMTAD
 70
     0
  9
$DIMZIN
 70
     0
  9
$DIMBLK
  1

  9
$DIMASO
 70
     1
  9
$DIMSHO
 70
     1
  9
$DIMPOST
  1
\X
  9
$DIMAPOST
  1

  9
$DIMALT
 70
     1
  9
$DIMALTD
 70
     2
  9
$DIMALTF
 40
25.3999999999999986
  9
$DIMLFAC
 40
1.0
  9
$DIMTOFL
 70
     0
  9
$DIMTVP
 40
0.0
  9
$DIMTIX
 70
     0
  9
$DIMSOXD
 70
     0
  9
$DIMSAH
 70
     0
  9
$DIMBLK1
  1

  9
$DIMBLK2
  1

  9
$DIMSTYLE
  2
STANDARD
  9
$DIMCLRD
 70
     0
  9
$DIMCLRE
 70
     0
  9
$DIMCLRT
 70
     0
  9
$DIMTFAC
 40
1.0
  9
$DIMGAP
 40
0.09
  9
$LUNITS
 70
     2
  9
$LUPREC
 70
     4
  9
$SKETCHINC
 40
0.1
  9
$FILLETRAD
 40
0.0
  9
$AUNITS
 70
     0
  9
$AUPREC
 70
     0
  9
$MENU
  1
.
  9
$ELEVATION
 40
0.0
  9
$PELEVATION
 40
0.0
  9
$THICKNESS
 40
0.0
  9
$LIMCHECK
 70
     0
  9
$BLIPMODE
 70
     0
  9
$CHAMFERA
 40
0.0
  9
$CHAMFERB
 40
0.0
  9
$SKPOLY
 70
     0
  9
$TDCREATE
 40
2458060.468368056230247
  9
$TDUPDATE
 40
2459947.4987731478177011
  9
$TDINDWG
 40
0.7100533565
  9
$TDUSRTIMER
 40
0.7100533565
  9
$USRTIMER
 70
     1
  9
$ANGBASE
 50
0.0
  9
$ANGDIR
 70
     0
  9
$PDMODE
 70
     0
  9
$PDSIZE
 40
0.3125
  9
$PLINEWID
 40
0.0
  9
$COORDS
 70
     1
  9
$SPLFRAME
 70
     0
  9
$SPLINETYPE
 70
     6
  9
$SPLINESEGS
 70
     8
  9
$ATTDIA
 70
     1
  9
$ATTREQ
 70
     1
  9
$HANDLING
 70
     1
  9
$HANDSEED
  5
4012B
  9
$SURFTAB1
 70
     6
  9
$SURFTAB2
 70
     6
  9
$SURFTYPE
 70
     6
  9
$SURFU
 70
     6
  9
$SURFV
 70
     6
  9
$UCSNAME
  2

  9
$UCSORG
 10
0.0
 20
0.0
 30
0.0
  9
$UCSXDIR
 10
1.0
 20
0.0
 30
0.0
  9
$UCSYDIR
 10
0.0
 20
1.0
 30
0.0
  9
$PUCSNAME
  2

  9
$PUCSORG
 10
0.0
 20
0.0
 30
0.0
  9
$PUCSXDIR
 10
1.0
 20
0.0
 30
0.0
  9
$PUCSYDIR
 10
0.0
 20
1.0
 30
0.0
  9
$USERI1
 70
     0
  9
$USERI2
 70
     0
  9
$USERI3
 70
     0
  9
$USERI4
 70
     0
  9
$USERI5
 70
     0
  9
$USERR1
 40
0.0
  9
$USERR2
 40
0.0
  9
$USERR3
 40
0.0
  9
$USERR4
 40
0.0
  9
$USERR5
 40
0.0
  9
$WORLDVIEW
 70
     1
  9
$SHADEDGE
 70
     3
  9
$SHADEDIF
 70
    70
  9
$TILEMODE
 70
     1
  9
$MAXACTVP
 70
    64
  9
$PLIMCHECK
 70
     0
  9
$PEXTMIN
 10
1.0000000000000000E+20
 20
1.0000000000000000E+20
 30
1.0000000000000000E+20
  9
$PEXTMAX
 10
-1.0000000000000000E+20
 20
-1.0000000000000000E+20
 30
-1.0000000000000000E+20
  9
$PLIMMIN
 10
0.0
 20
0.0
  9
$PLIMMAX
 10
12.0
 20
9.0
  9
$UNITMODE
 70
     0
  9
$VISRETAIN
 70
     1
  9
$PLINEGEN
 70
     0
  9
$PSLTSCALE
 70
     1
  0
ENDSEC
  0
SECTION
  2
TABLES
  0
TABLE
  2
VPORT
 70
     1
  0
VPORT
  2
*ACTIVE
 70
     0
 10
0.0
 20
0.0
 11
1.0
 21
1.0
 12
-320.9779000238373214
 22
-44.9834049123140574
 13
0.0
 23
0.0
 14
1.0
 24
1.0
 15
0.0
 25
0.0
 16
0.0
 26
0.0
 36
96.5995694866707311
 17
3303.693115234375
 27
195.2615115758877096
 37
0.0
 40
65.4602404613473539
 41
1.840277777777777
 42
50.0
 43
0.0
 44
0.0
 50
0.0
 51
0.0
 71
     0
 72
   100
 73
     1
 74
     1
 75
     0
 76
     0
 77
     0
 78
     0
  0
ENDTAB
  0
TABLE
  2
LTYPE
 70
     2
  0
LTYPE
  2
CONTINUOUS
 70
     0
  3
Solid line
 72
    65
 73
     0
 40
0.0
  0
LTYPE
  2
PHANTOM2
 70
     0
  3
___ _ _ ___ _ _ ___ _ _ ___ _ _
 72
    65
 73
     6
 40
1.25
 49
0.625
 49
-0.125
 49
0.125
 49
-0.125
 49
0.125
 49
-0.125
  0
ENDTAB
  0
TABLE
  2
LAYER
 70
     2
  0
LAYER
  2
0
 70
     0
 62
   255
  6
CONTINUOUS
  0
LAYER
  2
DEFPOINTS
 70
     0
 62
     7
  6
CONTINUOUS
  0
ENDTAB
  0
TABLE
  2
STYLE
 70
     1
  0
STYLE
  2
STANDARD
 70
     0
 40
0.0
 41
0.8
 50
0.0
 71
     0
 42
0.2
  3
txt
  4

  0
ENDTAB
  0
TABLE
  2
VIEW
 70
     0
  0
ENDTAB
  0
TABLE
  2
UCS
 70
     0
  0
ENDTAB
  0
TABLE
  2
APPID
 70
     9
  0
APPID
  2
ACAD
 70
     0
  0
APPID
  2
ACAD_MLEADERVER
 70
     0
  0
APPID
  2
ACAD_EXEMPT_FROM_CAD_STANDARDS
 70
     0
  0
APPID
  2
ACAD_NAV_VCDISPLAY
 70
     0
  0
APPID
  2
ACAECLAYERSTANDARD
 70
     0
  0
APPID
  2
ACCMTRANSPARENCY
 70
     0
  0
APPID
  2
ACAD_DSTYLE_DIMJAG
 70
     0
  0
APPID
  2
ACAD_DSTYLE_DIMTALN
 70
     0
  0
APPID
  2
ACDBATTR
 70
     0
  0
ENDTAB
  0
TABLE
  2
DIMSTYLE
 70
     1
  0
DIMSTYLE
  2
STANDARD
 70
     0
  3

  4

  5

  6

  7

 40
1.0
 41
0.1875
 42
0.0625
 43
0.38
 44
0.125
 45
0.0
 46
0.0
 47
0.01
 48
0.01
140
0.15625
141
0.09
142
0.0
143
25.3999999999999986
144
1.0
145
0.0
146
1.0
147
0.09
 71
     1
 72
     0
 73
     1
 74
     1
 75
     0
 76
     0
 77
     0
 78
     4
170
     0
171
     2
172
     0
173
     0
174
     0
175
     0
176
     0
177
     0
178
     0
  0
ENDTAB
  0
ENDSEC
  0
SECTION
  2
BLOCKS
  0
BLOCK
  8
0
  2
$MODEL_SPACE
 70
     0
 10
0.0
 20
0.0
 30
0.0
  3
$MODEL_SPACE
  1

  0
ENDBLK
  5
21
  8
0
  0
BLOCK
 67
     1
  8
0
  2
$PAPER_SPACE
 70
     0
 10
0.0
 20
0.0
 30
0.0
  3
$PAPER_SPACE
  1

  0
ENDBLK
  5
1D
 67
     1
  8
0
  0
ENDSEC
  0
SECTION
  2
ENTITIES
  0
ATTDEF
  5
35BFF
  8
DEFPOINTS
 10
2979.8158400213519599
 20
138.1854271116577877
 30
0.0
 40
0.001
  1
K-TS45104-4
  3

  2
MODELNUMBER
 70
     0
1001
ACDBATTR
1070
     0
1070
     1
  0
ATTDEF
  5
35C00
  8
DEFPOINTS
 10
2979.8158400213519599
 20
138.1837604449910941
 30
0.0
 40
0.001
  1
ALTEO/RITE-TEMP
  3

  2
TRADENAME
 70
     0
1001
ACDBATTR
1070
     0
1070
     1
  0
ATTDEF
  5
35C01
  8
DEFPOINTS
 10
2979.8158400213519599
 20
138.1820937783244858
 30
0.0
 40
0.001
  1
BATH AND SHOWER TRIM
  3

  2
PRODUCT
 70
     0
1001
ACDBATTR
1070
     0
1070
     1
  0
ARC
  5
3FB76
  8
0
 10
2978.8205820139110074
 20
123.594102668925899
 30
0.0
 40
7.0993662304345042
 50
144.5943800521413891
 51
153.942459428240511
  0
ARC
  5
3FB77
  8
0
 10
2973.0502788271419377
 20
127.6951465254451961
 30
0.0
 40
0.0201791931446634
 50
90.7234379468987271
 51
143.3235827288254995
  0
ARC
  5
3FB78
  8
0
 10
2973.0294161681918013
 20
127.887112354465998
 30
0.0
 40
0.1730198086908645
 50
276.7729498522181188
 51
284.5447722402996078
  0
LINE
  5
3FB79
  8
0
 10
2973.0728677505308042
 20
127.7196375378058946
 30
0.0
 11
2973.0649479306212015
 21
127.7677779158879048
 31
0.0
  0
ARC
  5
3FB7A
  8
0
 10
2973.1044173749210131
 20
127.7742712369792031
 30
0.0
 40
0.0400000031532828
 50
112.9359272503808
 51
189.3423387474940967
  0
ARC
  5
3FB7B
  8
0
 10
2972.9274949770920102
 20
128.8897051689233137
 30
0.0
 40
1.090595572831264
 50
278.5071206098708103
 51
292.6466183426131238
  0
ARC
  5
3FB7C
  8
0
 10
2973.2932352054081093
 20
128.0668456668591091
 30
0.0
 40
0.1914762454324388
 50
286.4399128945523785
 51
336.2141083641581076
  0
ARC
  5
3FB7D
  8
0
 10
2973.3755935882209087
 20
128.0211558540516137
 30
0.0
 40
0.0980629872993554
 50
341.2407013846180917
 51
48.727542360199898
  0
ARC
  5
3FB7E
  8
0
 10
2973.2319320683827755
 20
127.7892655292671975
 30
0.0
 40
0.3698589965805743
 50
55.7145028273115912
 51
75.2697317539027893
  0
ARC
  5
3FB7F
  8
0
 10
2973.5742170742159942
 20
129.1553907804120058
 30
0.0
 40
1.0385273775183781
 50
235.7966831305178061
 51
256.1705795978537026
  0
ARC
  5
3FB80
  8
0
 10
2973.0173410510951726
 20
128.3321496665053871
 30
0.0
 40
0.0446845176003692
 50
191.8788810982422035
 51
232.9664967505300126
  0
LINE
  5
3FB81
  8
0
 10
2972.9736134558202139
 20
128.3229516490740139
 30
0.0
 11
2972.9548858445209589
 21
128.4367868509739878
 31
0.0
  0
ARC
  5
3FB82
  8
0
 10
2972.9950054778610138
 20
128.4427349553853048
 30
0.0
 40
0.0405581630180251
 50
91.5962463469906965
 51
188.4335656906779093
  0
ARC
  5
3FB83
  8
0
 10
2973.0048763989439067
 20
132.3572784033063954
 30
0.0
 40
3.8740166427460401
 50
269.8373018321343011
 51
278.5147245756750181
  0
ARC
  5
3FB84
  8
0
 10
2973.2997170764110706
 20
130.0621292991870916
 30
0.0
 40
1.5612552160624491
 50
280.2852367137357987
 51
295.8401515111797835
  0
ARC
  5
3FB85
  8
0
 10
2973.9983180422550504
 20
128.6217600430371988
 30
0.0
 40
0.0396015209190156
 50
20.3251379357630384
 51
117.2116544254328971
  0
ARC
  5
3FB86
  8
0
 10
2972.6380546761952246
 20
129.0499145701921009
 30
0.0
 40
1.3995354201724961
 50
288.1004482280624188
 51
329.3965137311619742
  0
ARC
  5
3FB87
  8
0
 10
2964.7880297385231643
 20
134.4290551073694928
 30
0.0
 40
10.9130277233913908
 50
326.068699055024922
 51
328.0320852880844882
  0
LINE
  5
3FB88
  8
0
 10
2974.0460391294200235
 20
128.6512150083740096
 30
0.0
 11
2974.0565679548608387
 21
128.6666163890070038
 31
0.0
  0
LINE
  5
3FB89
  8
0
 10
2974.0565679548608387
 20
128.6666163890070038
 30
0.0
 11
2974.0661691551699732
 21
128.6777084841239969
 31
0.0
  0
ARC
  5
3FB8A
  8
0
 10
2974.0794507769228403
 20
128.6631703798668127
 30
0.0
 40
0.0196915705765665
 50
120.8895031719195998
 51
132.4139841289187984
  0
LINE
  5
3FB8B
  8
0
 10
2974.0693414890201893
 20
128.6800689077740003
 30
0.0
 11
2974.4152393530212066
 21
128.8565893826740023
 31
0.0
  0
ARC
  5
3FB8C
  8
0
 10
2977.8690468785421217
 20
118.1640310585393934
 30
0.0
 40
11.2365292656746902
 50
89.2710808098933342
 51
107.9009961083779956
  0
LINE
  5
3FB8D
  8
0
 10
2978.0119945955211733
 20
129.3996510186740068
 30
0.0
 11
2979.813695056619963
 21
129.4366827881740107
 31
0.0
  0
LINE
  5
3FB8E
  8
0
 10
2979.813695056619963
 20
129.4366827881740107
 30
0.0
 11
2979.813695056619963
 21
126.9277326009739966
 31
0.0
  0
LINE
  5
3FB8F
  8
0
 10
2979.813695056619963
 20
126.9277326009739966
 30
0.0
 11
2978.6886950924208577
 21
127.2750600980739932
 31
0.0
  0
ARC
  5
3FB90
  8
0
 10
2976.0636163115350428
 20
117.2874957899410049
 30
0.0
 40
10.3267845632095803
 50
75.2737552270964159
 51
88.1956580868933742
  0
ARC
  5
3FB91
  8
0
 10
2975.8587525098541846
 20
117.1754757857033979
 30
0.0
 40
10.4471377675925403
 50
87.0919456904624667
 51
90.1620665323401056
  0
ARC
  5
3FB92
  8
0
 10
2975.7459605963072136
 20
126.7014449298325047
 30
0.0
 40
0.9248803923859622
 50
84.8362684931320956
 51
100.6591722963264033
  0
ARC
  5
3FB93
  8
0
 10
2975.8696308727458018
 20
123.8080404866292952
 30
0.0
 40
3.8137324254100369
 50
94.4324903756200342
 51
100.5583085794597054
  0
ARC
  5
3FB94
  8
0
 10
2975.3363658893317734
 20
126.7056490452305013
 30
0.0
 40
0.8674960207512064
 50
101.0015004862796957
 51
144.2449478495736059
  0
ARC
  5
3FB95
  8
0
 10
2977.564077023648224
 20
125.3359800940687023
 30
0.0
 40
3.4808595948999361
 50
147.3769449009176924
 51
163.4723920755938877
  0
ARC
  5
3FB96
  8
0
 10
2974.2080968430109351
 20
126.332630417299498
 30
0.0
 40
0.0200000714741884
 50
257.9999489985492005
 51
341.2623783052425779
  0
LINE
  5
3FB97
  8
0
 10
2974.2039385769198816
 20
126.3130673990740007
 30
0.0
 11
2972.4567034838200925
 21
126.6844536828739933
 31
0.0
  0
ARC
  5
3FB98
  8
0
 10
2972.4608740549388131
 20
126.704014013596904
 30
0.0
 40
0.0200000050361068
 50
154.365648197655986
 51
257.9638672834025783
  0
LINE
  5
3FB99
  8
0
 10
2977.2478447878588668
 20
165.5921704121925018
 30
0.0
 11
2978.6142422851389711
 21
165.5921704121925018
 31
0.0
  0
LINE
  5
3FB9A
  8
0
 10
2979.8136950566208725
 20
166.9372996604739967
 30
0.0
 11
2979.8136950566208725
 21
163.4350411637925049
 31
0.0
  0
LINE
  5
3FB9B
  8
0
 10
2979.8136950566208725
 20
166.9372996604739967
 30
0.0
 11
2979.6816301720209594
 21
166.8858804588925011
 31
0.0
  0
ARC
  5
3FB9C
  8
0
 10
2979.7270123774142121
 20
166.7693209729428077
 30
0.0
 40
0.1250826060296621
 50
111.2733525924622029
 51
158.820294348203106
  0
ARC
  5
3FB9D
  8
0
 10
2985.4734536316350386
 20
164.5427646095502041
 30
0.0
 40
6.2878044338891241
 50
158.820294348203106
 51
166.5471041047350127
  0
ARC
  5
3FB9E
  8
0
 10
2978.915561126474131
 20
166.1114742947814875
 30
0.0
 40
0.4551032612954823
 50
334.6042718186618004
 51
346.5471041047350127
  0
ARC
  5
3FB9F
  8
0
 10
2979.2043871929258785
 20
165.9743559836298914
 30
0.0
 40
0.135381619996475
 50
282.0858625201626069
 51
334.6042718186618004
  0
LINE
  5
3FBA0
  8
0
 10
2979.2327330300208814
 20
165.8419751067924892
 30
0.0
 11
2978.6484393821210688
 21
165.7539915047925092
 31
0.0
  0
ARC
  5
3FBA1
  8
0
 10
2978.6542422361208082
 20
165.7144146943925023
 30
0.0
 40
0.0399999630000091
 50
98.3414186831199828
 51
180.0483758727910129
  0
LINE
  5
3FBA2
  8
0
 10
2978.614242287378147
 20
165.7143809216973978
 30
0.0
 11
2978.6142422680209165
 21
164.6579602800293003
 31
0.0
  0
ARC
  5
3FBA3
  8
0
 10
2978.6542422468960467
 20
164.6579261475955036
 30
0.0
 40
0.0399999934371376
 50
179.9511088588791097
 51
261.6585707903323055
  0
LINE
  5
3FBA4
  8
0
 10
2978.6484393812211238
 20
164.6183493080939115
 30
0.0
 11
2979.2326756980210121
 21
164.5299911548925138
 31
0.0
  0
ARC
  5
3FBA5
  8
0
 10
2979.2132558939119917
 20
164.4061552228415053
 30
0.0
 40
0.1253493791710821
 50
16.1329980847695786
 51
81.0875296270414765
  0
ARC
  5
3FBA6
  8
0
 10
2986.7322647182490982
 20
166.2742850523299865
 30
0.0
 40
7.6223491049217573
 50
193.9170151960368003
 51
200.8780742409948914
  0
ARC
  5
3FBA7
  8
0
 10
2979.7229264015868466
 20
163.5989195402374889
 30
0.0
 40
0.1198016884717097
 50
200.0591974714525918
 51
249.8362169225906939
  0
LINE
  5
3FBA8
  8
0
 10
2979.6816301720209594
 20
163.4864603654924906
 30
0.0
 11
2979.8136950566208725
 21
163.4350411637925049
 31
0.0
  0
ARC
  5
3FBA9
  8
0
 10
2974.7371855417618463
 20
159.6118182841800888
 30
0.0
 40
0.1249650530727961
 50
270.0699708041852887
 51
291.4509919227314185
  0
ARC
  5
3FBAA
  8
0
 10
2974.7371669083331653
 20
159.6118657068101925
 30
0.0
 40
0.1250160051144291
 50
291.4509919227314185
 51
5.2780227329987879
  0
ARC
  5
3FBAB
  8
0
 10
2969.9556454956768903
 20
159.1701471696929957
 30
0.0
 40
4.9268971246045359
 50
5.2780227329987879
 51
13.9463431665288304
  0
ARC
  5
3FBAC
  8
0
 10
2971.3382446576101756
 20
159.5134929002265096
 30
0.0
 40
3.5023035919598779
 50
13.9463431665288304
 51
24.6528766951831493
  0
ARC
  5
3FBAD
  8
0
 10
2975.9399597901970083
 20
161.6254617357269865
 30
0.0
 40
1.560916186363416
 50
187.1859441742564059
 51
204.6528766951817033
  0
ARC
  5
3FBAE
  8
0
 10
2975.1823749486779889
 20
161.5299453247930046
 30
0.0
 40
0.7973337239818795
 50
173.2141734427974882
 51
187.1859441742564059
  0
ARC
  5
3FBAF
  8
0
 10
2975.8167525216749709
 20
161.454459533668512
 30
0.0
 40
1.43618660985052
 50
150.2247697890900042
 51
173.2141734427974882
  0
ARC
  5
3FBB0
  8
0
 10
2977.6385958195710373
 20
160.5139212952734908
 30
0.0
 40
3.4857007118418948
 50
143.7532489233772992
 51
151.6772753155362068
  0
ARC
  5
3FBB1
  8
0
 10
2974.7938387658191459
 20
162.5982488368291001
 30
0.0
 40
0.0409344678298997
 50
325.2057544498417769
 51
44.3929859201375834
  0
LINE
  5
3FBB2
  8
0
 10
2974.8230888306361521
 20
162.6268856027903098
 30
0.0
 11
2973.8921620624150819
 21
163.55781342052029
 31
0.0
  0
ARC
  5
3FBB3
  8
0
 10
2977.2478447878588668
 20
163.2641704122088981
 30
0.0
 40
2.3279999999836392
 50
89.9999999999478888
 51
135.0000000002326033
  0
LINE
  5
3FBB4
  8
0
 10
2975.6017002012608827
 20
164.9103149987925008
 30
0.0
 11
2974.8800141635638283
 21
164.1886289610893925
 31
0.0
  0
ARC
  5
3FBB5
  8
0
 10
2974.8170815984431101
 20
164.2232771013250954
 30
0.0
 40
0.0200001086008848
 50
45.0000618849718776
 51
89.9998237664295431
  0
LINE
  5
3FBB6
  8
0
 10
2974.8312237955851742
 20
164.2374193290162054
 30
0.0
 11
2975.5029752377349723
 21
163.5656678868662084
 31
0.0
  0
ARC
  5
3FBB7
  8
0
 10
2975.4888331021111298
 20
163.551525751242508
 30
0.0
 40
0.020000000000002
 50
315.0000002025620915
 51
44.9999999999913598
  0
LINE
  5
3FBB8
  8
0
 10
2975.502975237784085
 20
163.5373836156688014
 30
0.0
 11
2974.9859551708118488
 21
163.0203635450407944
 31
0.0
  0
ARC
  5
3FBB9
  8
0
 10
2974.8233206125978541
 20
163.1829981021056994
 30
0.0
 40
0.229999997124897
 50
247.5403092929275033
 51
315.0000002025620915
  0
ARC
  5
3FBBA
  8
0
 10
2974.7087106057679193
 20
162.9057535456342976
 30
0.0
 40
0.0699999991392221
 50
67.5403092929275175
 51
185.5465213717357926
  0
ARC
  5
3FBBB
  8
0
 10
2974.1135105630200997
 20
162.8479545077445891
 30
0.0
 40
0.5279998500811799
 50
355.8606708268014813
 51
5.5465213717358468
  0
ARC
  5
3FBBC
  8
0
 10
2974.8170817214781891
 20
164.2232771013250954
 30
0.0
 40
0.0200001086008812
 50
90.0001762335704569
 51
134.9999381150298063
  0
LINE
  5
3FBBD
  8
0
 10
2974.8029395243370345
 20
164.2374193290162054
 30
0.0
 11
2974.2859194556372131
 21
163.7203992603159861
 31
0.0
  0
ARC
  5
3FBBE
  8
0
 10
2974.4485540153191323
 20
163.5577647006344932
 30
0.0
 40
0.230000000012189
 50
135.0000000000443094
 51
202.4596895946052939
  0
ARC
  5
3FBBF
  8
0
 10
2974.1713094533020012
 20
163.4431546978154017
 30
0.0
 40
0.0699999998447249
 50
264.4534835396348171
 51
22.4596895946037804
  0
ARC
  5
3FBC0
  8
0
 10
2974.113510399111874
 20
162.8479539568612893
 30
0.0
 40
0.5280005458887601
 50
84.4534835396348313
 51
94.1393219673749968
  0
ARC
  5
3FBC1
  8
0
 10
2971.1844779328739605
 20
167.3296949294235958
 30
0.0
 40
4.6097788496481868
 50
298.81136833684468
 51
305.1866865196338949
  0
ARC
  5
3FBC2
  8
0
 10
2973.8638777752239548
 20
163.5295291652163883
 30
0.0
 40
0.04
 50
44.999967702941909
 51
125.1866865196349039
  0
ARC
  5
3FBC3
  8
0
 10
2972.7352752281958601
 20
164.5101304468354897
 30
0.0
 40
1.3918733005914781
 50
273.5674719403521067
 51
298.81136833684468
  0
ARC
  5
3FBC4
  8
0
 10
2972.8187118824730533
 20
164.3526227427732067
 30
0.0
 40
1.23167252782893
 50
247.5779878339043023
 51
270.1475174958185903
  0
ARC
  5
3FBC5
  8
0
 10
2969.9634039884581398
 20
157.6337332902390926
 30
0.0
 40
6.0688378854219929
 50
66.8539463593593837
 51
74.3837938883217049
  0
ARC
  5
3FBC6
  8
0
 10
2970.5017862587787931
 20
159.0729452237671921
 30
0.0
 40
4.539716938407695
 50
76.0384352872307403
 51
85.1083679647507978
  0
ARC
  5
3FBC7
  8
0
 10
2970.8771823185561516
 20
163.467357011521699
 30
0.0
 40
0.1293019353088852
 50
84.8031035082136384
 51
89.9864633553467428
  0
ARC
  5
3FBC8
  8
0
 10
2970.8778439306229302
 20
163.4680124239052077
 30
0.0
 40
0.1286480671180509
 50
90.2810567672448769
 51
99.9486213539401263
  0
ARC
  5
3FBC9
  8
0
 10
2970.8771854684118807
 20
163.4717664126636123
 30
0.0
 40
0.1248367675914786
 50
99.9486199420179133
 51
193.5517662766968954
  0
ARC
  5
3FBCA
  8
0
 10
2970.7655868388301315
 20
163.4448672889951979
 30
0.0
 40
0.0100420944615719
 50
193.55176627669141
 51
226.9001911379353942
  0
ARC
  5
3FBCB
  8
0
 10
31677.1300305336917518
 20
28868.5517243011308892
 30
0.0
 40
40596.0507209312418127
 50
224.9987454177901043
 51
225.0066066474715001
  0
ARC
  5
3FBCC
  8
0
 10
2973.2462764287452046
 20
158.1222388537557038
 30
0.0
 40
2.0004670421463691
 50
43.2823617027626071
 51
43.495927426382579
  0
ARC
  5
3FBCD
  8
0
 10
2974.7224514817621639
 20
159.5124581151183065
 30
0.0
 40
0.0272909270930718
 50
223.2823617027626142
 51
227.7130998818967953
  0
ARC
  5
3FBCE
  8
0
 10
2974.7095992695321911
 20
159.4983272291846106
 30
0.0
 40
0.00818958430064
 50
227.7130998818946921
 51
260.5165125404461719
  0
ARC
  5
3FBCF
  8
0
 10
2974.737495979743926
 20
159.6144708582247063
 30
0.0
 40
0.1276176315272824
 50
256.7518253403970903
 51
269.9291407839206158
  0
ARC
  5
3FBD0
  8
0
 10
2974.6584844128610712
 20
159.5533386822924911
 30
0.0
 40
0.0399999999999811
 50
245.7548261479969085
 51
299.4137102567216857
  0
ARC
  5
3FBD1
  8
0
 10
2782.4555396833470695
 20
-267.2173678911800039
 30
0.0
 40
468.0147061529423809
 50
65.7548261479969085
 51
65.8140920143010675
  0
ARC
  5
3FBD2
  8
0
 10
2974.2143547652749476
 20
159.7420698098746072
 30
0.0
 40
0.0300018924983941
 50
225.0002781367792011
 51
242.6017533540241118
  0
LINE
  5
3FBD3
  8
0
 10
2974.1931403266248708
 20
159.7208551652568929
 30
0.0
 11
2970.9864110739249554
 21
162.9275844179568935
 31
0.0
  0
ARC
  5
3FBD4
  8
0
 10
2971.0076242773611739
 20
162.9487976213924867
 30
0.0
 40
0.0300000000000055
 50
212.0716554658166899
 51
224.9999999999907914
  0
ARC
  5
3FBD5
  8
0
 10
2971.0076242773611739
 20
162.9487976213926004
 30
0.0
 40
0.0300000000001034
 50
207.3980977190140038
 51
212.0716554658174005
  0
LINE
  5
3FBD6
  8
0
 10
2970.9809893574479247
 20
162.9349925121491083
 30
0.0
 11
2970.7824797169851081
 21
163.3763703774824876
 31
0.0
  0
ARC
  5
3FBD7
  8
0
 10
2970.8189082225849234
 20
163.3929249750297004
 30
0.0
 40
0.0400136316801111
 50
150.9750280717852888
 51
204.4389828874332125
  0
LINE
  5
3FBD8
  8
0
 10
2971.0338952202869223
 20
162.8800773277652922
 30
0.0
 11
2971.1961289802420652
 21
162.6467578534322911
 31
0.0
  0
ARC
  5
3FBD9
  8
0
 10
2971.4828720531068029
 20
162.2049234488800096
 30
0.0
 40
0.0697711467499409
 50
21.8637546214513598
 51
54.3223960451882917
  0
ARC
  5
3FBDA
  8
0
 10
2971.601145785080007
 20
162.2976387962791023
 30
0.0
 40
0.0855437720558317
 50
204.9165761802233874
 51
231.2695600730714034
  0
LINE
  5
3FBDB
  8
0
 10
2971.5329256599611654
 20
162.3168221194925138
 30
0.0
 11
2971.5087495478610435
 21
162.2957165080925108
 31
0.0
  0
ARC
  5
3FBDC
  8
0
 10
2971.5171374932051549
 20
162.2870039441260133
 30
0.0
 40
0.0120940645754925
 50
133.9124859913023045
 51
206.7566580709444963
  0
ARC
  5
3FBDD
  8
0
 10
2971.6331183044758291
 20
162.3422725616410958
 30
0.0
 40
0.1405676528061263
 50
205.5892040363740136
 51
216.7811863262240024
  0
ARC
  5
3FBDE
  8
0
 10
2971.8821939368831409
 20
162.5211314283623949
 30
0.0
 40
0.4471916622081318
 50
216.0273361551886069
 51
222.4522091356894862
  0
ARC
  5
3FBDF
  8
0
 10
2971.6170537859188698
 20
162.2785817834746922
 30
0.0
 40
0.0878455478717792
 50
222.4522091356894862
 51
232.1486445036107114
  0
ARC
  5
3FBE0
  8
0
 10
2971.5712307753910864
 20
162.2196163229664023
 30
0.0
 40
0.0131684173240906
 50
232.1486445036111945
 51
270.1190464580772073
  0
ARC
  5
3FBE1
  8
0
 10
2971.5712367989099221
 20
162.2167172722126907
 30
0.0
 40
0.0102693603128002
 50
270.1190464580772073
 51
305.7055768157001125
  0
LINE
  5
3FBE2
  8
0
 10
2971.5772302055611362
 20
162.2083782771925087
 30
0.0
 11
2971.6042912917259855
 21
162.2273773309680962
 31
0.0
  0
ARC
  5
3FBE3
  8
0
 10
2971.9869768700909844
 20
162.5871252429967058
 30
0.0
 40
0.5390698978825519
 50
223.0195697461599877
 51
223.9190048476758932
  0
ARC
  5
3FBE4
  8
0
 10
2971.7135449104412146
 20
162.3238210456773061
 30
0.0
 40
0.1594725626911664
 50
223.9190048476758932
 51
230.2413493437111072
  0
ARC
  5
3FBE5
  8
0
 10
2971.6266239836490968
 20
162.2193420811358919
 30
0.0
 40
0.0235641319521953
 50
230.2413493437115051
 51
243.8091916413061142
  0
ARC
  5
3FBE6
  8
0
 10
2971.6180099596949731
 20
162.2018289812974103
 30
0.0
 40
0.0040472143001789
 50
243.8091916412770104
 51
266.7255588962482875
  0
ARC
  5
3FBE7
  8
0
 10
2971.6178444828829015
 20
162.1989366408047033
 30
0.0
 40
0.0011501440385256
 50
266.7255588960916839
 51
330.7494554667949274
  0
ARC
  5
3FBE8
  8
0
 10
2971.6175029194841954
 20
162.1991279297635913
 30
0.0
 40
0.0015416245892418
 50
330.749455466897075
 51
3.4797602415286488
  0
ARC
  5
3FBE9
  8
0
 10
2971.6064959762711624
 20
162.1984586189452955
 30
0.0
 40
0.012568898770168
 50
3.4797602415237718
 51
21.4361260025629399
  0
ARC
  5
3FBEA
  8
0
 10
2971.5556589749780869
 20
162.1784988303517139
 30
0.0
 40
0.0671838588197298
 50
21.4361260025644498
 51
26.7237612895199703
  0
ARC
  5
3FBEB
  8
0
 10
2971.5676245632780592
 20
162.184523113129103
 30
0.0
 40
0.0537873187309023
 50
26.723761289490799
 51
35.7983066940133199
  0
ARC
  5
3FBEC
  8
0
 10
2971.4168027694231569
 20
162.105024632864513
 30
0.0
 40
0.223879719332646
 50
29.7110043989649206
 51
33.1279711491525291
  0
ARC
  5
3FBED
  8
0
 10
2971.0927139283639917
 20
161.8923960489734952
 30
0.0
 40
0.6114931381384189
 50
33.216812476079042
 51
43.9540692243115885
  0
ARC
  5
3FBEE
  8
0
 10
2971.4612209072988662
 20
162.252526839176511
 30
0.0
 40
0.0963091617051646
 50
41.8815286559917013
 51
50.080962494956367
  0
ARC
  5
3FBEF
  8
0
 10
2971.501154788445092
 20
162.3003997424459897
 30
0.0
 40
0.0339673196830261
 50
49.9242790130744325
 51
59.91781741930496
  0
ARC
  5
3FBF0
  8
0
 10
2971.5146545116667767
 20
162.3236308347514978
 30
0.0
 40
0.007098757760426
 50
60.21659926173146
 51
76.959606938748891
  0
ARC
  5
3FBF1
  8
0
 10
2971.5158392083089893
 20
162.3284873324957971
 30
0.0
 40
0.0021010006063811
 50
78.5506407083661458
 51
97.6963586509500743
  0
ARC
  5
3FBF2
  8
0
 10
2971.5157018840482124
 20
162.3295034910109962
 30
0.0
 40
0.0010756050335611
 50
97.6963586509237132
 51
124.7206397469506953
  0
ARC
  5
3FBF3
  8
0
 10
2971.5156760196191499
 20
162.3295408152552
 30
0.0
 40
0.0010301950359142
 50
124.7206397470144026
 51
161.2422991454461965
  0
ARC
  5
3FBF4
  8
0
 10
2971.5172397454471138
 20
162.329009767461514
 30
0.0
 40
0.0026816338704305
 50
161.2422991454338899
 51
184.5556319701763073
  0
ARC
  5
3FBF5
  8
0
 10
2971.5244970871749501
 20
162.3295880234290109
 30
0.0
 40
0.0099619765074782
 50
184.555631970174602
 51
196.730451685507802
  0
ARC
  5
3FBF6
  8
0
 10
2971.5429538189678169
 20
162.3351360023974053
 30
0.0
 40
0.0292345222429828
 50
196.7304516855062104
 51
203.9658053196392018
  0
ARC
  5
3FBF7
  8
0
 10
2971.5932920034451854
 20
162.3575120180852878
 30
0.0
 40
0.0843218973350695
 50
203.9658053196407081
 51
209.0859703233122957
  0
ARC
  5
3FBF8
  8
0
 10
2971.715364933490946
 20
162.4254177931996139
 30
0.0
 40
0.224010817954631
 50
209.0859703233122957
 51
210.864539406506708
  0
ARC
  5
3FBF9
  8
0
 10
2971.7092528008902264
 20
162.4217648931833935
 30
0.0
 40
0.2168902952591604
 50
210.864539406506708
 51
211.3238669278798056
  0
ARC
  5
3FBFA
  8
0
 10
2971.6884843259049376
 20
161.9991074850053963
 30
0.0
 40
0.0697711467499409
 50
21.8637546214513598
 51
54.3223960451882917
  0
ARC
  5
3FBFB
  8
0
 10
2971.8067580578781417
 20
162.0918228324046027
 30
0.0
 40
0.0855437720558317
 50
204.9165761802233874
 51
231.2695600730714034
  0
LINE
  5
3FBFC
  8
0
 10
2971.7385379327588453
 20
162.1110061556180142
 30
0.0
 11
2971.7143618206591782
 21
162.0899005442180112
 31
0.0
  0
ARC
  5
3FBFD
  8
0
 10
2971.7227497660019253
 20
162.0811879802513999
 30
0.0
 40
0.0120940645754925
 50
133.9124859913023045
 51
206.7566580709444963
  0
ARC
  5
3FBFE
  8
0
 10
2971.8387305772739637
 20
162.1364565977665961
 30
0.0
 40
0.1405676528061263
 50
205.5892040363740136
 51
216.7811863262240024
  0
ARC
  5
3FBFF
  8
0
 10
2972.0878062096808208
 20
162.31531546448781
 30
0.0
 40
0.4471916622081318
 50
216.0273361551886069
 51
222.4522091356894862
  0
ARC
  5
3FC00
  8
0
 10
2971.8226660587170045
 20
162.0727658196001926
 30
0.0
 40
0.0878455478717792
 50
222.4522091356894862
 51
232.1486445036107114
  0
ARC
  5
3FC01
  8
0
 10
2971.7768430481878568
 20
162.013800359091789
 30
0.0
 40
0.0131684173240906
 50
232.1486445036111945
 51
270.1190464580772073
  0
ARC
  5
3FC02
  8
0
 10
2971.7768490717080567
 20
162.010901308338191
 30
0.0
 40
0.0102693603128002
 50
270.1190464580772073
 51
305.7055768157001125
  0
LINE
  5
3FC03
  8
0
 10
2971.7828424783588162
 20
162.0025623133178954
 30
0.0
 11
2971.8099035645241202
 21
162.0215613670935966
 31
0.0
  0
ARC
  5
3FC04
  8
0
 10
2972.1925891428891191
 20
162.3813092791222061
 30
0.0
 40
0.5390698978825519
 50
223.0195697461599877
 51
223.9190048476758932
  0
ARC
  5
3FC05
  8
0
 10
2971.919157183237985
 20
162.1180050818026928
 30
0.0
 40
0.1594725626911664
 50
223.9190048476758932
 51
230.2413493437111072
  0
ARC
  5
3FC06
  8
0
 10
2971.8322362564467767
 20
162.0135261172613923
 30
0.0
 40
0.0235641319521953
 50
230.2413493437115051
 51
243.8091916413061142
  0
ARC
  5
3FC07
  8
0
 10
2971.8236222324931077
 20
161.9960130174229107
 30
0.0
 40
0.0040472143001789
 50
243.8091916412770104
 51
266.7255588962482875
  0
ARC
  5
3FC08
  8
0
 10
2971.8234567556810362
 20
161.99312067693009
 30
0.0
 40
0.0011501440385256
 50
266.7255588960916839
 51
330.7494554667949274
  0
ARC
  5
3FC09
  8
0
 10
2971.8231151922818754
 20
161.9933119658890917
 30
0.0
 40
0.0015416245892418
 50
330.749455466897075
 51
3.4797602415286488
  0
ARC
  5
3FC0A
  8
0
 10
2971.8121082490688423
 20
161.9926426550707959
 30
0.0
 40
0.012568898770168
 50
3.4797602415237718
 51
21.4361260025629399
  0
ARC
  5
3FC0B
  8
0
 10
2971.7612712477748573
 20
161.9726828664771006
 30
0.0
 40
0.0671838588197298
 50
21.4361260025644498
 51
26.7237612895199703
  0
ARC
  5
3FC0C
  8
0
 10
2971.7732368360761939
 20
161.9787071492544897
 30
0.0
 40
0.0537873187309023
 50
26.723761289490799
 51
35.7983066940133199
  0
ARC
  5
3FC0D
  8
0
 10
2971.6224150422208368
 20
161.8992086689900134
 30
0.0
 40
0.223879719332646
 50
29.7110043989649206
 51
33.1279711491525291
  0
ARC
  5
3FC0E
  8
0
 10
2971.2983262011630359
 20
161.6865800850989103
 30
0.0
 40
0.6114931381384189
 50
33.216812476079042
 51
43.9540692243115885
  0
ARC
  5
3FC0F
  8
0
 10
2971.6668331800970009
 20
162.0467108753020113
 30
0.0
 40
0.0963091617051646
 50
41.8815286559917013
 51
50.080962494956367
  0
ARC
  5
3FC10
  8
0
 10
2971.7067670612418624
 20
162.0945837785714048
 30
0.0
 40
0.0339673196830261
 50
49.9242790130744325
 51
59.91781741930496
  0
ARC
  5
3FC11
  8
0
 10
2971.7202667844649113
 20
162.1178148708769982
 30
0.0
 40
0.007098757760426
 50
60.21659926173146
 51
76.959606938748891
  0
ARC
  5
3FC12
  8
0
 10
2971.721451481107124
 20
162.1226713686212975
 30
0.0
 40
0.0021010006063811
 50
78.5506407083661458
 51
97.6963586509500743
  0
ARC
  5
3FC13
  8
0
 10
2971.7213141568458923
 20
162.1236875271364966
 30
0.0
 40
0.0010756050335611
 50
97.6963586509237132
 51
124.7206397469506953
  0
ARC
  5
3FC14
  8
0
 10
2971.7212882924168298
 20
162.1237248513807003
 30
0.0
 40
0.0010301950359142
 50
124.7206397470144026
 51
161.2422991454461965
  0
ARC
  5
3FC15
  8
0
 10
2971.7228520182447937
 20
162.1231938035869007
 30
0.0
 40
0.0026816338704305
 50
161.2422991454338899
 51
184.5556319701763073
  0
ARC
  5
3FC16
  8
0
 10
2971.7301093599721753
 20
162.1237720595545113
 30
0.0
 40
0.0099619765074782
 50
184.555631970174602
 51
196.730451685507802
  0
ARC
  5
3FC17
  8
0
 10
2971.7485660917659516
 20
162.1293200385229056
 30
0.0
 40
0.0292345222429828
 50
196.7304516855062104
 51
203.9658053196392018
  0
ARC
  5
3FC18
  8
0
 10
2971.7989042762428653
 20
162.1516960542107029
 30
0.0
 40
0.0843218973350695
 50
203.9658053196407081
 51
209.0859703233122957
  0
ARC
  5
3FC19
  8
0
 10
2971.9209772062899901
 20
162.2196018293250859
 30
0.0
 40
0.224010817954631
 50
209.0859703233122957
 51
210.864539406506708
  0
ARC
  5
3FC1A
  8
0
 10
2971.9148650736888158
 20
162.2159489293088086
 30
0.0
 40
0.2168902952591604
 50
210.864539406506708
 51
211.3238669278798056
  0
ARC
  5
3FC1B
  8
0
 10
2971.9303283553090296
 20
161.7571530921414933
 30
0.0
 40
0.0697711467499409
 50
21.8637546214513598
 51
54.3223960451882917
  0
ARC
  5
3FC1C
  8
0
 10
2972.0486020872831432
 20
161.849868439540586
 30
0.0
 40
0.0855437720558317
 50
204.9165761802233874
 51
231.2695600730714034
  0
LINE
  5
3FC1D
  8
0
 10
2971.9803819621638468
 20
161.8690517627539975
 30
0.0
 11
2971.9562058500641797
 21
161.8479461513539945
 31
0.0
  0
ARC
  5
3FC1E
  8
0
 10
2971.9645937954069268
 20
161.8392335873874117
 30
0.0
 40
0.0120940645754925
 50
133.9124859913023045
 51
206.7566580709444963
  0
ARC
  5
3FC1F
  8
0
 10
2972.0805746066789652
 20
161.8945022049026079
 30
0.0
 40
0.1405676528061263
 50
205.5892040363740136
 51
216.7811863262240024
  0
ARC
  5
3FC20
  8
0
 10
2972.3296502390858222
 20
162.073361071623907
 30
0.0
 40
0.4471916622081318
 50
216.0273361551886069
 51
222.4522091356894862
  0
ARC
  5
3FC21
  8
0
 10
2972.064510088122006
 20
161.8308114267362043
 30
0.0
 40
0.0878455478717792
 50
222.4522091356894862
 51
232.1486445036107114
  0
ARC
  5
3FC22
  8
0
 10
2972.0186870775928583
 20
161.7718459662278008
 30
0.0
 40
0.0131684173240906
 50
232.1486445036111945
 51
270.1190464580772073
  0
ARC
  5
3FC23
  8
0
 10
2972.0186931011130582
 20
161.7689469154742028
 30
0.0
 40
0.0102693603128002
 50
270.1190464580772073
 51
305.7055768157001125
  0
LINE
  5
3FC24
  8
0
 10
2972.0246865077638176
 20
161.7606079204539924
 30
0.0
 11
2972.0517475939291216
 21
161.7796069742296083
 31
0.0
  0
ARC
  5
3FC25
  8
0
 10
2972.4344331722941206
 20
162.1393548862581895
 30
0.0
 40
0.5390698978825519
 50
223.0195697461599877
 51
223.9190048476758932
  0
ARC
  5
3FC26
  8
0
 10
2972.161001212643896
 20
161.8760506889387045
 30
0.0
 40
0.1594725626911664
 50
223.9190048476758932
 51
230.2413493437111072
  0
ARC
  5
3FC27
  8
0
 10
2972.0740802858517782
 20
161.7715717243974041
 30
0.0
 40
0.0235641319521953
 50
230.2413493437115051
 51
243.8091916413061142
  0
ARC
  5
3FC28
  8
0
 10
2972.0654662618990187
 20
161.7540586245588941
 30
0.0
 40
0.0040472143001789
 50
243.8091916412770104
 51
266.7255588962482875
  0
ARC
  5
3FC29
  8
0
 10
2972.0653007850860376
 20
161.751166284066187
 30
0.0
 40
0.0011501440385256
 50
266.7255588960916839
 51
330.7494554667949274
  0
ARC
  5
3FC2A
  8
0
 10
2972.0649592216859673
 20
161.7513575730251034
 30
0.0
 40
0.0015416245892418
 50
330.749455466897075
 51
3.4797602415286488
  0
ARC
  5
3FC2B
  8
0
 10
2972.0539522784738438
 20
161.7506882622068076
 30
0.0
 40
0.012568898770168
 50
3.4797602415237718
 51
21.4361260025629399
  0
ARC
  5
3FC2C
  8
0
 10
2972.0031152771798588
 20
161.7307284736131976
 30
0.0
 40
0.0671838588197298
 50
21.4361260025644498
 51
26.7237612895199703
  0
ARC
  5
3FC2D
  8
0
 10
2972.0150808654811954
 20
161.7367527563905014
 30
0.0
 40
0.0537873187309023
 50
26.723761289490799
 51
35.7983066940133199
  0
ARC
  5
3FC2E
  8
0
 10
2971.8642590716258383
 20
161.6572542761259967
 30
0.0
 40
0.223879719332646
 50
29.7110043989649206
 51
33.1279711491525291
  0
ARC
  5
3FC2F
  8
0
 10
2971.5401702305680374
 20
161.4446256922350074
 30
0.0
 40
0.6114931381384189
 50
33.216812476079042
 51
43.9540692243115885
  0
ARC
  5
3FC30
  8
0
 10
2971.9086772095020024
 20
161.8047564824379947
 30
0.0
 40
0.0963091617051646
 50
41.8815286559917013
 51
50.080962494956367
  0
ARC
  5
3FC31
  8
0
 10
2971.9486110906477734
 20
161.8526293857073881
 30
0.0
 40
0.0339673196830261
 50
49.9242790130744325
 51
59.91781741930496
  0
ARC
  5
3FC32
  8
0
 10
2971.9621108138699128
 20
161.8758604780130952
 30
0.0
 40
0.007098757760426
 50
60.21659926173146
 51
76.959606938748891
  0
ARC
  5
3FC33
  8
0
 10
2971.9632955105121255
 20
161.8807169757573092
 30
0.0
 40
0.0021010006063811
 50
78.5506407083661458
 51
97.6963586509500743
  0
ARC
  5
3FC34
  8
0
 10
2971.9631581862508938
 20
161.8817331342725083
 30
0.0
 40
0.0010756050335611
 50
97.6963586509237132
 51
124.7206397469506953
  0
ARC
  5
3FC35
  8
0
 10
2971.9631323218231955
 20
161.8817704585167121
 30
0.0
 40
0.0010301950359142
 50
124.7206397470144026
 51
161.2422991454461965
  0
ARC
  5
3FC36
  8
0
 10
2971.9646960476497952
 20
161.8812394107229125
 30
0.0
 40
0.0026816338704305
 50
161.2422991454338899
 51
184.5556319701763073
  0
ARC
  5
3FC37
  8
0
 10
2971.9719533893780863
 20
161.8818176666904947
 30
0.0
 40
0.0099619765074782
 50
184.555631970174602
 51
196.730451685507802
  0
ARC
  5
3FC38
  8
0
 10
2971.9904101211709531
 20
161.887365645658889
 30
0.0
 40
0.0292345222429828
 50
196.7304516855062104
 51
203.9658053196392018
  0
ARC
  5
3FC39
  8
0
 10
2972.0407483056478668
 20
161.9097416613466862
 30
0.0
 40
0.0843218973350695
 50
203.9658053196407081
 51
209.0859703233122957
  0
ARC
  5
3FC3A
  8
0
 10
2972.1628212356940821
 20
161.9776474364610976
 30
0.0
 40
0.224010817954631
 50
209.0859703233122957
 51
210.864539406506708
  0
ARC
  5
3FC3B
  8
0
 10
2972.1567091030938172
 20
161.9739945364447919
 30
0.0
 40
0.2168902952591604
 50
210.864539406506708
 51
211.3238669278798056
  0
ARC
  5
3FC3C
  8
0
 10
2972.1891163188070095
 20
161.4951765253798897
 30
0.0
 40
0.0697711467499409
 50
21.8637546214513598
 51
54.3223960451882917
  0
ARC
  5
3FC3D
  8
0
 10
2972.3073900507802136
 20
161.587891872779096
 30
0.0
 40
0.0855437720558317
 50
204.9165761802233874
 51
231.2695600730714034
  0
LINE
  5
3FC3E
  8
0
 10
2972.2391699256609172
 20
161.6070751959925076
 30
0.0
 11
2972.2149938135607954
 21
161.5859695845925046
 31
0.0
  0
ARC
  5
3FC3F
  8
0
 10
2972.2233817589039973
 20
161.577257020626007
 30
0.0
 40
0.0120940645754925
 50
133.9124859913023045
 51
206.7566580709444963
  0
ARC
  5
3FC40
  8
0
 10
2972.3393625701760357
 20
161.6325256381410895
 30
0.0
 40
0.1405676528061263
 50
205.5892040363740136
 51
216.7811863262240024
  0
ARC
  5
3FC41
  8
0
 10
2972.5884382025828927
 20
161.8113845048623887
 30
0.0
 40
0.4471916622081318
 50
216.0273361551886069
 51
222.4522091356894862
  0
ARC
  5
3FC42
  8
0
 10
2972.3232980516190764
 20
161.5688348599747997
 30
0.0
 40
0.0878455478717792
 50
222.4522091356894862
 51
232.1486445036107114
  0
ARC
  5
3FC43
  8
0
 10
2972.2774750410908382
 20
161.5098693994663108
 30
0.0
 40
0.0131684173240906
 50
232.1486445036111945
 51
270.1190464580772073
  0
ARC
  5
3FC44
  8
0
 10
2972.2774810646101287
 20
161.5069703487127128
 30
0.0
 40
0.0102693603128002
 50
270.1190464580772073
 51
305.7055768157001125
  0
LINE
  5
3FC45
  8
0
 10
2972.2834744712608881
 20
161.4986313536925024
 30
0.0
 11
2972.3105355574261921
 21
161.51763040746809
 31
0.0
  0
ARC
  5
3FC46
  8
0
 10
2972.693221135791191
 20
161.8773783194966995
 30
0.0
 40
0.5390698978825519
 50
223.0195697461599877
 51
223.9190048476758932
  0
ARC
  5
3FC47
  8
0
 10
2972.4197891761409664
 20
161.6140741221771862
 30
0.0
 40
0.1594725626911664
 50
223.9190048476758932
 51
230.2413493437111072
  0
ARC
  5
3FC48
  8
0
 10
2972.3328682493488486
 20
161.5095951576359141
 30
0.0
 40
0.0235641319521953
 50
230.2413493437115051
 51
243.8091916413061142
  0
ARC
  5
3FC49
  8
0
 10
2972.3242542253951797
 20
161.4920820577974041
 30
0.0
 40
0.0040472143001789
 50
243.8091916412770104
 51
266.7255588962482875
  0
ARC
  5
3FC4A
  8
0
 10
2972.3240887485840176
 20
161.4891897173046971
 30
0.0
 40
0.0011501440385256
 50
266.7255588960916839
 51
330.7494554667949274
  0
ARC
  5
3FC4B
  8
0
 10
2972.3237471851839473
 20
161.4893810062636135
 30
0.0
 40
0.0015416245892418
 50
330.749455466897075
 51
3.4797602415286488
  0
ARC
  5
3FC4C
  8
0
 10
2972.3127402419709142
 20
161.4887116954454029
 30
0.0
 40
0.012568898770168
 50
3.4797602415237718
 51
21.4361260025629399
  0
ARC
  5
3FC4D
  8
0
 10
2972.2619032406778388
 20
161.4687519068517076
 30
0.0
 40
0.0671838588197298
 50
21.4361260025644498
 51
26.7237612895199703
  0
ARC
  5
3FC4E
  8
0
 10
2972.2738688289778111
 20
161.4747761896290967
 30
0.0
 40
0.0537873187309023
 50
26.723761289490799
 51
35.7983066940133199
  0
ARC
  5
3FC4F
  8
0
 10
2972.1230470351238182
 20
161.3952777093645068
 30
0.0
 40
0.223879719332646
 50
29.7110043989649206
 51
33.1279711491525291
  0
ARC
  5
3FC50
  8
0
 10
2971.7989581940651078
 20
161.182649125473489
 30
0.0
 40
0.6114931381384189
 50
33.216812476079042
 51
43.9540692243115885
  0
ARC
  5
3FC51
  8
0
 10
2972.1674651729990728
 20
161.5427799156765047
 30
0.0
 40
0.0963091617051646
 50
41.8815286559917013
 51
50.080962494956367
  0
ARC
  5
3FC52
  8
0
 10
2972.2073990541448438
 20
161.5906528189460118
 30
0.0
 40
0.0339673196830261
 50
49.9242790130744325
 51
59.91781741930496
  0
ARC
  5
3FC53
  8
0
 10
2972.2208987773669833
 20
161.6138839112514916
 30
0.0
 40
0.007098757760426
 50
60.21659926173146
 51
76.959606938748891
  0
ARC
  5
3FC54
  8
0
 10
2972.2220834740091959
 20
161.6187404089957909
 30
0.0
 40
0.0021010006063811
 50
78.5506407083661458
 51
97.6963586509500743
  0
ARC
  5
3FC55
  8
0
 10
2972.2219461497479642
 20
161.61975656751099
 30
0.0
 40
0.0010756050335611
 50
97.6963586509237132
 51
124.7206397469506953
  0
ARC
  5
3FC56
  8
0
 10
2972.2219202853189017
 20
161.6197938917551937
 30
0.0
 40
0.0010301950359142
 50
124.7206397470144026
 51
161.2422991454461965
  0
ARC
  5
3FC57
  8
0
 10
2972.2234840111468657
 20
161.6192628439615078
 30
0.0
 40
0.0026816338704305
 50
161.2422991454338899
 51
184.5556319701763073
  0
ARC
  5
3FC58
  8
0
 10
2972.2307413528737925
 20
161.619841099928891
 30
0.0
 40
0.0099619765074782
 50
184.555631970174602
 51
196.730451685507802
  0
ARC
  5
3FC59
  8
0
 10
2972.2491980846680235
 20
161.625389078897399
 30
0.0
 40
0.0292345222429828
 50
196.7304516855062104
 51
203.9658053196392018
  0
ARC
  5
3FC5A
  8
0
 10
2972.2995362691449373
 20
161.64776509458531
 30
0.0
 40
0.0843218973350695
 50
203.9658053196407081
 51
209.0859703233122957
  0
ARC
  5
3FC5B
  8
0
 10
2972.4216091991911526
 20
161.715670869699494
 30
0.0
 40
0.224010817954631
 50
209.0859703233122957
 51
210.864539406506708
  0
ARC
  5
3FC5C
  8
0
 10
2972.4154970665899782
 20
161.7120179696833873
 30
0.0
 40
0.2168902952591604
 50
210.864539406506708
 51
211.3238669278798056
  0
ARC
  5
3FC5D
  8
0
 10
2972.0713421235141141
 20
161.5364886156694126
 30
0.0
 40
0.0697711467499409
 50
21.8637546214513598
 51
54.3223960451882917
  0
ARC
  5
3FC5E
  8
0
 10
2972.1896158554868634
 20
161.6292039630685053
 30
0.0
 40
0.0855437720558317
 50
204.9165761802233874
 51
231.2695600730714034
  0
LINE
  5
3FC5F
  8
0
 10
2972.1213957303680218
 20
161.6483872862818885
 30
0.0
 11
2972.0972196182678999
 21
161.6272816748819139
 31
0.0
  0
ARC
  5
3FC60
  8
0
 10
2972.1056075636111018
 20
161.6185691109153879
 30
0.0
 40
0.0120940645754925
 50
133.9124859913023045
 51
206.7566580709444963
  0
ARC
  5
3FC61
  8
0
 10
2972.2215883748831402
 20
161.6738377284304988
 30
0.0
 40
0.1405676528061263
 50
205.5892040363740136
 51
216.7811863262240024
  0
ARC
  5
3FC62
  8
0
 10
2972.4706640072899972
 20
161.852696595151798
 30
0.0
 40
0.4471916622081318
 50
216.0273361551886069
 51
222.4522091356894862
  0
ARC
  5
3FC63
  8
0
 10
2972.205523856326181
 20
161.610146950264209
 30
0.0
 40
0.0878455478717792
 50
222.4522091356894862
 51
232.1486445036107114
  0
ARC
  5
3FC64
  8
0
 10
2972.1597008457979427
 20
161.5511814897558054
 30
0.0
 40
0.0131684173240906
 50
232.1486445036111945
 51
270.1190464580772073
  0
ARC
  5
3FC65
  8
0
 10
2972.159706869315869
 20
161.5482824390020937
 30
0.0
 40
0.0102693603128002
 50
270.1190464580772073
 51
305.7055768157001125
  0
LINE
  5
3FC66
  8
0
 10
2972.1657002759679926
 20
161.5399434439819117
 30
0.0
 11
2972.1927613621328419
 21
161.558942497757613
 31
0.0
  0
ARC
  5
3FC67
  8
0
 10
2972.5754469404978408
 20
161.9186904097861088
 30
0.0
 40
0.5390698978825519
 50
223.0195697461599877
 51
223.9190048476758932
  0
ARC
  5
3FC68
  8
0
 10
2972.302014980848071
 20
161.6553862124667091
 30
0.0
 40
0.1594725626911664
 50
223.9190048476758932
 51
230.2413493437111072
  0
ARC
  5
3FC69
  8
0
 10
2972.2150940540559532
 20
161.550907247925295
 30
0.0
 40
0.0235641319521953
 50
230.2413493437115051
 51
243.8091916413061142
  0
ARC
  5
3FC6A
  8
0
 10
2972.2064800301018295
 20
161.5333941480868134
 30
0.0
 40
0.0040472143001789
 50
243.8091916412770104
 51
266.7255588962482875
  0
ARC
  5
3FC6B
  8
0
 10
2972.2063145532902126
 20
161.5305018075941064
 30
0.0
 40
0.0011501440385256
 50
266.7255588960916839
 51
330.7494554667949274
  0
ARC
  5
3FC6C
  8
0
 10
2972.2059729898910518
 20
161.5306930965529943
 30
0.0
 40
0.0015416245892418
 50
330.749455466897075
 51
3.4797602415286488
  0
ARC
  5
3FC6D
  8
0
 10
2972.1949660466780188
 20
161.5300237857346985
 30
0.0
 40
0.012568898770168
 50
3.4797602415237718
 51
21.4361260025629399
  0
ARC
  5
3FC6E
  8
0
 10
2972.1441290453840338
 20
161.5100639971410885
 30
0.0
 40
0.0671838588197298
 50
21.4361260025644498
 51
26.7237612895199703
  0
ARC
  5
3FC6F
  8
0
 10
2972.1560946336840061
 20
161.516088279918506
 30
0.0
 40
0.0537873187309023
 50
26.723761289490799
 51
35.7983066940133199
  0
ARC
  5
3FC70
  8
0
 10
2972.0052728398300133
 20
161.4365897996540014
 30
0.0
 40
0.223879719332646
 50
29.7110043989649206
 51
33.1279711491525291
  0
ARC
  5
3FC71
  8
0
 10
2971.6811839987722124
 20
161.2239612157628983
 30
0.0
 40
0.6114931381384189
 50
33.216812476079042
 51
43.9540692243115885
  0
ARC
  5
3FC72
  8
0
 10
2972.0496909777048131
 20
161.584092005965914
 30
0.0
 40
0.0963091617051646
 50
41.8815286559917013
 51
50.080962494956367
  0
ARC
  5
3FC73
  8
0
 10
2972.0896248588519484
 20
161.6319649092353927
 30
0.0
 40
0.0339673196830261
 50
49.9242790130744325
 51
59.91781741930496
  0
ARC
  5
3FC74
  8
0
 10
2972.1031245820740878
 20
161.6551960015409009
 30
0.0
 40
0.007098757760426
 50
60.21659926173146
 51
76.959606938748891
  0
ARC
  5
3FC75
  8
0
 10
2972.1043092787158457
 20
161.6600524992852002
 30
0.0
 40
0.0021010006063811
 50
78.5506407083661458
 51
97.6963586509500743
  0
ARC
  5
3FC76
  8
0
 10
2972.1041719544550688
 20
161.6610686578003993
 30
0.0
 40
0.0010756050335611
 50
97.6963586509237132
 51
124.7206397469506953
  0
ARC
  5
3FC77
  8
0
 10
2972.1041460900260063
 20
161.661105982044603
 30
0.0
 40
0.0010301950359142
 50
124.7206397470144026
 51
161.2422991454461965
  0
ARC
  5
3FC78
  8
0
 10
2972.1057098158539702
 20
161.6605749342508886
 30
0.0
 40
0.0026816338704305
 50
161.2422991454338899
 51
184.5556319701763073
  0
ARC
  5
3FC79
  8
0
 10
2972.1129671575818065
 20
161.661153190218414
 30
0.0
 40
0.0099619765074782
 50
184.555631970174602
 51
196.730451685507802
  0
ARC
  5
3FC7A
  8
0
 10
2972.1314238893751281
 20
161.6667011691868083
 30
0.0
 40
0.0292345222429828
 50
196.7304516855062104
 51
203.9658053196392018
  0
ARC
  5
3FC7B
  8
0
 10
2972.1817620738520418
 20
161.6890771848746908
 30
0.0
 40
0.0843218973350695
 50
203.9658053196407081
 51
209.0859703233122957
  0
ARC
  5
3FC7C
  8
0
 10
2972.3038350038978024
 20
161.7569829599889886
 30
0.0
 40
0.224010817954631
 50
209.0859703233122957
 51
210.864539406506708
  0
ARC
  5
3FC7D
  8
0
 10
2972.2977228712970827
 20
161.7533300599727966
 30
0.0
 40
0.2168902952591604
 50
210.864539406506708
 51
211.3238669278798056
  0
ARC
  5
3FC7E
  8
0
 10
2972.020478867366819
 20
161.5184291020576097
 30
0.0
 40
0.0697711467499409
 50
21.8637546214513598
 51
54.3223960451882917
  0
ARC
  5
3FC7F
  8
0
 10
2972.1387525993400232
 20
161.6111444494567024
 30
0.0
 40
0.0855437720558317
 50
204.9165761802233874
 51
231.2695600730714034
  0
LINE
  5
3FC80
  8
0
 10
2972.0705324742211815
 20
161.630327772670114
 30
0.0
 11
2972.0463563621210596
 21
161.609222161270111
 31
0.0
  0
ARC
  5
3FC81
  8
0
 10
2972.0547443074638068
 20
161.6005095973036134
 30
0.0
 40
0.0120940645754925
 50
133.9124859913023045
 51
206.7566580709444963
  0
ARC
  5
3FC82
  8
0
 10
2972.1707251187349357
 20
161.6557782148186959
 30
0.0
 40
0.1405676528061263
 50
205.5892040363740136
 51
216.7811863262240024
  0
ARC
  5
3FC83
  8
0
 10
2972.419800751143157
 20
161.8346370815399951
 30
0.0
 40
0.4471916622081318
 50
216.0273361551886069
 51
222.4522091356894862
  0
ARC
  5
3FC84
  8
0
 10
2972.1546606001788859
 20
161.592087436652406
 30
0.0
 40
0.0878455478717792
 50
222.4522091356894862
 51
232.1486445036107114
  0
ARC
  5
3FC85
  8
0
 10
2972.1088375896511025
 20
161.5331219761438888
 30
0.0
 40
0.0131684173240906
 50
232.1486445036111945
 51
270.1190464580772073
  0
ARC
  5
3FC86
  8
0
 10
2972.1088436131690287
 20
161.5302229253904045
 30
0.0
 40
0.0102693603128002
 50
270.1190464580772073
 51
305.7055768157001125
  0
LINE
  5
3FC87
  8
0
 10
2972.1148370198211524
 20
161.5218839303701088
 30
0.0
 11
2972.1418981059860016
 21
161.5408829841456964
 31
0.0
  0
ARC
  5
3FC88
  8
0
 10
2972.5245836843510006
 20
161.9006308961743059
 30
0.0
 40
0.5390698978825519
 50
223.0195697461599877
 51
223.9190048476758932
  0
ARC
  5
3FC89
  8
0
 10
2972.2511517246998665
 20
161.6373266988549062
 30
0.0
 40
0.1594725626911664
 50
223.9190048476758932
 51
230.2413493437111072
  0
ARC
  5
3FC8A
  8
0
 10
2972.1642307979091129
 20
161.5328477343136058
 30
0.0
 40
0.0235641319521953
 50
230.2413493437115051
 51
243.8091916413061142
  0
ARC
  5
3FC8B
  8
0
 10
2972.1556167739549892
 20
161.5153346344750105
 30
0.0
 40
0.0040472143001789
 50
243.8091916412770104
 51
266.7255588962482875
  0
ARC
  5
3FC8C
  8
0
 10
2972.1554512971429176
 20
161.5124422939823035
 30
0.0
 40
0.0011501440385256
 50
266.7255588960916839
 51
330.7494554667949274
  0
ARC
  5
3FC8D
  8
0
 10
2972.1551097337428473
 20
161.5126335829411914
 30
0.0
 40
0.0015416245892418
 50
330.749455466897075
 51
3.4797602415286488
  0
ARC
  5
3FC8E
  8
0
 10
2972.1441027905311785
 20
161.5119642721228956
 30
0.0
 40
0.012568898770168
 50
3.4797602415237718
 51
21.4361260025629399
  0
ARC
  5
3FC8F
  8
0
 10
2972.0932657892371935
 20
161.492004483529314
 30
0.0
 40
0.0671838588197298
 50
21.4361260025644498
 51
26.7237612895199703
  0
ARC
  5
3FC90
  8
0
 10
2972.1052313775380753
 20
161.4980287663067031
 30
0.0
 40
0.0537873187309023
 50
26.723761289490799
 51
35.7983066940133199
  0
ARC
  5
3FC91
  8
0
 10
2971.954409583683173
 20
161.4185302860421984
 30
0.0
 40
0.223879719332646
 50
29.7110043989649206
 51
33.1279711491525291
  0
ARC
  5
3FC92
  8
0
 10
2971.6303207426249173
 20
161.2059017021510954
 30
0.0
 40
0.6114931381384189
 50
33.216812476079042
 51
43.9540692243115885
  0
ARC
  5
3FC93
  8
0
 10
2971.9988277215579728
 20
161.5660324923541111
 30
0.0
 40
0.0963091617051646
 50
41.8815286559917013
 51
50.080962494956367
  0
ARC
  5
3FC94
  8
0
 10
2972.0387616027041986
 20
161.6139053956235898
 30
0.0
 40
0.0339673196830261
 50
49.9242790130744325
 51
59.91781741930496
  0
ARC
  5
3FC95
  8
0
 10
2972.0522613259267928
 20
161.6371364879292116
 30
0.0
 40
0.007098757760426
 50
60.21659926173146
 51
76.959606938748891
  0
ARC
  5
3FC96
  8
0
 10
2972.0534460225690054
 20
161.6419929856733972
 30
0.0
 40
0.0021010006063811
 50
78.5506407083661458
 51
97.6963586509500743
  0
ARC
  5
3FC97
  8
0
 10
2972.0533086983077737
 20
161.6430091441885963
 30
0.0
 40
0.0010756050335611
 50
97.6963586509237132
 51
124.7206397469506953
  0
ARC
  5
3FC98
  8
0
 10
2972.053282833879166
 20
161.6430464684328001
 30
0.0
 40
0.0010301950359142
 50
124.7206397470144026
 51
161.2422991454461965
  0
ARC
  5
3FC99
  8
0
 10
2972.0548465597071299
 20
161.6425154206391142
 30
0.0
 40
0.0026816338704305
 50
161.2422991454338899
 51
184.5556319701763073
  0
ARC
  5
3FC9A
  8
0
 10
2972.0621039014340568
 20
161.6430936766066111
 30
0.0
 40
0.0099619765074782
 50
184.555631970174602
 51
196.730451685507802
  0
ARC
  5
3FC9B
  8
0
 10
2972.080560633227833
 20
161.6486416555750907
 30
0.0
 40
0.0292345222429828
 50
196.7304516855062104
 51
203.9658053196392018
  0
ARC
  5
3FC9C
  8
0
 10
2972.130898817706111
 20
161.6710176712628879
 30
0.0
 40
0.0843218973350695
 50
203.9658053196407081
 51
209.0859703233122957
  0
ARC
  5
3FC9D
  8
0
 10
2972.2529717477509621
 20
161.7389234463772141
 30
0.0
 40
0.224010817954631
 50
209.0859703233122957
 51
210.864539406506708
  0
ARC
  5
3FC9E
  8
0
 10
2972.246859615151152
 20
161.7352705463609936
 30
0.0
 40
0.2168902952591604
 50
210.864539406506708
 51
211.3238669278798056
  0
ARC
  5
3FC9F
  8
0
 10
2971.9756868129220493
 20
161.5208066058769134
 30
0.0
 40
0.0697711467499409
 50
21.8637546214513598
 51
54.3223960451882917
  0
ARC
  5
3FCA0
  8
0
 10
2972.0939605448947987
 20
161.6135219532760061
 30
0.0
 40
0.0855437720558317
 50
204.9165761802233874
 51
231.2695600730714034
  0
LINE
  5
3FCA1
  8
0
 10
2972.0257404197750475
 20
161.6327052764893892
 30
0.0
 11
2972.0015643076749257
 21
161.6115996650893862
 31
0.0
  0
ARC
  5
3FCA2
  8
0
 10
2972.009952253019037
 20
161.6028871011228887
 30
0.0
 40
0.0120940645754925
 50
133.9124859913023045
 51
206.7566580709444963
  0
ARC
  5
3FCA3
  8
0
 10
2972.1259330642910754
 20
161.6581557186379996
 30
0.0
 40
0.1405676528061263
 50
205.5892040363740136
 51
216.7811863262240024
  0
ARC
  5
3FCA4
  8
0
 10
2972.3750086966979325
 20
161.8370145853592987
 30
0.0
 40
0.4471916622081318
 50
216.0273361551886069
 51
222.4522091356894862
  0
ARC
  5
3FCA5
  8
0
 10
2972.1098685457332067
 20
161.5944649404717097
 30
0.0
 40
0.0878455478717792
 50
222.4522091356894862
 51
232.1486445036107114
  0
ARC
  5
3FCA6
  8
0
 10
2972.0640455352049685
 20
161.5354994799633062
 30
0.0
 40
0.0131684173240906
 50
232.1486445036111945
 51
270.1190464580772073
  0
ARC
  5
3FCA7
  8
0
 10
2972.0640515587238042
 20
161.5326004292097082
 30
0.0
 40
0.0102693603128002
 50
270.1190464580772073
 51
305.7055768157001125
  0
LINE
  5
3FCA8
  8
0
 10
2972.0700449653759279
 20
161.5242614341894125
 30
0.0
 11
2972.0868722493651148
 21
161.5360755377130033
 31
0.0
  0
ARC
  5
3FCA9
  8
0
 10
2972.4797916299057761
 20
161.9030083999936949
 30
0.0
 40
0.5390698978825519
 50
223.0195697461599877
 51
223.9190048476758932
  0
ARC
  5
3FCAA
  8
0
 10
2972.2063596702560062
 20
161.6397042026742099
 30
0.0
 40
0.1594725626911664
 50
223.9190048476758932
 51
230.2413493437111072
  0
ARC
  5
3FCAB
  8
0
 10
2972.1194387434638884
 20
161.5352252381327958
 30
0.0
 40
0.0235641319521953
 50
230.2413493437115051
 51
243.8091916413061142
  0
ARC
  5
3FCAC
  8
0
 10
2972.1108247195102194
 20
161.5177121382943142
 30
0.0
 40
0.0040472143001789
 50
243.8091916412770104
 51
266.7255588962482875
  0
ARC
  5
3FCAD
  8
0
 10
2972.1106592426981479
 20
161.5148197978016071
 30
0.0
 40
0.0011501440385256
 50
266.7255588960916839
 51
330.7494554667949274
  0
ARC
  5
3FCAE
  8
0
 10
2972.1103176792989871
 20
161.5150110867606088
 30
0.0
 40
0.0015416245892418
 50
330.749455466897075
 51
3.4797602415286488
  0
ARC
  5
3FCAF
  8
0
 10
2972.099310736085954
 20
161.514341775942313
 30
0.0
 40
0.012568898770168
 50
3.4797602415237718
 51
21.4361260025629399
  0
ARC
  5
3FCB0
  8
0
 10
2972.0484737347928785
 20
161.4943819873485893
 30
0.0
 40
0.0671838588197298
 50
21.4361260025644498
 51
22.5026763374522183
  0
ARC
  5
3FCB1
  8
0
 10
2971.5855286881801476
 20
161.2082792059703991
 30
0.0
 40
0.6114931381384189
 50
41.0249915462689216
 51
43.9540692243115885
  0
ARC
  5
3FCB2
  8
0
 10
2971.9540356671132031
 20
161.5684099961733864
 30
0.0
 40
0.0963091617051646
 50
41.8815286559917013
 51
50.080962494956367
  0
ARC
  5
3FCB3
  8
0
 10
2971.9939695482598836
 20
161.6162828994428935
 30
0.0
 40
0.0339673196830261
 50
49.9242790130744325
 51
59.91781741930496
  0
ARC
  5
3FCB4
  8
0
 10
2972.007469271482023
 20
161.6395139917484869
 30
0.0
 40
0.007098757760426
 50
60.21659926173146
 51
76.959606938748891
  0
ARC
  5
3FCB5
  8
0
 10
2972.0086539681237809
 20
161.6443704894927009
 30
0.0
 40
0.0021010006063811
 50
78.5506407083661458
 51
97.6963586509500743
  0
ARC
  5
3FCB6
  8
0
 10
2972.008516643863004
 20
161.6453866480079
 30
0.0
 40
0.0010756050335611
 50
97.6963586509237132
 51
124.7206397469506953
  0
ARC
  5
3FCB7
  8
0
 10
2972.0084907794339415
 20
161.6454239722521038
 30
0.0
 40
0.0010301950359142
 50
124.7206397470144026
 51
161.2422991454461965
  0
ARC
  5
3FCB8
  8
0
 10
2972.0100545052619054
 20
161.6448929244583894
 30
0.0
 40
0.0026816338704305
 50
161.2422991454338899
 51
184.5556319701763073
  0
ARC
  5
3FCB9
  8
0
 10
2972.0173118469901965
 20
161.6454711804258864
 30
0.0
 40
0.0099619765074782
 50
184.555631970174602
 51
196.730451685507802
  0
ARC
  5
3FCBA
  8
0
 10
2972.0357685787830633
 20
161.6510191593943091
 30
0.0
 40
0.0292345222429828
 50
196.7304516855062104
 51
203.9658053196392018
  0
ARC
  5
3FCBB
  8
0
 10
2972.086106763259977
 20
161.6733951750821916
 30
0.0
 40
0.0843218973350695
 50
203.9658053196407081
 51
209.0859703233122957
  0
ARC
  5
3FCBC
  8
0
 10
2972.2081796933061923
 20
161.7413009501964893
 30
0.0
 40
0.224010817954631
 50
209.0859703233122957
 51
210.864539406506708
  0
ARC
  5
3FCBD
  8
0
 10
2972.202067560705018
 20
161.7376480501802973
 30
0.0
 40
0.2168902952591604
 50
210.864539406506708
 51
211.3238669278798056
  0
ARC
  5
3FCBE
  8
0
 10
2971.7549287912602267
 20
161.8442337201915109
 30
0.0
 40
0.0697711467499409
 50
21.8637546214513598
 51
54.3223960451882917
  0
ARC
  5
3FCBF
  8
0
 10
2971.8732025232329761
 20
161.9369490675906036
 30
0.0
 40
0.0855437720558317
 50
204.9165761802233874
 51
231.2695600730714034
  0
LINE
  5
3FCC0
  8
0
 10
2971.8049823981132249
 20
161.9561323908039867
 30
0.0
 11
2971.7808062860140126
 21
161.9350267794040121
 31
0.0
  0
ARC
  5
3FCC1
  8
0
 10
2971.7891942313572144
 20
161.9263142154374009
 30
0.0
 40
0.0120940645754925
 50
133.9124859913023045
 51
206.7566580709444963
  0
ARC
  5
3FCC2
  8
0
 10
2971.9051750426287981
 20
161.9815828329525971
 30
0.0
 40
0.1405676528061263
 50
205.5892040363740136
 51
216.7811863262240024
  0
ARC
  5
3FCC3
  8
0
 10
2972.1542506750361099
 20
162.1604416996738962
 30
0.0
 40
0.4471916622081318
 50
216.0273361551886069
 51
222.4522091356894862
  0
ARC
  5
3FCC4
  8
0
 10
2971.8891105240718389
 20
161.9178920547861935
 30
0.0
 40
0.0878455478717792
 50
222.4522091356894862
 51
232.1486445036107114
  0
ARC
  5
3FCC5
  8
0
 10
2971.8432875135440554
 20
161.8589265942777899
 30
0.0
 40
0.0131684173240906
 50
232.1486445036111945
 51
270.1190464580772073
  0
ARC
  5
3FCC6
  8
0
 10
2971.8432935370628911
 20
161.856027543524192
 30
0.0
 40
0.0102693603128002
 50
270.1190464580772073
 51
305.7055768157001125
  0
LINE
  5
3FCC7
  8
0
 10
2971.8492869437141053
 20
161.84768854850401
 30
0.0
 11
2971.8763480298789545
 21
161.8666876022795975
 31
0.0
  0
ARC
  5
3FCC8
  8
0
 10
2972.2590336082439535
 20
162.2264355143082071
 30
0.0
 40
0.5390698978825519
 50
223.0195697461599877
 51
223.9190048476758932
  0
ARC
  5
3FCC9
  8
0
 10
2971.9856016485941836
 20
161.9631313169886937
 30
0.0
 40
0.1594725626911664
 50
223.9190048476758932
 51
230.2413493437111072
  0
ARC
  5
3FCCA
  8
0
 10
2971.8986807218020658
 20
161.8586523524473932
 30
0.0
 40
0.0235641319521953
 50
230.2413493437115051
 51
243.8091916413061142
  0
ARC
  5
3FCCB
  8
0
 10
2971.8900666978479421
 20
161.8411392526089116
 30
0.0
 40
0.0040472143001789
 50
243.8091916412770104
 51
266.7255588962482875
  0
ARC
  5
3FCCC
  8
0
 10
2971.8899012210358705
 20
161.8382469121162046
 30
0.0
 40
0.0011501440385256
 50
266.7255588960916839
 51
330.7494554667949274
  0
ARC
  5
3FCCD
  8
0
 10
2971.8895596576371645
 20
161.8384382010750926
 30
0.0
 40
0.0015416245892418
 50
330.749455466897075
 51
3.4797602415286488
  0
ARC
  5
3FCCE
  8
0
 10
2971.8785527144241314
 20
161.8377688902567968
 30
0.0
 40
0.012568898770168
 50
3.4797602415237718
 51
21.4361260025629399
  0
ARC
  5
3FCCF
  8
0
 10
2971.8277157131301465
 20
161.8178091016631015
 30
0.0
 40
0.0671838588197298
 50
21.4361260025644498
 51
26.7237612895199703
  0
ARC
  5
3FCD0
  8
0
 10
2971.8396813014301188
 20
161.8238333844406043
 30
0.0
 40
0.0537873187309023
 50
26.723761289490799
 51
35.7983066940133199
  0
ARC
  5
3FCD1
  8
0
 10
2971.6888595075761259
 20
161.7443349041759859
 30
0.0
 40
0.223879719332646
 50
29.7110043989649206
 51
33.1279711491525291
  0
ARC
  5
3FCD2
  8
0
 10
2971.3647706665178703
 20
161.5317063202849965
 30
0.0
 40
0.6114931381384189
 50
33.216812476079042
 51
43.9540692243115885
  0
ARC
  5
3FCD3
  8
0
 10
2971.7332776454518353
 20
161.8918371104880123
 30
0.0
 40
0.0963091617051646
 50
41.8815286559917013
 51
50.080962494956367
  0
ARC
  5
3FCD4
  8
0
 10
2971.773211526598061
 20
161.9397100137574057
 30
0.0
 40
0.0339673196830261
 50
49.9242790130744325
 51
59.91781741930496
  0
ARC
  5
3FCD5
  8
0
 10
2971.7867112498202005
 20
161.9629411060629991
 30
0.0
 40
0.007098757760426
 50
60.21659926173146
 51
76.959606938748891
  0
ARC
  5
3FCD6
  8
0
 10
2971.7878959464619584
 20
161.9677976038072984
 30
0.0
 40
0.0021010006063811
 50
78.5506407083661458
 51
97.6963586509500743
  0
ARC
  5
3FCD7
  8
0
 10
2971.7877586222011814
 20
161.9688137623224975
 30
0.0
 40
0.0010756050335611
 50
97.6963586509237132
 51
124.7206397469506953
  0
ARC
  5
3FCD8
  8
0
 10
2971.7877327577721189
 20
161.9688510865667013
 30
0.0
 40
0.0010301950359142
 50
124.7206397470144026
 51
161.2422991454461965
  0
ARC
  5
3FCD9
  8
0
 10
2971.7892964836000829
 20
161.9683200387729869
 30
0.0
 40
0.0026816338704305
 50
161.2422991454338899
 51
184.5556319701763073
  0
ARC
  5
3FCDA
  8
0
 10
2971.7965538253279192
 20
161.9688982947405123
 30
0.0
 40
0.0099619765074782
 50
184.555631970174602
 51
196.730451685507802
  0
ARC
  5
3FCDB
  8
0
 10
2971.815010557120786
 20
161.9744462737089066
 30
0.0
 40
0.0292345222429828
 50
196.7304516855062104
 51
203.9658053196392018
  0
ARC
  5
3FCDC
  8
0
 10
2971.8653487415981544
 20
161.9968222893967038
 30
0.0
 40
0.0843218973350695
 50
203.9658053196407081
 51
209.0859703233122957
  0
ARC
  5
3FCDD
  8
0
 10
2971.987421671643915
 20
162.0647280645110868
 30
0.0
 40
0.224010817954631
 50
209.0859703233122957
 51
210.864539406506708
  0
ARC
  5
3FCDE
  8
0
 10
2971.9813095390431954
 20
162.0610751644948095
 30
0.0
 40
0.2168902952591604
 50
210.864539406506708
 51
211.3238669278798056
  0
ARC
  5
3FCDF
  8
0
 10
2971.7409722183588201
 20
161.7900691503915027
 30
0.0
 40
0.0697711467499409
 50
21.8637546214513598
 51
54.3223960451882917
  0
ARC
  5
3FCE0
  8
0
 10
2971.8592459503329337
 20
161.8827844977905954
 30
0.0
 40
0.0855437720558317
 50
204.9165761802233874
 51
231.2695600730714034
  0
LINE
  5
3FCE1
  8
0
 10
2971.7899675839221345
 20
161.9010439822421006
 30
0.0
 11
2971.7668497131139702
 21
161.880862209604004
 31
0.0
  0
ARC
  5
3FCE2
  8
0
 10
2971.7752376584571721
 20
161.8721496456373927
 30
0.0
 40
0.0120940645754925
 50
133.9124859913023045
 51
206.7566580709444963
  0
ARC
  5
3FCE3
  8
0
 10
2971.8912184697292105
 20
161.9274182631525036
 30
0.0
 40
0.1405676528061263
 50
205.5892040363740136
 51
216.7811863262240024
  0
ARC
  5
3FCE4
  8
0
 10
2972.1402941021360675
 20
162.106277129873888
 30
0.0
 40
0.4471916622081318
 50
216.0273361551886069
 51
222.4522091356894862
  0
ARC
  5
3FCE5
  8
0
 10
2971.8751539511717965
 20
161.8637274849862138
 30
0.0
 40
0.0878455478717792
 50
222.4522091356894862
 51
232.1486445036107114
  0
ARC
  5
3FCE6
  8
0
 10
2971.829330940644013
 20
161.8047620244778102
 30
0.0
 40
0.0131684173240906
 50
232.1486445036111945
 51
270.1190464580772073
  0
ARC
  5
3FCE7
  8
0
 10
2971.8293369641628487
 20
161.8018629737242122
 30
0.0
 40
0.0102693603128002
 50
270.1190464580772073
 51
305.7055768157001125
  0
LINE
  5
3FCE8
  8
0
 10
2971.8353303708140629
 20
161.7935239787040018
 30
0.0
 11
2971.8623914569789122
 21
161.8125230324795893
 31
0.0
  0
ARC
  5
3FCE9
  8
0
 10
2972.2450770353439111
 20
162.1722709445081989
 30
0.0
 40
0.5390698978825519
 50
223.0195697461599877
 51
223.9190048476758932
  0
ARC
  5
3FCEA
  8
0
 10
2971.9716450756941413
 20
161.908966747188714
 30
0.0
 40
0.1594725626911664
 50
223.9190048476758932
 51
230.2413493437111072
  0
ARC
  5
3FCEB
  8
0
 10
2971.8847241489020234
 20
161.8044877826474135
 30
0.0
 40
0.0235641319521953
 50
230.2413493437115051
 51
243.8091916413061142
  0
ARC
  5
3FCEC
  8
0
 10
2971.8761101249478997
 20
161.7869746828087898
 30
0.0
 40
0.0040472143001789
 50
243.8091916412770104
 51
266.7255588962482875
  0
ARC
  5
3FCED
  8
0
 10
2971.8759446481358282
 20
161.7840823423161964
 30
0.0
 40
0.0011501440385256
 50
266.7255588960916839
 51
330.7494554667949274
  0
ARC
  5
3FCEE
  8
0
 10
2971.8756030847362126
 20
161.7842736312751128
 30
0.0
 40
0.0015416245892418
 50
330.749455466897075
 51
3.4797602415286488
  0
ARC
  5
3FCEF
  8
0
 10
2971.864596141524089
 20
161.7836043204567886
 30
0.0
 40
0.012568898770168
 50
3.4797602415237718
 51
21.4361260025629399
  0
ARC
  5
3FCF0
  8
0
 10
2971.8137591402310136
 20
161.7636445318630933
 30
0.0
 40
0.0671838588197298
 50
21.4361260025644498
 51
26.7237612895199703
  0
ARC
  5
3FCF1
  8
0
 10
2971.8257247285300764
 20
161.7696688146405108
 30
0.0
 40
0.0537873187309023
 50
26.723761289490799
 51
35.7983066940133199
  0
ARC
  5
3FCF2
  8
0
 10
2971.6749029346760835
 20
161.6901703343760062
 30
0.0
 40
0.223879719332646
 50
29.7110043989649206
 51
33.1279711491525291
  0
ARC
  5
3FCF3
  8
0
 10
2971.3508140936178279
 20
161.4775417504849884
 30
0.0
 40
0.6114931381384189
 50
33.216812476079042
 51
37.1417745796604706
  0
ARC
  5
3FCF4
  8
0
 10
2971.7193210725517929
 20
161.8376725406880041
 30
0.0
 40
0.0963091617051646
 50
46.3444240910434431
 51
50.080962494956367
  0
ARC
  5
3FCF5
  8
0
 10
2971.7727546769201581
 20
161.9087765362629909
 30
0.0
 40
0.007098757760426
 50
60.21659926173146
 51
76.959606938748891
  0
ARC
  5
3FCF6
  8
0
 10
2971.773939373561916
 20
161.9136330340072902
 30
0.0
 40
0.0021010006063811
 50
78.5506407083661458
 51
97.6963586509500743
  0
ARC
  5
3FCF7
  8
0
 10
2971.773802049301139
 20
161.9146491925224893
 30
0.0
 40
0.0010756050335611
 50
97.6963586509237132
 51
124.7206397469506953
  0
ARC
  5
3FCF8
  8
0
 10
2971.7737761848720766
 20
161.9146865167666931
 30
0.0
 40
0.0010301950359142
 50
124.7206397470144026
 51
161.2422991454461965
  0
ARC
  5
3FCF9
  8
0
 10
2971.7753399107000405
 20
161.9141554689730071
 30
0.0
 40
0.0026816338704305
 50
161.2422991454338899
 51
184.5556319701763073
  0
ARC
  5
3FCFA
  8
0
 10
2971.7825972524278768
 20
161.9147337249405041
 30
0.0
 40
0.0099619765074782
 50
184.555631970174602
 51
196.730451685507802
  0
ARC
  5
3FCFB
  8
0
 10
2971.8010539842211983
 20
161.9202817039088984
 30
0.0
 40
0.0292345222429828
 50
196.7304516855062104
 51
203.9658053196392018
  0
ARC
  5
3FCFC
  8
0
 10
2971.8513921686981121
 20
161.9426577195966956
 30
0.0
 40
0.0843218973350695
 50
203.9658053196407081
 51
209.0859703233122957
  0
ARC
  5
3FCFD
  8
0
 10
2971.9734650987438727
 20
162.0105634947111071
 30
0.0
 40
0.224010817954631
 50
209.0859703233122957
 51
210.864539406506708
  0
ARC
  5
3FCFE
  8
0
 10
2971.967352966143153
 20
162.0069105946948866
 30
0.0
 40
0.2168902952591604
 50
210.864539406506708
 51
211.3238669278798056
  0
ARC
  5
3FCFF
  8
0
 10
2971.5225645784598782
 20
162.0718830698914985
 30
0.0
 40
0.0697711467499409
 50
21.8637546214513598
 51
54.3223960451882917
  0
ARC
  5
3FD00
  8
0
 10
2971.6408383104330824
 20
162.1645984172905912
 30
0.0
 40
0.0855437720558317
 50
204.9165761802233874
 51
231.2695600730714034
  0
LINE
  5
3FD01
  8
0
 10
2971.5726181853137859
 20
162.1837817405040028
 30
0.0
 11
2971.5484420732141189
 21
162.1626761291039998
 31
0.0
  0
ARC
  5
3FD02
  8
0
 10
2971.5568300185577755
 20
162.1539635651373885
 30
0.0
 40
0.0120940645754925
 50
133.9124859913023045
 51
206.7566580709444963
  0
ARC
  5
3FD03
  8
0
 10
2971.6728108298289044
 20
162.2092321826524994
 30
0.0
 40
0.1405676528061263
 50
205.5892040363740136
 51
216.7811863262240024
  0
ARC
  5
3FD04
  8
0
 10
2971.9218864622362162
 20
162.3880910493739123
 30
0.0
 40
0.4471916622081318
 50
216.0273361551886069
 51
222.4522091356894862
  0
ARC
  5
3FD05
  8
0
 10
2971.6567463112719452
 20
162.1455414044862096
 30
0.0
 40
0.0878455478717792
 50
222.4522091356894862
 51
232.1486445036107114
  0
ARC
  5
3FD06
  8
0
 10
2971.6109233007441617
 20
162.086575943977806
 30
0.0
 40
0.0131684173240906
 50
232.1486445036111945
 51
270.1190464580772073
  0
ARC
  5
3FD07
  8
0
 10
2971.6109293242620879
 20
162.083676893224208
 30
0.0
 40
0.0102693603128002
 50
270.1190464580772073
 51
305.7055768157001125
  0
LINE
  5
3FD08
  8
0
 10
2971.6169227309142116
 20
162.0753378982039976
 30
0.0
 11
2971.6439838170790608
 21
162.0943369519796136
 31
0.0
  0
ARC
  5
3FD09
  8
0
 10
2972.0266693954440598
 20
162.4540848640081947
 30
0.0
 40
0.5390698978825519
 50
223.0195697461599877
 51
223.9190048476758932
  0
ARC
  5
3FD0A
  8
0
 10
2971.7532374357929257
 20
162.1907806666887097
 30
0.0
 40
0.1594725626911664
 50
223.9190048476758932
 51
230.2413493437111072
  0
ARC
  5
3FD0B
  8
0
 10
2971.6663165090021721
 20
162.0863017021474093
 30
0.0
 40
0.0235641319521953
 50
230.2413493437115051
 51
243.8091916413061142
  0
ARC
  5
3FD0C
  8
0
 10
2971.6577024850480484
 20
162.068788602308814
 30
0.0
 40
0.0040472143001789
 50
243.8091916412770104
 51
266.7255588962482875
  0
ARC
  5
3FD0D
  8
0
 10
2971.6575370082359768
 20
162.0658962618161922
 30
0.0
 40
0.0011501440385256
 50
266.7255588960916839
 51
330.7494554667949274
  0
ARC
  5
3FD0E
  8
0
 10
2971.657195444836816
 20
162.0660875507751086
 30
0.0
 40
0.0015416245892418
 50
330.749455466897075
 51
3.4797602415286488
  0
ARC
  5
3FD0F
  8
0
 10
2971.6461885016237829
 20
162.0654182399568128
 30
0.0
 40
0.012568898770168
 50
3.4797602415237718
 51
21.4361260025629399
  0
ARC
  5
3FD10
  8
0
 10
2971.595351500329798
 20
162.0454584513630891
 30
0.0
 40
0.0671838588197298
 50
21.4361260025644498
 51
26.7237612895199703
  0
ARC
  5
3FD11
  8
0
 10
2971.6073170886311345
 20
162.0514827341405066
 30
0.0
 40
0.0537873187309023
 50
26.723761289490799
 51
35.7983066940133199
  0
ARC
  5
3FD12
  8
0
 10
2971.4564952947771417
 20
161.971984253876002
 30
0.0
 40
0.223879719332646
 50
29.7110043989649206
 51
33.1279711491525291
  0
ARC
  5
3FD13
  8
0
 10
2971.1324064537179765
 20
161.7593556699850126
 30
0.0
 40
0.6114931381384189
 50
33.216812476079042
 51
43.9540692243115885
  0
ARC
  5
3FD14
  8
0
 10
2971.5009134326510321
 20
162.1194864601879999
 30
0.0
 40
0.0963091617051646
 50
41.8815286559917013
 51
50.080962494956367
  0
ARC
  5
3FD15
  8
0
 10
2971.5408473137968031
 20
162.1673593634573933
 30
0.0
 40
0.0339673196830261
 50
49.9242790130744325
 51
59.91781741930496
  0
ARC
  5
3FD16
  8
0
 10
2971.5543470370212162
 20
162.1905904557629867
 30
0.0
 40
0.007098757760426
 50
60.21659926173146
 51
76.959606938748891
  0
ARC
  5
3FD17
  8
0
 10
2971.5555317336620647
 20
162.195446953507286
 30
0.0
 40
0.0021010006063811
 50
78.5506407083661458
 51
97.6963586509500743
  0
ARC
  5
3FD18
  8
0
 10
2971.555394409400833
 20
162.1964631120225135
 30
0.0
 40
0.0010756050335611
 50
97.6963586509237132
 51
124.7206397469506953
  0
ARC
  5
3FD19
  8
0
 10
2971.5553685449731347
 20
162.1965004362666889
 30
0.0
 40
0.0010301950359142
 50
124.7206397470144026
 51
161.2422991454461965
  0
ARC
  5
3FD1A
  8
0
 10
2971.5569322708001891
 20
162.1959693884730029
 30
0.0
 40
0.0026816338704305
 50
161.2422991454338899
 51
184.5556319701763073
  0
ARC
  5
3FD1B
  8
0
 10
2971.5641896125280255
 20
162.1965476444404999
 30
0.0
 40
0.0099619765074782
 50
184.555631970174602
 51
196.730451685507802
  0
ARC
  5
3FD1C
  8
0
 10
2971.5826463443208922
 20
162.2020956234088942
 30
0.0
 40
0.0292345222429828
 50
196.7304516855062104
 51
203.9658053196392018
  0
ARC
  5
3FD1D
  8
0
 10
2971.6329845287991702
 20
162.2244716390966914
 30
0.0
 40
0.0843218973350695
 50
203.9658053196407081
 51
209.0859703233122957
  0
ARC
  5
3FD1E
  8
0
 10
2971.7550574588440213
 20
162.2923774142111029
 30
0.0
 40
0.224010817954631
 50
209.0859703233122957
 51
210.864539406506708
  0
ARC
  5
3FD1F
  8
0
 10
2971.7489453262442112
 20
162.2887245141949109
 30
0.0
 40
0.2168902952591604
 50
210.864539406506708
 51
211.3238669278798056
  0
ARC
  5
3FD20
  8
0
 10
2971.3168281630100864
 20
162.360959473041504
 30
0.0
 40
0.0697711467499409
 50
21.8637546214513598
 51
54.3223960451882917
  0
ARC
  5
3FD21
  8
0
 10
2971.4351018949828358
 20
162.4536748204405967
 30
0.0
 40
0.0855437720558317
 50
204.9165761802233874
 51
231.2695600730714034
  0
LINE
  5
3FD22
  8
0
 10
2971.3668817698639941
 20
162.4728581436540082
 30
0.0
 11
2971.3427056577638723
 21
162.4517525322540052
 31
0.0
  0
ARC
  5
3FD23
  8
0
 10
2971.3510936031070742
 20
162.4430399682875077
 30
0.0
 40
0.0120940645754925
 50
133.9124859913023045
 51
206.7566580709444963
  0
ARC
  5
3FD24
  8
0
 10
2971.4670744143791126
 20
162.4983085858025902
 30
0.0
 40
0.1405676528061263
 50
205.5892040363740136
 51
216.7811863262240024
  0
ARC
  5
3FD25
  8
0
 10
2971.7161500467859696
 20
162.6771674525238893
 30
0.0
 40
0.4471916622081318
 50
216.0273361551886069
 51
222.4522091356894862
  0
ARC
  5
3FD26
  8
0
 10
2971.4510098958221533
 20
162.4346178076361866
 30
0.0
 40
0.0878455478717792
 50
222.4522091356894862
 51
232.1486445036107114
  0
ARC
  5
3FD27
  8
0
 10
2971.4051868852939151
 20
162.3756523471278115
 30
0.0
 40
0.0131684173240906
 50
232.1486445036111945
 51
270.1190464580772073
  0
ARC
  5
3FD28
  8
0
 10
2971.4051929088132056
 20
162.3727532963742135
 30
0.0
 40
0.0102693603128002
 50
270.1190464580772073
 51
305.7055768157001125
  0
LINE
  5
3FD29
  8
0
 10
2971.411186315463965
 20
162.3644143013540031
 30
0.0
 11
2971.4382474016288143
 21
162.3834133551295906
 31
0.0
  0
ARC
  5
3FD2A
  8
0
 10
2971.8209329799951774
 20
162.7431612671582002
 30
0.0
 40
0.5390698978825519
 50
223.0195697461599877
 51
223.9190048476758932
  0
ARC
  5
3FD2B
  8
0
 10
2971.5475010203440434
 20
162.4798570698388005
 30
0.0
 40
0.1594725626911664
 50
223.9190048476758932
 51
230.2413493437111072
  0
ARC
  5
3FD2C
  8
0
 10
2971.4605800935519255
 20
162.3753781052973864
 30
0.0
 40
0.0235641319521953
 50
230.2413493437115051
 51
243.8091916413061142
  0
ARC
  5
3FD2D
  8
0
 10
2971.4519660695978018
 20
162.3578650054589048
 30
0.0
 40
0.0040472143001789
 50
243.8091916412770104
 51
266.7255588962482875
  0
ARC
  5
3FD2E
  8
0
 10
2971.451800592786185
 20
162.3549726649661977
 30
0.0
 40
0.0011501440385256
 50
266.7255588960916839
 51
330.7494554667949274
  0
ARC
  5
3FD2F
  8
0
 10
2971.4514590293870242
 20
162.3551639539251141
 30
0.0
 40
0.0015416245892418
 50
330.749455466897075
 51
3.4797602415286488
  0
ARC
  5
3FD30
  8
0
 10
2971.4404520861739911
 20
162.3544946431067899
 30
0.0
 40
0.012568898770168
 50
3.4797602415237718
 51
21.4361260025629399
  0
ARC
  5
3FD31
  8
0
 10
2971.3896150848809157
 20
162.3345348545132083
 30
0.0
 40
0.0671838588197298
 50
21.4361260025644498
 51
26.7237612895199703
  0
ARC
  5
3FD32
  8
0
 10
2971.401580673180888
 20
162.3405591372905974
 30
0.0
 40
0.0537873187309023
 50
26.723761289490799
 51
35.7983066940133199
  0
ARC
  5
3FD33
  8
0
 10
2971.2507588793268951
 20
162.2610606570260074
 30
0.0
 40
0.223879719332646
 50
29.7110043989649206
 51
33.1279711491525291
  0
ARC
  5
3FD34
  8
0
 10
2970.9266700382681847
 20
162.0484320731349897
 30
0.0
 40
0.6114931381384189
 50
33.216812476079042
 51
43.9540692243115885
  0
ARC
  5
3FD35
  8
0
 10
2971.2951770172007855
 20
162.4085628633380054
 30
0.0
 40
0.0963091617051646
 50
41.8815286559917013
 51
50.080962494956367
  0
ARC
  5
3FD36
  8
0
 10
2971.3351108983479207
 20
162.4564357666075125
 30
0.0
 40
0.0339673196830261
 50
49.9242790130744325
 51
59.91781741930496
  0
ARC
  5
3FD37
  8
0
 10
2971.3486106215700602
 20
162.4796668589129922
 30
0.0
 40
0.007098757760426
 50
60.21659926173146
 51
76.959606938748891
  0
ARC
  5
3FD38
  8
0
 10
2971.3497953182131823
 20
162.4845233566572915
 30
0.0
 40
0.0021010006063811
 50
78.5506407083661458
 51
97.6963586509500743
  0
ARC
  5
3FD39
  8
0
 10
2971.3496579939510411
 20
162.4855395151724906
 30
0.0
 40
0.0010756050335611
 50
97.6963586509237132
 51
124.7206397469506953
  0
ARC
  5
3FD3A
  8
0
 10
2971.3496321295219786
 20
162.4855768394166944
 30
0.0
 40
0.0010301950359142
 50
124.7206397470144026
 51
161.2422991454461965
  0
ARC
  5
3FD3B
  8
0
 10
2971.3511958553499426
 20
162.4850457916230084
 30
0.0
 40
0.0026816338704305
 50
161.2422991454338899
 51
184.5556319701763073
  0
ARC
  5
3FD3C
  8
0
 10
2971.3584531970777789
 20
162.4856240475905054
 30
0.0
 40
0.0099619765074782
 50
184.555631970174602
 51
196.730451685507802
  0
ARC
  5
3FD3D
  8
0
 10
2971.3769099288711004
 20
162.4911720265588997
 30
0.0
 40
0.0292345222429828
 50
196.7304516855062104
 51
203.9658053196392018
  0
ARC
  5
3FD3E
  8
0
 10
2971.4272481133480142
 20
162.5135480422468106
 30
0.0
 40
0.0843218973350695
 50
203.9658053196407081
 51
209.0859703233122957
  0
ARC
  5
3FD3F
  8
0
 10
2971.5493210433937747
 20
162.5814538173611083
 30
0.0
 40
0.224010817954631
 50
209.0859703233122957
 51
210.864539406506708
  0
ARC
  5
3FD40
  8
0
 10
2971.5432089107939646
 20
162.5778009173448879
 30
0.0
 40
0.2168902952591604
 50
210.864539406506708
 51
211.3238669278798056
  0
ARC
  5
3FD41
  8
0
 10
2971.7664273730251807
 20
161.8957587377549885
 30
0.0
 40
0.0215619838984234
 50
47.0345640177687372
 51
62.8075324146230329
  0
LINE
  5
3FD42
  8
0
 10
2971.1982008410909657
 20
162.6484232092234095
 30
0.0
 11
2971.1765847389078772
 21
162.631048248468602
 31
0.0
  0
ARC
  5
3FD43
  8
0
 10
2971.1828894242171373
 20
162.6232046208585871
 30
0.0
 40
0.0100633767167087
 50
128.7922207717778917
 51
208.8307217210565057
  0
ARC
  5
3FD44
  8
0
 10
2971.5090627379631769
 20
162.802747735057892
 30
0.0
 40
0.3823868388515219
 50
208.8307217210565057
 51
222.6392586047130067
  0
ARC
  5
3FD45
  8
0
 10
2971.2360418373091306
 20
162.5495430085051112
 30
0.0
 40
0.010115158163694
 50
215.1018661675219903
 51
302.6095557939382275
  0
LINE
  5
3FD46
  8
0
 10
2971.2414930101608661
 20
162.5410223782924959
 30
0.0
 11
2971.2427828958520877
 21
162.5418439728393025
 31
0.0
  0
ARC
  5
3FD47
  8
0
 10
2971.6029071044708871
 20
162.9282173107579865
 30
0.0
 40
0.4938574729955605
 50
212.018058734377604
 51
214.6735931457058939
  0
ARC
  5
3FD48
  8
0
 10
2971.0648559314968224
 20
162.558727728747499
 30
0.0
 40
0.1607051465651159
 50
33.9270531459546021
 51
42.0577391245449519
  0
ARC
  5
3FD49
  8
0
 10
2968.3700392599289444
 20
160.5318759776031072
 30
0.0
 40
3.5324594991084339
 50
35.4940143904910173
 51
36.810546744028052
  0
LINE
  5
3FD4A
  8
0
 10
2971.2567367046599429
 20
162.5917441191924979
 30
0.0
 11
2971.2460836378618296
 21
162.582885204545903
 31
0.0
  0
LINE
  5
3FD4B
  8
0
 10
2971.2460836378618296
 20
162.582885204545903
 30
0.0
 11
2971.2340173260681695
 21
162.5730745933466892
 31
0.0
  0
ARC
  5
3FD4C
  8
0
 10
2971.2405164173419507
 20
162.5650812012841016
 30
0.0
 40
0.010302063096895
 50
129.1131110939282109
 51
205.0439976800350053
  0
ARC
  5
3FD4D
  8
0
 10
2971.3816458877531659
 20
162.6401967551682901
 30
0.0
 40
0.1701635319531878
 50
207.8436169730306062
 51
215.3089018944756958
  0
ARC
  5
3FD4E
  8
0
 10
2971.7623929458350176
 20
162.8932230282331943
 30
0.0
 40
0.6272636861622721
 50
214.0679790627908972
 51
220.4649127804831892
  0
ARC
  5
3FD4F
  8
0
 10
2971.2937715926991586
 20
162.4924884075253999
 30
0.0
 40
0.0106918171888955
 50
216.4243706557946894
 51
302.6972344755363906
  0
LINE
  5
3FD50
  8
0
 10
2971.2995473091609711
 20
162.4834908492925081
 30
0.0
 11
2971.3246842393900806
 21
162.4999323667383919
 31
0.0
  0
ARC
  5
3FD51
  8
0
 10
2972.046393885425914
 20
163.0851065602828953
 30
0.0
 40
0.9357846321268773
 50
218.9940225162968943
 51
220.5768219758286079
  0
ARC
  5
3FD52
  8
0
 10
2971.3591532780651505
 20
162.496552198530793
 30
0.0
 40
0.0309664795996532
 50
220.5768219758286079
 51
236.5553347369155972
  0
ARC
  5
3FD53
  8
0
 10
2971.1678236836519318
 20
162.3867073758385118
 30
0.0
 40
0.1934543083912888
 50
25.7370164191108515
 51
35.8225013659681721
  0
ARC
  5
3FD54
  8
0
 10
2970.1346329894390692
 20
161.6902776398171113
 30
0.0
 40
1.4393604694976541
 50
34.2295242538547271
 51
38.7774133138206025
  0
ARC
  5
3FD55
  8
0
 10
2971.200191433315922
 20
162.5523721095603094
 30
0.0
 40
0.0689022703102814
 50
34.8491788098107378
 51
52.2514691018585467
  0
ARC
  5
3FD56
  8
0
 10
2971.322828051776014
 20
162.6390616431150136
 30
0.0
 40
0.0866622656677103
 50
201.817494419452089
 51
215.8581658172593905
  0
ARC
  5
3FD57
  8
0
 10
2980.6792958360588273
 20
169.4137399272640039
 30
0.0
 40
11.6500000001209791
 50
216.4623754566520972
 51
216.7155462856939039
  0
ARC
  5
3FD58
  8
0
 10
2980.6792958355458723
 20
169.4137399268749107
 30
0.0
 40
11.6499999994778403
 50
217.2473732405038049
 51
217.5906176876304983
  0
LINE
  5
3FD59
  8
0
 10
2971.4509488963281001
 20
162.3096488495615972
 30
0.0
 11
2971.4298697322610678
 21
162.2914082213924871
 31
0.0
  0
ARC
  5
3FD5A
  8
0
 10
2971.4365149398781796
 20
162.2837289123073958
 30
0.0
 40
0.0101553223631881
 50
130.8709222644872909
 51
216.9281491978861141
  0
ARC
  5
3FD5B
  8
0
 10
2973.5789779681108485
 20
163.8939822228346088
 30
0.0
 40
2.6902791164089299
 50
216.9281491978861141
 51
218.8589461722150986
  0
ARC
  5
3FD5C
  8
0
 10
2971.4923270509548274
 20
162.2127343587592918
 30
0.0
 40
0.0105950994905936
 50
218.858946172213308
 51
302.419012149736318
  0
LINE
  5
3FD5D
  8
0
 10
2971.4980071572599627
 20
162.2037905046925061
 30
0.0
 11
2971.5212723279778402
 21
162.2200025389294069
 31
0.0
  0
ARC
  5
3FD5E
  8
0
 10
2972.0006573916598427
 20
162.6022145275813955
 30
0.0
 40
0.6160823734926844
 50
218.5473396270575961
 51
221.9690838993626016
  0
ARC
  5
3FD5F
  8
0
 10
2971.2248596947861188
 20
161.9852319227063902
 30
0.0
 40
0.3781239100581652
 50
32.8283623638037909
 51
38.3806268489768314
  0
ARC
  5
3FD60
  8
0
 10
2969.0073119348580803
 20
160.3203214739440909
 30
0.0
 40
3.1509974622078549
 50
37.0766179442061485
 51
39.1485068696890721
  0
ARC
  5
3FD61
  8
0
 10
2971.3429079755610474
 20
162.2257092455238023
 30
0.0
 40
0.1368162917417806
 50
37.8444979649197535
 51
45.1264120129547806
  0
ARC
  5
3FD62
  8
0
 10
2971.5419916293922142
 20
162.3815936455110887
 30
0.0
 40
0.1182780103787046
 50
209.8817452415933928
 51
218.3652856653023946
  0
ARC
  5
3FD63
  8
0
 10
2993.5667615829020178
 20
179.5452593718524099
 30
0.0
 40
28.0431217321157185
 50
218.1628130106612105
 51
218.288701662504991
  0
ARC
  5
3FD64
  8
0
 10
2987.7158015227969372
 20
175.2368827532133082
 30
0.0
 40
20.7832447964337312
 50
219.2697385956159053
 51
219.9424817871106939
  0
LINE
  5
3FD65
  8
0
 10
2971.7629844304210565
 20
161.9158133109461062
 30
0.0
 11
2971.7414900612488964
 21
161.8997438354755047
 31
0.0
  0
ARC
  5
3FD66
  8
0
 10
2971.7355023023528702
 20
161.9077530017023889
 30
0.0
 40
0.010000000012385
 50
219.7815732145770937
 51
306.7822773573165023
  0
LINE
  5
3FD67
  8
0
 10
2971.7278174088610285
 20
161.9013543758925096
 30
0.0
 11
2971.6695768206200228
 21
161.9713026321076086
 31
0.0
  0
ARC
  5
3FD68
  8
0
 10
2971.6772619607049819
 20
161.9777014632365137
 30
0.0
 40
0.0100003208921353
 50
132.7904400159403053
 51
219.7815732145764969
  0
LINE
  5
3FD69
  8
0
 10
2971.6704685540198625
 20
161.9850401309334984
 30
0.0
 11
2971.6902742124520955
 21
162.0033742343331937
 31
0.0
  0
ARC
  5
3FD6A
  8
0
 10
2984.4982383897340696
 20
172.7550418654597877
 30
0.0
 40
16.7242724182948308
 50
220.999827635668197
 51
221.7244828653412014
  0
ARC
  5
3FD6B
  8
0
 10
2959.8198355459780942
 20
149.5812926297624017
 30
0.0
 40
17.1351073222182997
 50
42.7576449663403082
 51
44.1669234846631085
  0
ARC
  5
3FD6C
  8
0
 10
2973.4704793573819188
 20
160.2173161444881089
 30
0.0
 40
0.0697711467499409
 50
35.6776039514490222
 51
68.1362453751814883
  0
ARC
  5
3FD6D
  8
0
 10
2973.5631947047882022
 20
160.3355898764557992
 30
0.0
 40
0.0855437720558317
 50
218.7304399235748917
 51
245.0834238164262047
  0
LINE
  5
3FD6E
  8
0
 10
2973.5823780279970379
 20
160.2673697513355933
 30
0.0
 11
2973.5612724165957843
 21
160.2431936392368073
 31
0.0
  0
ARC
  5
3FD6F
  8
0
 10
2973.552559852630111
 20
160.2515815845808049
 30
0.0
 40
0.0120940645754925
 50
243.2433419256803973
 51
316.0875140053382211
  0
ARC
  5
3FD70
  8
0
 10
2973.6078284701520715
 20
160.3675623958490917
 30
0.0
 40
0.1405676528061263
 50
233.2188136703869077
 51
244.4107959602800975
  0
ARC
  5
3FD71
  8
0
 10
2973.7866873368880078
 20
160.6166380282460864
 30
0.0
 40
0.4471916622081318
 50
227.5477908609402959
 51
233.972663841447087
  0
ARC
  5
3FD72
  8
0
 10
2973.5441376919839058
 20
160.3514978772957136
 30
0.0
 40
0.0878455478717792
 50
217.8513554930401881
 51
227.5477908609402959
  0
ARC
  5
3FD73
  8
0
 10
2973.4851722314738254
 20
160.3056748667709996
 30
0.0
 40
0.0131684173240906
 50
179.8809535385518075
 51
217.8513554930381986
  0
ARC
  5
3FD74
  8
0
 10
2973.4822731807189484
 20
160.3056808902902048
 30
0.0
 40
0.0102693603128002
 50
144.2944231809204041
 51
179.8809535385501874
  0
LINE
  5
3FD75
  8
0
 10
2973.473934185699818
 20
160.3116742969419874
 30
0.0
 11
2973.4929332394772246
 21
160.3387353831060977
 31
0.0
  0
ARC
  5
3FD76
  8
0
 10
2973.8526811515280315
 20
160.7214209614502067
 30
0.0
 40
0.5390698978825519
 50
226.0809951489623018
 51
226.9804302504531961
  0
ARC
  5
3FD77
  8
0
 10
2973.5893769541930851
 20
160.4479890018149888
 30
0.0
 40
0.1594725626911664
 50
219.7586506529057999
 51
226.0809951489623018
  0
ARC
  5
3FD78
  8
0
 10
2973.484897989646015
 20
160.3610680750296069
 30
0.0
 40
0.0235641319521953
 50
206.1908083553128108
 51
219.7586506529052031
  0
ARC
  5
3FD79
  8
0
 10
2973.4673848898069082
 20
160.3524540510765917
 30
0.0
 40
0.0040472143001789
 50
183.2744411003866105
 51
206.1908083553616109
  0
ARC
  5
3FD7A
  8
0
 10
2973.4644925493139453
 20
160.3522885742648043
 30
0.0
 40
0.0011501440385256
 50
119.250544529827593
 51
183.2744411005452037
  0
ARC
  5
3FD7B
  8
0
 10
2973.4646838382727765
 20
160.3519470108653877
 30
0.0
 40
0.0015416245892418
 50
86.5202397551138631
 51
119.2505445297378941
  0
ARC
  5
3FD7C
  8
0
 10
2973.4640145274552196
 20
160.3409400676526957
 30
0.0
 40
0.012568898770168
 50
68.5638739940748252
 51
86.5202397551138631
  0
ARC
  5
3FD7D
  8
0
 10
2973.4440547388580853
 20
160.2901030663603876
 30
0.0
 40
0.0671838588197298
 50
63.2762387071336789
 51
68.5638739940748252
  0
ARC
  5
3FD7E
  8
0
 10
2973.4500790216361565
 20
160.3020686546601894
 30
0.0
 40
0.0537873187309023
 50
54.2016933026115666
 51
63.2762387071336789
  0
ARC
  5
3FD7F
  8
0
 10
2973.3705805413628696
 20
160.1512468608106019
 30
0.0
 40
0.223879719332646
 50
56.8720288474820705
 51
60.2889955976679204
  0
ARC
  5
3FD80
  8
0
 10
2973.1579519574520418
 20
159.827158019764596
 30
0.0
 40
0.6114931381384189
 50
46.0459307723313174
 51
56.7831875205497312
  0
ARC
  5
3FD81
  8
0
 10
2973.5180827476769991
 20
160.1956649986769889
 30
0.0
 40
0.0963091617051646
 50
39.9190375016758168
 51
48.1184713406409799
  0
ARC
  5
3FD82
  8
0
 10
2973.5659556509490358
 20
160.2355988798202873
 30
0.0
 40
0.0339673196830261
 50
30.08218257733256
 51
40.0757209835483508
  0
ARC
  5
3FD83
  8
0
 10
2973.5891867432560502
 20
160.2490986030416025
 30
0.0
 40
0.007098757760426
 50
13.04039305786781
 51
29.783400734919649
  0
ARC
  5
3FD84
  8
0
 10
2973.5940432409997811
 20
160.2502832996833035
 30
0.0
 40
0.0021010006063811
 50
352.3036413456792957
 51
11.44935928826742
  0
ARC
  5
3FD85
  8
0
 10
2973.5950593995148665
 20
160.2501459754221003
 30
0.0
 40
0.0010756050335611
 50
325.2793602496810763
 51
352.3036413457172102
  0
ARC
  5
3FD86
  8
0
 10
2973.5950967237590703
 20
160.2501201109932083
 30
0.0
 40
0.0010301950359142
 50
288.7577008511868257
 51
325.2793602495958112
  0
ARC
  5
3FD87
  8
0
 10
2973.5945656759649864
 20
160.2516838368212007
 30
0.0
 40
0.0026816338704305
 50
265.4443680264599834
 51
288.7577008512142811
  0
ARC
  5
3FD88
  8
0
 10
2973.5951439319342171
 20
160.258941178548497
 30
0.0
 40
0.0099619765074782
 50
253.2695483111220938
 51
265.4443680264599834
  0
ARC
  5
3FD89
  8
0
 10
2973.6006919109031514
 20
160.2773979103417048
 30
0.0
 40
0.0292345222429828
 50
246.0341946770049901
 51
253.2695483111220938
  0
ARC
  5
3FD8A
  8
0
 10
2973.6230679265941035
 20
160.3277360948175954
 30
0.0
 40
0.0843218973350695
 50
240.9140296733137063
 51
246.0341946770049901
  0
ARC
  5
3FD8B
  8
0
 10
2973.6909737017149382
 20
160.4498090248594906
 30
0.0
 40
0.224010817954631
 50
239.1354605901134107
 51
240.9140296733137063
  0
ARC
  5
3FD8C
  8
0
 10
2973.6873208016982062
 20
160.4436968922589983
 30
0.0
 40
0.2168902952591604
 50
238.6761330687652105
 51
239.1354605901134107
  0
ARC
  5
3FD8D
  8
0
 10
2973.2646633935200953
 20
160.4229284172982943
 30
0.0
 40
0.0697711467499409
 50
35.6776039514490222
 51
68.1362453751814883
  0
ARC
  5
3FD8E
  8
0
 10
2973.3573787409259239
 20
160.5412021492660131
 30
0.0
 40
0.0855437720558317
 50
218.7304399235748917
 51
245.0834238164262047
  0
LINE
  5
3FD8F
  8
0
 10
2973.3765620641352143
 20
160.4729820241456935
 30
0.0
 11
2973.3554564527330513
 21
160.4488059120469927
 31
0.0
  0
ARC
  5
3FD90
  8
0
 10
2973.3467438887678327
 20
160.4571938573909904
 30
0.0
 40
0.0120940645754925
 50
243.2433419256803973
 51
316.0875140053382211
  0
ARC
  5
3FD91
  8
0
 10
2973.4020125062888837
 20
160.5731746686593056
 30
0.0
 40
0.1405676528061263
 50
233.2188136703869077
 51
244.4107959602800975
  0
ARC
  5
3FD92
  8
0
 10
2973.5808713730248201
 20
160.8222503010563003
 30
0.0
 40
0.4471916622081318
 50
227.5477908609402959
 51
233.972663841447087
  0
ARC
  5
3FD93
  8
0
 10
2973.3383217281220823
 20
160.557110150105899
 30
0.0
 40
0.0878455478717792
 50
217.8513554930401881
 51
227.5477908609402959
  0
ARC
  5
3FD94
  8
0
 10
2973.2793562676110923
 20
160.5112871395812135
 30
0.0
 40
0.0131684173240906
 50
179.8809535385518075
 51
217.8513554930381986
  0
ARC
  5
3FD95
  8
0
 10
2973.2764572168580344
 20
160.5112931631003903
 30
0.0
 40
0.0102693603128002
 50
144.2944231809204041
 51
179.8809535385501874
  0
LINE
  5
3FD96
  8
0
 10
2973.268118221837085
 20
160.5172865697520876
 30
0.0
 11
2973.2871172756149463
 21
160.5443476559163116
 31
0.0
  0
ARC
  5
3FD97
  8
0
 10
2973.6468651876662079
 20
160.9270332342603069
 30
0.0
 40
0.5390698978825519
 50
226.0809951489623018
 51
226.9804302504531961
  0
ARC
  5
3FD98
  8
0
 10
2973.3835609903298973
 20
160.6536012746252879
 30
0.0
 40
0.1594725626911664
 50
219.7586506529057999
 51
226.0809951489623018
  0
ARC
  5
3FD99
  8
0
 10
2973.2790820257841915
 20
160.5666803478397924
 30
0.0
 40
0.0235641319521953
 50
206.1908083553128108
 51
219.7586506529052031
  0
ARC
  5
3FD9A
  8
0
 10
2973.2615689259450846
 20
160.5580663238868055
 30
0.0
 40
0.0040472143001789
 50
183.2744411003866105
 51
206.1908083553616109
  0
ARC
  5
3FD9B
  8
0
 10
2973.2586765854521218
 20
160.5579008470749898
 30
0.0
 40
0.0011501440385256
 50
119.250544529827593
 51
183.2744411005452037
  0
ARC
  5
3FD9C
  8
0
 10
2973.2588678744109529
 20
160.5575592836756016
 30
0.0
 40
0.0015416245892418
 50
86.5202397551138631
 51
119.2505445297378941
  0
ARC
  5
3FD9D
  8
0
 10
2973.2581985635920319
 20
160.5465523404629096
 30
0.0
 40
0.012568898770168
 50
68.5638739940748252
 51
86.5202397551138631
  0
ARC
  5
3FD9E
  8
0
 10
2973.238238774995807
 20
160.4957153391706015
 30
0.0
 40
0.0671838588197298
 50
63.2762387071336789
 51
68.5638739940748252
  0
ARC
  5
3FD9F
  8
0
 10
2973.2442630577738782
 20
160.5076809274704033
 30
0.0
 40
0.0537873187309023
 50
54.2016933026115666
 51
63.2762387071336789
  0
ARC
  5
3FDA0
  8
0
 10
2973.1647645775001365
 20
160.3568591336207874
 30
0.0
 40
0.223879719332646
 50
56.8720288474820705
 51
60.2889955976679204
  0
ARC
  5
3FDA1
  8
0
 10
2972.9521359935902183
 20
160.0327702925748099
 30
0.0
 40
0.6114931381384189
 50
46.0459307723313174
 51
56.7831875205497312
  0
ARC
  5
3FDA2
  8
0
 10
2973.3122667838138113
 20
160.4012772714872028
 30
0.0
 40
0.0963091617051646
 50
39.9190375016758168
 51
48.1184713406409799
  0
ARC
  5
3FDA3
  8
0
 10
2973.360139687085848
 20
160.4412111526305011
 30
0.0
 40
0.0339673196830261
 50
30.08218257733256
 51
40.0757209835483508
  0
ARC
  5
3FDA4
  8
0
 10
2973.3833707793928625
 20
160.4547108758517879
 30
0.0
 40
0.007098757760426
 50
13.04039305786781
 51
29.783400734919649
  0
ARC
  5
3FDA5
  8
0
 10
2973.3882272771370481
 20
160.455895572493489
 30
0.0
 40
0.0021010006063811
 50
352.3036413456792957
 51
11.44935928826742
  0
ARC
  5
3FDA6
  8
0
 10
2973.389243435653043
 20
160.4557582482323141
 30
0.0
 40
0.0010756050335611
 50
325.2793602496810763
 51
352.3036413457172102
  0
ARC
  5
3FDA7
  8
0
 10
2973.3892807598958825
 20
160.4557323838033938
 30
0.0
 40
0.0010301950359142
 50
288.7577008511868257
 51
325.2793602495958112
  0
ARC
  5
3FDA8
  8
0
 10
2973.3887497121031629
 20
160.4572961096313861
 30
0.0
 40
0.0026816338704305
 50
265.4443680264599834
 51
288.7577008512142811
  0
ARC
  5
3FDA9
  8
0
 10
2973.3893279680710293
 20
160.4645534513587961
 30
0.0
 40
0.0099619765074782
 50
253.2695483111220938
 51
265.4443680264599834
  0
ARC
  5
3FDAA
  8
0
 10
2973.3948759470399636
 20
160.483010183151805
 30
0.0
 40
0.0292345222429828
 50
246.0341946770049901
 51
253.2695483111220938
  0
ARC
  5
3FDAB
  8
0
 10
2973.4172519627309157
 20
160.5333483676278092
 30
0.0
 40
0.0843218973350695
 50
240.9140296733137063
 51
246.0341946770049901
  0
ARC
  5
3FDAC
  8
0
 10
2973.4851577378531147
 20
160.6554212976697045
 30
0.0
 40
0.224010817954631
 50
239.1354605901134107
 51
240.9140296733137063
  0
ARC
  5
3FDAD
  8
0
 10
2973.4815048378359279
 20
160.6493091650692122
 30
0.0
 40
0.2168902952591604
 50
238.6761330687652105
 51
239.1354605901134107
  0
ARC
  5
3FDAE
  8
0
 10
2973.0227090006701474
 20
160.6647724467175067
 30
0.0
 40
0.0697711467499409
 50
35.6776039514490222
 51
68.1362453751814883
  0
ARC
  5
3FDAF
  8
0
 10
2973.115424348075976
 20
160.783046178685197
 30
0.0
 40
0.0855437720558317
 50
218.7304399235748917
 51
245.0834238164262047
  0
LINE
  5
3FDB0
  8
0
 10
2973.1346076712848117
 20
160.7148260535649911
 30
0.0
 11
2973.1135020598840129
 21
160.6906499414662051
 31
0.0
  0
ARC
  5
3FDB1
  8
0
 10
2973.1047894959178848
 20
160.6990378868102027
 30
0.0
 40
0.0120940645754925
 50
243.2433419256803973
 51
316.0875140053382211
  0
ARC
  5
3FDB2
  8
0
 10
2973.1600581134389358
 20
160.8150186980784895
 30
0.0
 40
0.1405676528061263
 50
233.2188136703869077
 51
244.4107959602800975
  0
ARC
  5
3FDB3
  8
0
 10
2973.3389169801748722
 20
161.0640943304755126
 30
0.0
 40
0.4471916622081318
 50
227.5477908609402959
 51
233.972663841447087
  0
ARC
  5
3FDB4
  8
0
 10
2973.0963673352721344
 20
160.7989541795251114
 30
0.0
 40
0.0878455478717792
 50
217.8513554930401881
 51
227.5477908609402959
  0
ARC
  5
3FDB5
  8
0
 10
2973.0374018747611444
 20
160.7531311690003974
 30
0.0
 40
0.0131684173240906
 50
179.8809535385518075
 51
217.8513554930381986
  0
ARC
  5
3FDB6
  8
0
 10
2973.0345028240080865
 20
160.7531371925196026
 30
0.0
 40
0.0102693603128002
 50
144.2944231809204041
 51
179.8809535385501874
  0
LINE
  5
3FDB7
  8
0
 10
2973.0261638289880466
 20
160.7591305991714137
 30
0.0
 11
2973.0451628827640889
 21
160.7861916853354955
 31
0.0
  0
ARC
  5
3FDB8
  8
0
 10
2973.4049107948158053
 20
161.1688772636796045
 30
0.0
 40
0.5390698978825519
 50
226.0809951489623018
 51
226.9804302504531961
  0
ARC
  5
3FDB9
  8
0
 10
2973.1416065974808589
 20
160.8954453040445003
 30
0.0
 40
0.1594725626911664
 50
219.7586506529057999
 51
226.0809951489623018
  0
ARC
  5
3FDBA
  8
0
 10
2973.0371276329337888
 20
160.8085243772590047
 30
0.0
 40
0.0235641319521953
 50
206.1908083553128108
 51
219.7586506529052031
  0
ARC
  5
3FDBB
  8
0
 10
2973.0196145330951367
 20
160.7999103533059895
 30
0.0
 40
0.0040472143001789
 50
183.2744411003866105
 51
206.1908083553616109
  0
ARC
  5
3FDBC
  8
0
 10
2973.0167221926021739
 20
160.7997448764942021
 30
0.0
 40
0.0011501440385256
 50
119.250544529827593
 51
183.2744411005452037
  0
ARC
  5
3FDBD
  8
0
 10
2973.016913481561005
 20
160.7994033130948139
 30
0.0
 40
0.0015416245892418
 50
86.5202397551138631
 51
119.2505445297378941
  0
ARC
  5
3FDBE
  8
0
 10
2973.016244170742084
 20
160.7883963698820935
 30
0.0
 40
0.012568898770168
 50
68.5638739940748252
 51
86.5202397551138631
  0
ARC
  5
3FDBF
  8
0
 10
2972.9962843821458591
 20
160.7375593685898139
 30
0.0
 40
0.0671838588197298
 50
63.2762387071336789
 51
68.5638739940748252
  0
ARC
  5
3FDC0
  8
0
 10
2973.0023086649239303
 20
160.7495249568895872
 30
0.0
 40
0.0537873187309023
 50
54.2016933026115666
 51
63.2762387071336789
  0
ARC
  5
3FDC1
  8
0
 10
2972.9228101846501886
 20
160.5987031630399997
 30
0.0
 40
0.223879719332646
 50
56.8720288474820705
 51
60.2889955976679204
  0
ARC
  5
3FDC2
  8
0
 10
2972.7101816007398156
 20
160.2746143219939938
 30
0.0
 40
0.6114931381384189
 50
46.0459307723313174
 51
56.7831875205497312
  0
ARC
  5
3FDC3
  8
0
 10
2973.0703123909647729
 20
160.6431213009063868
 30
0.0
 40
0.0963091617051646
 50
39.9190375016758168
 51
48.1184713406409799
  0
ARC
  5
3FDC4
  8
0
 10
2973.1181852942359001
 20
160.6830551820497135
 30
0.0
 40
0.0339673196830261
 50
30.08218257733256
 51
40.0757209835483508
  0
ARC
  5
3FDC5
  8
0
 10
2973.1414163865429146
 20
160.6965549052710003
 30
0.0
 40
0.007098757760426
 50
13.04039305786781
 51
29.783400734919649
  0
ARC
  5
3FDC6
  8
0
 10
2973.1462728842871002
 20
160.6977396019127013
 30
0.0
 40
0.0021010006063811
 50
352.3036413456792957
 51
11.44935928826742
  0
ARC
  5
3FDC7
  8
0
 10
2973.1472890428030951
 20
160.6976022776514981
 30
0.0
 40
0.0010756050335611
 50
325.2793602496810763
 51
352.3036413457172102
  0
ARC
  5
3FDC8
  8
0
 10
2973.1473263670468441
 20
160.6975764132226061
 30
0.0
 40
0.0010301950359142
 50
288.7577008511868257
 51
325.2793602495958112
  0
ARC
  5
3FDC9
  8
0
 10
2973.146795319253215
 20
160.6991401390505985
 30
0.0
 40
0.0026816338704305
 50
265.4443680264599834
 51
288.7577008512142811
  0
ARC
  5
3FDCA
  8
0
 10
2973.1473735752210814
 20
160.7063974807780085
 30
0.0
 40
0.0099619765074782
 50
253.2695483111220938
 51
265.4443680264599834
  0
ARC
  5
3FDCB
  8
0
 10
2973.1529215541900157
 20
160.7248542125709889
 30
0.0
 40
0.0292345222429828
 50
246.0341946770049901
 51
253.2695483111220938
  0
ARC
  5
3FDCC
  8
0
 10
2973.1752975698809678
 20
160.7751923970469932
 30
0.0
 40
0.0843218973350695
 50
240.9140296733137063
 51
246.0341946770049901
  0
ARC
  5
3FDCD
  8
0
 10
2973.2432033450031668
 20
160.8972653270888884
 30
0.0
 40
0.224010817954631
 50
239.1354605901134107
 51
240.9140296733137063
  0
ARC
  5
3FDCE
  8
0
 10
2973.23955044498598
 20
160.8911531944885098
 30
0.0
 40
0.2168902952591604
 50
238.6761330687652105
 51
239.1354605901134107
  0
ARC
  5
3FDCF
  8
0
 10
2972.7607324339228398
 20
160.9235604102298112
 30
0.0
 40
0.0697711467499409
 50
35.6776039514490222
 51
68.1362453751814883
  0
ARC
  5
3FDD0
  8
0
 10
2972.8534477813291232
 20
161.0418341421975015
 30
0.0
 40
0.0855437720558317
 50
218.7304399235748917
 51
245.0834238164262047
  0
LINE
  5
3FDD1
  8
0
 10
2972.8726311045388684
 20
160.9736140170772956
 30
0.0
 11
2972.8515254931371601
 21
160.9494379049785096
 31
0.0
  0
ARC
  5
3FDD2
  8
0
 10
2972.842812929171032
 20
160.9578258503225072
 30
0.0
 40
0.0120940645754925
 50
243.2433419256803973
 51
316.0875140053382211
  0
ARC
  5
3FDD3
  8
0
 10
2972.8980815466929926
 20
161.073806661590794
 30
0.0
 40
0.1405676528061263
 50
233.2188136703869077
 51
244.4107959602800975
  0
ARC
  5
3FDD4
  8
0
 10
2973.0769404134289289
 20
161.3228822939877034
 30
0.0
 40
0.4471916622081318
 50
227.5477908609402959
 51
233.972663841447087
  0
ARC
  5
3FDD5
  8
0
 10
2972.8343907685261911
 20
161.0577421430373875
 30
0.0
 40
0.0878455478717792
 50
217.8513554930401881
 51
227.5477908609402959
  0
ARC
  5
3FDD6
  8
0
 10
2972.7754253080152012
 20
161.0119191325127019
 30
0.0
 40
0.0131684173240906
 50
179.8809535385518075
 51
217.8513554930381986
  0
ARC
  5
3FDD7
  8
0
 10
2972.7725262572607789
 20
161.0119251560319924
 30
0.0
 40
0.0102693603128002
 50
144.2944231809204041
 51
179.8809535385501874
  0
LINE
  5
3FDD8
  8
0
 10
2972.7641872622411938
 20
161.0179185626836045
 30
0.0
 11
2972.7831863160190551
 21
161.0449796488478
 31
0.0
  0
ARC
  5
3FDD9
  8
0
 10
2973.142934228069862
 20
161.4276652271917953
 30
0.0
 40
0.5390698978825519
 50
226.0809951489623018
 51
226.9804302504531961
  0
ARC
  5
3FDDA
  8
0
 10
2972.8796300307340061
 20
161.1542332675568048
 30
0.0
 40
0.1594725626911664
 50
219.7586506529057999
 51
226.0809951489623018
  0
ARC
  5
3FDDB
  8
0
 10
2972.7751510661869361
 20
161.0673123407713092
 30
0.0
 40
0.0235641319521953
 50
206.1908083553128108
 51
219.7586506529052031
  0
ARC
  5
3FDDC
  8
0
 10
2972.7576379663478292
 20
161.058698316818294
 30
0.0
 40
0.0040472143001789
 50
183.2744411003866105
 51
206.1908083553616109
  0
ARC
  5
3FDDD
  8
0
 10
2972.7547456258557759
 20
161.0585328400065066
 30
0.0
 40
0.0011501440385256
 50
119.250544529827593
 51
183.2744411005452037
  0
ARC
  5
3FDDE
  8
0
 10
2972.7549369148150618
 20
161.05819127660709
 30
0.0
 40
0.0015416245892418
 50
86.5202397551138631
 51
119.2505445297378941
  0
ARC
  5
3FDDF
  8
0
 10
2972.7542676039961407
 20
161.047184333394398
 30
0.0
 40
0.012568898770168
 50
68.5638739940748252
 51
86.5202397551138631
  0
ARC
  5
3FDE0
  8
0
 10
2972.7343078153990064
 20
160.9963473321020899
 30
0.0
 40
0.0671838588197298
 50
63.2762387071336789
 51
68.5638739940748252
  0
ARC
  5
3FDE1
  8
0
 10
2972.7403320981770776
 20
161.0083129204018917
 30
0.0
 40
0.0537873187309023
 50
54.2016933026115666
 51
63.2762387071336789
  0
ARC
  5
3FDE2
  8
0
 10
2972.6608336179037906
 20
160.8574911265523042
 30
0.0
 40
0.223879719332646
 50
56.8720288474820705
 51
60.2889955976679204
  0
ARC
  5
3FDE3
  8
0
 10
2972.4482050339938723
 20
160.5334022855062983
 30
0.0
 40
0.6114931381384189
 50
46.0459307723313174
 51
56.7831875205497312
  0
ARC
  5
3FDE4
  8
0
 10
2972.8083358242188297
 20
160.9019092644186912
 30
0.0
 40
0.0963091617051646
 50
39.9190375016758168
 51
48.1184713406409799
  0
ARC
  5
3FDE5
  8
0
 10
2972.8562087274899568
 20
160.9418431455621032
 30
0.0
 40
0.0339673196830261
 50
30.08218257733256
 51
40.0757209835483508
  0
ARC
  5
3FDE6
  8
0
 10
2972.8794398197969713
 20
160.9553428687833048
 30
0.0
 40
0.007098757760426
 50
13.04039305786781
 51
29.783400734919649
  0
ARC
  5
3FDE7
  8
0
 10
2972.8842963175411569
 20
160.9565275654250058
 30
0.0
 40
0.0021010006063811
 50
352.3036413456792957
 51
11.44935928826742
  0
ARC
  5
3FDE8
  8
0
 10
2972.8853124760557876
 20
160.9563902411638026
 30
0.0
 40
0.0010756050335611
 50
325.2793602496810763
 51
352.3036413457172102
  0
ARC
  5
3FDE9
  8
0
 10
2972.8853498002999913
 20
160.9563643767349106
 30
0.0
 40
0.0010301950359142
 50
288.7577008511868257
 51
325.2793602495958112
  0
ARC
  5
3FDEA
  8
0
 10
2972.884818752506817
 20
160.957928102562903
 30
0.0
 40
0.0026816338704305
 50
265.4443680264599834
 51
288.7577008512142811
  0
ARC
  5
3FDEB
  8
0
 10
2972.8853970084751381
 20
160.9651854442903129
 30
0.0
 40
0.0099619765074782
 50
253.2695483111220938
 51
265.4443680264599834
  0
ARC
  5
3FDEC
  8
0
 10
2972.8909449874440725
 20
160.9836421760834071
 30
0.0
 40
0.0292345222429828
 50
246.0341946770049901
 51
253.2695483111220938
  0
ARC
  5
3FDED
  8
0
 10
2972.9133210031350245
 20
161.0339803605594113
 30
0.0
 40
0.0843218973350695
 50
240.9140296733137063
 51
246.0341946770049901
  0
ARC
  5
3FDEE
  8
0
 10
2972.9812267782572235
 20
161.1560532906011929
 30
0.0
 40
0.224010817954631
 50
239.1354605901134107
 51
240.9140296733137063
  0
ARC
  5
3FDEF
  8
0
 10
2972.9775738782400367
 20
161.1499411580007859
 30
0.0
 40
0.2168902952591604
 50
238.6761330687652105
 51
239.1354605901134107
  0
ARC
  5
3FDF0
  8
0
 10
2972.8020445242059395
 20
160.8057862149343009
 30
0.0
 40
0.0697711467499409
 50
35.6776039514490222
 51
68.1362453751814883
  0
ARC
  5
3FDF1
  8
0
 10
2972.8947598716122229
 20
160.9240599469019912
 30
0.0
 40
0.0855437720558317
 50
218.7304399235748917
 51
245.0834238164262047
  0
LINE
  5
3FDF2
  8
0
 10
2972.9139431948210586
 20
160.855839821781899
 30
0.0
 11
2972.892837583419805
 21
160.831663709683113
 31
0.0
  0
ARC
  5
3FDF3
  8
0
 10
2972.8841250194541317
 20
160.8400516550271107
 30
0.0
 40
0.0120940645754925
 50
243.2433419256803973
 51
316.0875140053382211
  0
ARC
  5
3FDF4
  8
0
 10
2972.9393936369760922
 20
160.9560324662953974
 30
0.0
 40
0.1405676528061263
 50
233.2188136703869077
 51
244.4107959602800975
  0
ARC
  5
3FDF5
  8
0
 10
2973.1182525037120286
 20
161.2051080986923068
 30
0.0
 40
0.4471916622081318
 50
227.5477908609402959
 51
233.972663841447087
  0
ARC
  5
3FDF6
  8
0
 10
2972.875702858808836
 20
160.9399679477419909
 30
0.0
 40
0.0878455478717792
 50
217.8513554930401881
 51
227.5477908609402959
  0
ARC
  5
3FDF7
  8
0
 10
2972.8167373982969366
 20
160.8941449372171917
 30
0.0
 40
0.0131684173240906
 50
179.8809535385518075
 51
217.8513554930381986
  0
ARC
  5
3FDF8
  8
0
 10
2972.8138383475438786
 20
160.8941509607365106
 30
0.0
 40
0.0102693603128002
 50
144.2944231809204041
 51
179.8809535385501874
  0
LINE
  5
3FDF9
  8
0
 10
2972.8054993525238388
 20
160.9001443673882079
 30
0.0
 11
2972.8244984063007905
 21
160.9272054535524035
 31
0.0
  0
ARC
  5
3FDFA
  8
0
 10
2973.1842463183520522
 20
161.3098910318965125
 30
0.0
 40
0.5390698978825519
 50
226.0809951489623018
 51
226.9804302504531961
  0
ARC
  5
3FDFB
  8
0
 10
2972.9209421210171058
 20
161.0364590722614082
 30
0.0
 40
0.1594725626911664
 50
219.7586506529057999
 51
226.0809951489623018
  0
ARC
  5
3FDFC
  8
0
 10
2972.8164631564700358
 20
160.9495381454759126
 30
0.0
 40
0.0235641319521953
 50
206.1908083553128108
 51
219.7586506529052031
  0
ARC
  5
3FDFD
  8
0
 10
2972.7989500566309289
 20
160.9409241215228974
 30
0.0
 40
0.0040472143001789
 50
183.2744411003866105
 51
206.1908083553616109
  0
ARC
  5
3FDFE
  8
0
 10
2972.7960577161379661
 20
160.94075864471111
 30
0.0
 40
0.0011501440385256
 50
119.250544529827593
 51
183.2744411005452037
  0
ARC
  5
3FDFF
  8
0
 10
2972.7962490050981614
 20
160.9404170813116934
 30
0.0
 40
0.0015416245892418
 50
86.5202397551138631
 51
119.2505445297378941
  0
ARC
  5
3FE00
  8
0
 10
2972.7955796942778761
 20
160.9294101380988877
 30
0.0
 40
0.012568898770168
 50
68.5638739940748252
 51
86.5202397551138631
  0
ARC
  5
3FE01
  8
0
 10
2972.775619905682106
 20
160.8785731368066081
 30
0.0
 40
0.0671838588197298
 50
63.2762387071336789
 51
68.5638739940748252
  0
ARC
  5
3FE02
  8
0
 10
2972.7816441884601772
 20
160.8905387251064951
 30
0.0
 40
0.0537873187309023
 50
54.2016933026115666
 51
63.2762387071336789
  0
ARC
  5
3FE03
  8
0
 10
2972.7021457081868903
 20
160.7397169312569076
 30
0.0
 40
0.223879719332646
 50
56.8720288474820705
 51
60.2889955976679204
  0
ARC
  5
3FE04
  8
0
 10
2972.4895171242760625
 20
160.4156280902109017
 30
0.0
 40
0.6114931381384189
 50
46.0459307723313174
 51
56.7831875205497312
  0
ARC
  5
3FE05
  8
0
 10
2972.8496479145010198
 20
160.7841350691232947
 30
0.0
 40
0.0963091617051646
 50
39.9190375016758168
 51
48.1184713406409799
  0
ARC
  5
3FE06
  8
0
 10
2972.897520817772147
 20
160.824068950266593
 30
0.0
 40
0.0339673196830261
 50
30.08218257733256
 51
40.0757209835483508
  0
ARC
  5
3FE07
  8
0
 10
2972.9207519100791615
 20
160.8375686734879082
 30
0.0
 40
0.007098757760426
 50
13.04039305786781
 51
29.783400734919649
  0
ARC
  5
3FE08
  8
0
 10
2972.9256084078238018
 20
160.8387533701296093
 30
0.0
 40
0.0021010006063811
 50
352.3036413456792957
 51
11.44935928826742
  0
ARC
  5
3FE09
  8
0
 10
2972.9266245663388872
 20
160.8386160458682923
 30
0.0
 40
0.0010756050335611
 50
325.2793602496810763
 51
352.3036413457172102
  0
ARC
  5
3FE0A
  8
0
 10
2972.9266618905821815
 20
160.838590181439514
 30
0.0
 40
0.0010301950359142
 50
288.7577008511868257
 51
325.2793602495958112
  0
ARC
  5
3FE0B
  8
0
 10
2972.9261308427890071
 20
160.8401539072673927
 30
0.0
 40
0.0026816338704305
 50
265.4443680264599834
 51
288.7577008512142811
  0
ARC
  5
3FE0C
  8
0
 10
2972.9267090987568736
 20
160.847411248994888
 30
0.0
 40
0.0099619765074782
 50
253.2695483111220938
 51
265.4443680264599834
  0
ARC
  5
3FE0D
  8
0
 10
2972.9322570777271721
 20
160.8658679807878968
 30
0.0
 40
0.0292345222429828
 50
246.0341946770049901
 51
253.2695483111220938
  0
ARC
  5
3FE0E
  8
0
 10
2972.9546330934172147
 20
160.9162061652639863
 30
0.0
 40
0.0843218973350695
 50
240.9140296733137063
 51
246.0341946770049901
  0
ARC
  5
3FE0F
  8
0
 10
2973.0225388685389589
 20
161.0382790953057963
 30
0.0
 40
0.224010817954631
 50
239.1354605901134107
 51
240.9140296733137063
  0
ARC
  5
3FE10
  8
0
 10
2973.0188859685231364
 20
161.0321669627053041
 30
0.0
 40
0.2168902952591604
 50
238.6761330687652105
 51
239.1354605901134107
  0
ARC
  5
3FE11
  8
0
 10
2972.7839850105910955
 20
160.7549229587883133
 30
0.0
 40
0.0697711467499409
 50
35.6776039514490222
 51
68.1362453751814883
  0
ARC
  5
3FE12
  8
0
 10
2972.8767003579969241
 20
160.8731966907560036
 30
0.0
 40
0.0855437720558317
 50
218.7304399235748917
 51
245.0834238164262047
  0
LINE
  5
3FE13
  8
0
 10
2972.8958836812062145
 20
160.8049765656357977
 30
0.0
 11
2972.874778069804961
 21
160.7808004535370969
 31
0.0
  0
ARC
  5
3FE14
  8
0
 10
2972.8660655058388329
 20
160.7891883988810946
 30
0.0
 40
0.0120940645754925
 50
243.2433419256803973
 51
316.0875140053382211
  0
ARC
  5
3FE15
  8
0
 10
2972.9213341233607935
 20
160.9051692101494098
 30
0.0
 40
0.1405676528061263
 50
233.2188136703869077
 51
244.4107959602800975
  0
ARC
  5
3FE16
  8
0
 10
2973.1001929900971845
 20
161.1542448425462908
 30
0.0
 40
0.4471916622081318
 50
227.5477908609402959
 51
233.972663841447087
  0
ARC
  5
3FE17
  8
0
 10
2972.8576433451930825
 20
160.8891046915960032
 30
0.0
 40
0.0878455478717792
 50
217.8513554930401881
 51
227.5477908609402959
  0
ARC
  5
3FE18
  8
0
 10
2972.798677884683002
 20
160.8432816810712893
 30
0.0
 40
0.0131684173240906
 50
179.8809535385518075
 51
217.8513554930381986
  0
ARC
  5
3FE19
  8
0
 10
2972.7957788339281251
 20
160.8432877045904945
 30
0.0
 40
0.0102693603128002
 50
144.2944231809204041
 51
179.8809535385501874
  0
LINE
  5
3FE1A
  8
0
 10
2972.7874398389089947
 20
160.8492811112421919
 30
0.0
 11
2972.8064388926859465
 21
160.8763421974063874
 31
0.0
  0
ARC
  5
3FE1B
  8
0
 10
2973.1661868047372081
 20
161.2590277757504111
 30
0.0
 40
0.5390698978825519
 50
226.0809951489623018
 51
226.9804302504531961
  0
ARC
  5
3FE1C
  8
0
 10
2972.902882607401807
 20
160.9855958161153922
 30
0.0
 40
0.1594725626911664
 50
219.7586506529057999
 51
226.0809951489623018
  0
ARC
  5
3FE1D
  8
0
 10
2972.7984036428551917
 20
160.8986748893298966
 30
0.0
 40
0.0235641319521953
 50
206.1908083553128108
 51
219.7586506529052031
  0
ARC
  5
3FE1E
  8
0
 10
2972.7808905430160848
 20
160.8900608653769098
 30
0.0
 40
0.0040472143001789
 50
183.2744411003866105
 51
206.1908083553616109
  0
ARC
  5
3FE1F
  8
0
 10
2972.7779982025240315
 20
160.889895388565094
 30
0.0
 40
0.0011501440385256
 50
119.250544529827593
 51
183.2744411005452037
  0
ARC
  5
3FE20
  8
0
 10
2972.7781894914819532
 20
160.8895538251657058
 30
0.0
 40
0.0015416245892418
 50
86.5202397551138631
 51
119.2505445297378941
  0
ARC
  5
3FE21
  8
0
 10
2972.7775201806639416
 20
160.8785468819529001
 30
0.0
 40
0.012568898770168
 50
68.5638739940748252
 51
86.5202397551138631
  0
ARC
  5
3FE22
  8
0
 10
2972.7575603920668073
 20
160.8277098806607057
 30
0.0
 40
0.0671838588197298
 50
63.2762387071336789
 51
68.5638739940748252
  0
ARC
  5
3FE23
  8
0
 10
2972.7635846748448785
 20
160.8396754689603938
 30
0.0
 40
0.0537873187309023
 50
54.2016933026115666
 51
63.2762387071336789
  0
ARC
  5
3FE24
  8
0
 10
2972.6840861945720462
 20
160.6888536751108916
 30
0.0
 40
0.223879719332646
 50
56.8720288474820705
 51
60.2889955976679204
  0
ARC
  5
3FE25
  8
0
 10
2972.4714576106612185
 20
160.3647648340649141
 30
0.0
 40
0.6114931381384189
 50
46.0459307723313174
 51
56.7831875205497312
  0
ARC
  5
3FE26
  8
0
 10
2972.8315884008861758
 20
160.733271812977307
 30
0.0
 40
0.0963091617051646
 50
39.9190375016758168
 51
48.1184713406409799
  0
ARC
  5
3FE27
  8
0
 10
2972.8794613041582124
 20
160.7732056941206054
 30
0.0
 40
0.0339673196830261
 50
30.08218257733256
 51
40.0757209835483508
  0
ARC
  5
3FE28
  8
0
 10
2972.9026923964638627
 20
160.7867054173418921
 30
0.0
 40
0.007098757760426
 50
13.04039305786781
 51
29.783400734919649
  0
ARC
  5
3FE29
  8
0
 10
2972.9075488942089578
 20
160.7878901139835932
 30
0.0
 40
0.0021010006063811
 50
352.3036413456792957
 51
11.44935928826742
  0
ARC
  5
3FE2A
  8
0
 10
2972.9085650527240432
 20
160.7877527897223899
 30
0.0
 40
0.0010756050335611
 50
325.2793602496810763
 51
352.3036413457172102
  0
ARC
  5
3FE2B
  8
0
 10
2972.9086023769677922
 20
160.787726925293498
 30
0.0
 40
0.0010301950359142
 50
288.7577008511868257
 51
325.2793602495958112
  0
ARC
  5
3FE2C
  8
0
 10
2972.9080713291741631
 20
160.7892906511214051
 30
0.0
 40
0.0026816338704305
 50
265.4443680264599834
 51
288.7577008512142811
  0
ARC
  5
3FE2D
  8
0
 10
2972.908649585142939
 20
160.7965479928489003
 30
0.0
 40
0.0099619765074782
 50
253.2695483111220938
 51
265.4443680264599834
  0
ARC
  5
3FE2E
  8
0
 10
2972.9141975641118734
 20
160.8150047246419092
 30
0.0
 40
0.0292345222429828
 50
246.0341946770049901
 51
253.2695483111220938
  0
ARC
  5
3FE2F
  8
0
 10
2972.9365735798028254
 20
160.8653429091179135
 30
0.0
 40
0.0843218973350695
 50
240.9140296733137063
 51
246.0341946770049901
  0
ARC
  5
3FE30
  8
0
 10
2973.0044793549241149
 20
160.9874158391598087
 30
0.0
 40
0.224010817954631
 50
239.1354605901134107
 51
240.9140296733137063
  0
ARC
  5
3FE31
  8
0
 10
2973.0008264549069281
 20
160.981303706559288
 30
0.0
 40
0.2168902952591604
 50
238.6761330687652105
 51
239.1354605901134107
  0
ARC
  5
3FE32
  8
0
 10
2972.7863625144068465
 20
160.7101309043432025
 30
0.0
 40
0.0697711467499409
 50
35.6776039514490222
 51
68.1362453751814883
  0
ARC
  5
3FE33
  8
0
 10
2972.8790778618140394
 20
160.8284046363108928
 30
0.0
 40
0.0855437720558317
 50
218.7304399235748917
 51
245.0834238164262047
  0
LINE
  5
3FE34
  8
0
 10
2972.898261185022875
 20
160.7601845111906869
 30
0.0
 11
2972.8771555736220762
 21
160.7360083990919861
 31
0.0
  0
ARC
  5
3FE35
  8
0
 10
2972.8684430096559481
 20
160.7443963444358985
 30
0.0
 40
0.0120940645754925
 50
243.2433419256803973
 51
316.0875140053382211
  0
ARC
  5
3FE36
  8
0
 10
2972.9237116271779087
 20
160.8603771557042137
 30
0.0
 40
0.1405676528061263
 50
233.2188136703869077
 51
244.4107959602800975
  0
ARC
  5
3FE37
  8
0
 10
2973.102570493913845
 20
161.1094527881012084
 30
0.0
 40
0.4471916622081318
 50
227.5477908609402959
 51
233.972663841447087
  0
ARC
  5
3FE38
  8
0
 10
2972.8600208490101977
 20
160.8443126371508924
 30
0.0
 40
0.0878455478717792
 50
217.8513554930401881
 51
227.5477908609402959
  0
ARC
  5
3FE39
  8
0
 10
2972.8010553884992078
 20
160.7984896266260932
 30
0.0
 40
0.0131684173240906
 50
179.8809535385518075
 51
217.8513554930381986
  0
ARC
  5
3FE3A
  8
0
 10
2972.7981563377461498
 20
160.7984956501454121
 30
0.0
 40
0.0102693603128002
 50
144.2944231809204041
 51
179.8809535385501874
  0
LINE
  5
3FE3B
  8
0
 10
2972.7898173427252004
 20
160.8044890567971095
 30
0.0
 11
2972.8016314462502123
 21
160.8213163407858985
 31
0.0
  0
ARC
  5
3FE3C
  8
0
 10
2973.1685643085538686
 20
161.2142357213053003
 30
0.0
 40
0.5390698978825519
 50
226.0809951489623018
 51
226.9804302504531961
  0
ARC
  5
3FE3D
  8
0
 10
2972.9052601112189222
 20
160.9408037616701961
 30
0.0
 40
0.1594725626911664
 50
219.7586506529057999
 51
226.0809951489623018
  0
ARC
  5
3FE3E
  8
0
 10
2972.8007811466718522
 20
160.8538828348848142
 30
0.0
 40
0.0235641319521953
 50
206.1908083553128108
 51
219.7586506529052031
  0
ARC
  5
3FE3F
  8
0
 10
2972.7832680468332001
 20
160.8452688109317137
 30
0.0
 40
0.0040472143001789
 50
183.2744411003866105
 51
206.1908083553616109
  0
ARC
  5
3FE40
  8
0
 10
2972.7803757063397825
 20
160.8451033341200116
 30
0.0
 40
0.0011501440385256
 50
119.250544529827593
 51
183.2744411005452037
  0
ARC
  5
3FE41
  8
0
 10
2972.7805669952990684
 20
160.844761770720595
 30
0.0
 40
0.0015416245892418
 50
86.5202397551138631
 51
119.2505445297378941
  0
ARC
  5
3FE42
  8
0
 10
2972.7798976844801473
 20
160.8337548275077893
 30
0.0
 40
0.012568898770168
 50
68.5638739940748252
 51
86.5202397551138631
  0
ARC
  5
3FE43
  8
0
 10
2972.759937895883013
 20
160.7829178262155096
 30
0.0
 40
0.0671838588197298
 50
67.497323659198301
 51
68.5638739940748252
  0
ARC
  5
3FE44
  8
0
 10
2972.473835114477879
 20
160.3199727796198033
 30
0.0
 40
0.6114931381384189
 50
46.0459307723313174
 51
48.9750084503804075
  0
ARC
  5
3FE45
  8
0
 10
2972.8339659047028363
 20
160.6884797585321962
 30
0.0
 40
0.0963091617051646
 50
39.9190375016758168
 51
48.1184713406409799
  0
ARC
  5
3FE46
  8
0
 10
2972.8818388079748729
 20
160.7284136396754946
 30
0.0
 40
0.0339673196830261
 50
30.08218257733256
 51
40.0757209835483508
  0
ARC
  5
3FE47
  8
0
 10
2972.9050699002809779
 20
160.7419133628966961
 30
0.0
 40
0.007098757760426
 50
13.04039305786781
 51
29.783400734919649
  0
ARC
  5
3FE48
  8
0
 10
2972.9099263980251635
 20
160.7430980595383971
 30
0.0
 40
0.0021010006063811
 50
352.3036413456792957
 51
11.44935928826742
  0
ARC
  5
3FE49
  8
0
 10
2972.9109425565411584
 20
160.7429607352773075
 30
0.0
 40
0.0010756050335611
 50
325.2793602496810763
 51
352.3036413457172102
  0
ARC
  5
3FE4A
  8
0
 10
2972.9109798807849074
 20
160.7429348708483872
 30
0.0
 40
0.0010301950359142
 50
288.7577008511868257
 51
325.2793602495958112
  0
ARC
  5
3FE4B
  8
0
 10
2972.9104488329908236
 20
160.7444985966762943
 30
0.0
 40
0.0026816338704305
 50
265.4443680264599834
 51
288.7577008512142811
  0
ARC
  5
3FE4C
  8
0
 10
2972.9110270889591447
 20
160.7517559384037042
 30
0.0
 40
0.0099619765074782
 50
253.2695483111220938
 51
265.4443680264599834
  0
ARC
  5
3FE4D
  8
0
 10
2972.9165750679289886
 20
160.7702126701967984
 30
0.0
 40
0.0292345222429828
 50
246.0341946770049901
 51
253.2695483111220938
  0
ARC
  5
3FE4E
  8
0
 10
2972.9389510836199406
 20
160.8205508546728026
 30
0.0
 40
0.0843218973350695
 50
240.9140296733137063
 51
246.0341946770049901
  0
ARC
  5
3FE4F
  8
0
 10
2973.0068568587407754
 20
160.9426237847146126
 30
0.0
 40
0.224010817954631
 50
239.1354605901134107
 51
240.9140296733137063
  0
ARC
  5
3FE50
  8
0
 10
2973.0032039587240433
 20
160.9365116521142056
 30
0.0
 40
0.2168902952591604
 50
238.6761330687652105
 51
239.1354605901134107
  0
ARC
  5
3FE51
  8
0
 10
2973.1097896287092226
 20
160.4893728826623942
 30
0.0
 40
0.0697711467499409
 50
35.6776039514490222
 51
68.1362453751814883
  0
ARC
  5
3FE52
  8
0
 10
2973.2025049761150512
 20
160.6076466146301129
 30
0.0
 40
0.0855437720558317
 50
218.7304399235748917
 51
245.0834238164262047
  0
LINE
  5
3FE53
  8
0
 10
2973.2216882993247964
 20
160.5394264895097933
 30
0.0
 11
2973.2005826879230881
 21
160.5152503774110926
 31
0.0
  0
ARC
  5
3FE54
  8
0
 10
2973.19187012395696
 20
160.5236383227550903
 30
0.0
 40
0.0120940645754925
 50
243.2433419256803973
 51
316.0875140053382211
  0
ARC
  5
3FE55
  8
0
 10
2973.2471387414789206
 20
160.6396191340234054
 30
0.0
 40
0.1405676528061263
 50
233.2188136703869077
 51
244.4107959602800975
  0
ARC
  5
3FE56
  8
0
 10
2973.4259976082148569
 20
160.8886947664204001
 30
0.0
 40
0.4471916622081318
 50
227.5477908609402959
 51
233.972663841447087
  0
ARC
  5
3FE57
  8
0
 10
2973.1834479633121191
 20
160.6235546154699989
 30
0.0
 40
0.0878455478717792
 50
217.8513554930401881
 51
227.5477908609402959
  0
ARC
  5
3FE58
  8
0
 10
2973.1244825028011292
 20
160.5777316049453134
 30
0.0
 40
0.0131684173240906
 50
179.8809535385518075
 51
217.8513554930381986
  0
ARC
  5
3FE59
  8
0
 10
2973.1215834520480712
 20
160.5777376284644902
 30
0.0
 40
0.0102693603128002
 50
144.2944231809204041
 51
179.8809535385501874
  0
LINE
  5
3FE5A
  8
0
 10
2973.1132444570271218
 20
160.5837310351161875
 30
0.0
 11
2973.1322435108040736
 21
160.6107921212804115
 31
0.0
  0
ARC
  5
3FE5B
  8
0
 10
2973.49199142285579
 20
160.9934776996244068
 30
0.0
 40
0.5390698978825519
 50
226.0809951489623018
 51
226.9804302504531961
  0
ARC
  5
3FE5C
  8
0
 10
2973.2286872255199341
 20
160.7200457399893025
 30
0.0
 40
0.1594725626911664
 50
219.7586506529057999
 51
226.0809951489623018
  0
ARC
  5
3FE5D
  8
0
 10
2973.1242082609728641
 20
160.6331248132038922
 30
0.0
 40
0.0235641319521953
 50
206.1908083553128108
 51
219.7586506529052031
  0
ARC
  5
3FE5E
  8
0
 10
2973.1066951611351215
 20
160.6245107892509054
 30
0.0
 40
0.0040472143001789
 50
183.2744411003866105
 51
206.1908083553616109
  0
ARC
  5
3FE5F
  8
0
 10
2973.1038028206421586
 20
160.6243453124390896
 30
0.0
 40
0.0011501440385256
 50
119.250544529827593
 51
183.2744411005452037
  0
ARC
  5
3FE60
  8
0
 10
2973.1039941096009898
 20
160.6240037490397015
 30
0.0
 40
0.0015416245892418
 50
86.5202397551138631
 51
119.2505445297378941
  0
ARC
  5
3FE61
  8
0
 10
2973.1033247987820687
 20
160.6129968058270094
 30
0.0
 40
0.012568898770168
 50
68.5638739940748252
 51
86.5202397551138631
  0
ARC
  5
3FE62
  8
0
 10
2973.0833650101849344
 20
160.5621598045347014
 30
0.0
 40
0.0671838588197298
 50
63.2762387071336789
 51
68.5638739940748252
  0
ARC
  5
3FE63
  8
0
 10
2973.0893892929630056
 20
160.5741253928345031
 30
0.0
 40
0.0537873187309023
 50
54.2016933026115666
 51
63.2762387071336789
  0
ARC
  5
3FE64
  8
0
 10
2973.0098908126901733
 20
160.4233035989848872
 30
0.0
 40
0.223879719332646
 50
56.8720288474820705
 51
60.2889955976679204
  0
ARC
  5
3FE65
  8
0
 10
2972.7972622287798004
 20
160.0992147579389098
 30
0.0
 40
0.6114931381384189
 50
46.0459307723313174
 51
56.7831875205497312
  0
ARC
  5
3FE66
  8
0
 10
2973.1573930190038482
 20
160.4677217368513027
 30
0.0
 40
0.0963091617051646
 50
39.9190375016758168
 51
48.1184713406409799
  0
ARC
  5
3FE67
  8
0
 10
2973.2052659222758848
 20
160.507655617994601
 30
0.0
 40
0.0339673196830261
 50
30.08218257733256
 51
40.0757209835483508
  0
ARC
  5
3FE68
  8
0
 10
2973.2284970145828993
 20
160.5211553412158878
 30
0.0
 40
0.007098757760426
 50
13.04039305786781
 51
29.783400734919649
  0
ARC
  5
3FE69
  8
0
 10
2973.2333535123270849
 20
160.5223400378575889
 30
0.0
 40
0.0021010006063811
 50
352.3036413456792957
 51
11.44935928826742
  0
ARC
  5
3FE6A
  8
0
 10
2973.2343696708421703
 20
160.522202713596414
 30
0.0
 40
0.0010756050335611
 50
325.2793602496810763
 51
352.3036413457172102
  0
ARC
  5
3FE6B
  8
0
 10
2973.2344069950868288
 20
160.5221768491674936
 30
0.0
 40
0.0010301950359142
 50
288.7577008511868257
 51
325.2793602495958112
  0
ARC
  5
3FE6C
  8
0
 10
2973.2338759472931997
 20
160.523740574995486
 30
0.0
 40
0.0026816338704305
 50
265.4443680264599834
 51
288.7577008512142811
  0
ARC
  5
3FE6D
  8
0
 10
2973.2344542032610661
 20
160.5309979167228107
 30
0.0
 40
0.0099619765074782
 50
253.2695483111220938
 51
265.4443680264599834
  0
ARC
  5
3FE6E
  8
0
 10
2973.2400021822300005
 20
160.5494546485159049
 30
0.0
 40
0.0292345222429828
 50
246.0341946770049901
 51
253.2695483111220938
  0
ARC
  5
3FE6F
  8
0
 10
2973.2623781979209525
 20
160.5997928329919091
 30
0.0
 40
0.0843218973350695
 50
240.9140296733137063
 51
246.0341946770049901
  0
ARC
  5
3FE70
  8
0
 10
2973.3302839730431515
 20
160.7218657630338043
 30
0.0
 40
0.224010817954631
 50
239.1354605901134107
 51
240.9140296733137063
  0
ARC
  5
3FE71
  8
0
 10
2973.3266310730259647
 20
160.7157536304333973
 30
0.0
 40
0.2168902952591604
 50
238.6761330687652105
 51
239.1354605901134107
  0
ARC
  5
3FE72
  8
0
 10
2973.0556250589088449
 20
160.4754163097655919
 30
0.0
 40
0.0697711467499409
 50
35.6776039514490222
 51
68.1362453751814883
  0
ARC
  5
3FE73
  8
0
 10
2973.1483404063142189
 20
160.5936900417331969
 30
0.0
 40
0.0855437720558317
 50
218.7304399235748917
 51
245.0834238164262047
  0
LINE
  5
3FE74
  8
0
 10
2973.1665998907619723
 20
160.524411675321403
 30
0.0
 11
2973.1464181181231652
 21
160.5012938045142903
 31
0.0
  0
ARC
  5
3FE75
  8
0
 10
2973.1377055541561276
 20
160.509681749858288
 30
0.0
 40
0.0120940645754925
 50
243.2433419256803973
 51
316.0875140053382211
  0
ARC
  5
3FE76
  8
0
 10
2973.1929741716789977
 20
160.6256625611266031
 30
0.0
 40
0.1405676528061263
 50
233.2188136703869077
 51
244.4107959602800975
  0
ARC
  5
3FE77
  8
0
 10
2973.3718330384140245
 20
160.8747381935235126
 30
0.0
 40
0.4471916622081318
 50
227.5477908609402959
 51
233.972663841447087
  0
ARC
  5
3FE78
  8
0
 10
2973.129283393510832
 20
160.6095980425731966
 30
0.0
 40
0.0878455478717792
 50
217.8513554930401881
 51
227.5477908609402959
  0
ARC
  5
3FE79
  8
0
 10
2973.070317932999842
 20
160.5637750320485111
 30
0.0
 40
0.0131684173240906
 50
179.8809535385518075
 51
217.8513554930381986
  0
ARC
  5
3FE7A
  8
0
 10
2973.0674188822458746
 20
160.5637810555676879
 30
0.0
 40
0.0102693603128002
 50
144.2944231809204041
 51
179.8809535385501874
  0
LINE
  5
3FE7B
  8
0
 10
2973.0590798872271989
 20
160.5697744622194136
 30
0.0
 11
2973.0780789410041507
 21
160.5968355483834955
 31
0.0
  0
ARC
  5
3FE7C
  8
0
 10
2973.4378268530549576
 20
160.9795211267276045
 30
0.0
 40
0.5390698978825519
 50
226.0809951489623018
 51
226.9804302504531961
  0
ARC
  5
3FE7D
  8
0
 10
2973.1745226557191017
 20
160.7060891670925002
 30
0.0
 40
0.1594725626911664
 50
219.7586506529057999
 51
226.0809951489623018
  0
ARC
  5
3FE7E
  8
0
 10
2973.0700436911729412
 20
160.6191682403070899
 30
0.0
 40
0.0235641319521953
 50
206.1908083553128108
 51
219.7586506529052031
  0
ARC
  5
3FE7F
  8
0
 10
2973.0525305913338343
 20
160.6105542163541031
 30
0.0
 40
0.0040472143001789
 50
183.2744411003866105
 51
206.1908083553616109
  0
ARC
  5
3FE80
  8
0
 10
2973.0496382508408715
 20
160.6103887395422873
 30
0.0
 40
0.0011501440385256
 50
119.250544529827593
 51
183.2744411005452037
  0
ARC
  5
3FE81
  8
0
 10
2973.0498295398001574
 20
160.6100471761428992
 30
0.0
 40
0.0015416245892418
 50
86.5202397551138631
 51
119.2505445297378941
  0
ARC
  5
3FE82
  8
0
 10
2973.0491602289807815
 20
160.5990402329302071
 30
0.0
 40
0.012568898770168
 50
68.5638739940748252
 51
86.5202397551138631
  0
ARC
  5
3FE83
  8
0
 10
2973.0292004403850115
 20
160.5482032316378991
 30
0.0
 40
0.0671838588197298
 50
63.2762387071336789
 51
68.5638739940748252
  0
ARC
  5
3FE84
  8
0
 10
2973.0352247231621732
 20
160.5601688199377008
 30
0.0
 40
0.0537873187309023
 50
54.2016933026115666
 51
63.2762387071336789
  0
ARC
  5
3FE85
  8
0
 10
2972.9557262428888862
 20
160.4093470260881134
 30
0.0
 40
0.223879719332646
 50
56.8720288474820705
 51
60.2889955976679204
  0
ARC
  5
3FE86
  8
0
 10
2972.743097658978968
 20
160.0852581850419938
 30
0.0
 40
0.6114931381384189
 50
52.8582254169645225
 51
56.7831875205497312
  0
ARC
  5
3FE87
  8
0
 10
2973.1032284492039253
 20
160.4537651639545004
 30
0.0
 40
0.0963091617051646
 50
39.9190375016758168
 51
43.6555759056060069
  0
ARC
  5
3FE88
  8
0
 10
2973.1743324447820669
 20
160.5071987683191139
 30
0.0
 40
0.007098757760426
 50
13.04039305786781
 51
29.783400734919649
  0
ARC
  5
3FE89
  8
0
 10
2973.179188942527162
 20
160.5083834649607866
 30
0.0
 40
0.0021010006063811
 50
352.3036413456792957
 51
11.44935928826742
  0
ARC
  5
3FE8A
  8
0
 10
2973.1802051010417927
 20
160.508246140699498
 30
0.0
 40
0.0010756050335611
 50
325.2793602496810763
 51
352.3036413457172102
  0
ARC
  5
3FE8B
  8
0
 10
2973.1802424252859964
 20
160.5082202762706913
 30
0.0
 40
0.0010301950359142
 50
288.7577008511868257
 51
325.2793602495958112
  0
ARC
  5
3FE8C
  8
0
 10
2973.1797113774919126
 20
160.5097840020985984
 30
0.0
 40
0.0026816338704305
 50
265.4443680264599834
 51
288.7577008512142811
  0
ARC
  5
3FE8D
  8
0
 10
2973.180289633459779
 20
160.5170413438260084
 30
0.0
 40
0.0099619765074782
 50
253.2695483111220938
 51
265.4443680264599834
  0
ARC
  5
3FE8E
  8
0
 10
2973.1858376124300776
 20
160.5354980756191026
 30
0.0
 40
0.0292345222429828
 50
246.0341946770049901
 51
253.2695483111220938
  0
ARC
  5
3FE8F
  8
0
 10
2973.2082136281210296
 20
160.5858362600951068
 30
0.0
 40
0.0843218973350695
 50
240.9140296733137063
 51
246.0341946770049901
  0
ARC
  5
3FE90
  8
0
 10
2973.2761194032409549
 20
160.707909190137002
 30
0.0
 40
0.224010817954631
 50
239.1354605901134107
 51
240.9140296733137063
  0
ARC
  5
3FE91
  8
0
 10
2973.2724665032251323
 20
160.7017970575365098
 30
0.0
 40
0.2168902952591604
 50
238.6761330687652105
 51
239.1354605901134107
  0
ARC
  5
3FE92
  8
0
 10
2973.3374389783962215
 20
160.2570086698490002
 30
0.0
 40
0.0697711467499409
 50
35.6776039514490222
 51
68.1362453751814883
  0
ARC
  5
3FE93
  8
0
 10
2973.4301543258020502
 20
160.3752824018166905
 30
0.0
 40
0.0855437720558317
 50
218.7304399235748917
 51
245.0834238164262047
  0
LINE
  5
3FE94
  8
0
 10
2973.4493376490108858
 20
160.307062276696513
 30
0.0
 11
2973.428232037610087
 21
160.2828861645976986
 31
0.0
  0
ARC
  5
3FE95
  8
0
 10
2973.4195194736439589
 20
160.2912741099416962
 30
0.0
 40
0.0120940645754925
 50
243.2433419256803973
 51
316.0875140053382211
  0
ARC
  5
3FE96
  8
0
 10
2973.4747880911659195
 20
160.4072549212100114
 30
0.0
 40
0.1405676528061263
 50
233.2188136703869077
 51
244.4107959602800975
  0
ARC
  5
3FE97
  8
0
 10
2973.6536469579018558
 20
160.6563305536070061
 30
0.0
 40
0.4471916622081318
 50
227.5477908609402959
 51
233.972663841447087
  0
ARC
  5
3FE98
  8
0
 10
2973.411097312999118
 20
160.3911904026566049
 30
0.0
 40
0.0878455478717792
 50
217.8513554930401881
 51
227.5477908609402959
  0
ARC
  5
3FE99
  8
0
 10
2973.3521318524872186
 20
160.3453673921318909
 30
0.0
 40
0.0131684173240906
 50
179.8809535385518075
 51
217.8513554930381986
  0
ARC
  5
3FE9A
  8
0
 10
2973.3492328017341606
 20
160.3453734156512098
 30
0.0
 40
0.0102693603128002
 50
144.2944231809204041
 51
179.8809535385501874
  0
LINE
  5
3FE9B
  8
0
 10
2973.3408938067141207
 20
160.3513668223029072
 30
0.0
 11
2973.3598928604910725
 21
160.3784279084671027
 31
0.0
  0
ARC
  5
3FE9C
  8
0
 10
2973.7196407725418794
 20
160.761113486811098
 30
0.0
 40
0.5390698978825519
 50
226.0809951489623018
 51
226.9804302504531961
  0
ARC
  5
3FE9D
  8
0
 10
2973.456336575206933
 20
160.4876815271759938
 30
0.0
 40
0.1594725626911664
 50
219.7586506529057999
 51
226.0809951489623018
  0
ARC
  5
3FE9E
  8
0
 10
2973.351857610659863
 20
160.4007606003906119
 30
0.0
 40
0.0235641319521953
 50
206.1908083553128108
 51
219.7586506529052031
  0
ARC
  5
3FE9F
  8
0
 10
2973.3343445108212109
 20
160.3921465764375114
 30
0.0
 40
0.0040472143001789
 50
183.2744411003866105
 51
206.1908083553616109
  0
ARC
  5
3FEA0
  8
0
 10
2973.3314521703277933
 20
160.3919810996256956
 30
0.0
 40
0.0011501440385256
 50
119.250544529827593
 51
183.2744411005452037
  0
ARC
  5
3FEA1
  8
0
 10
2973.3316434592870792
 20
160.3916395362263074
 30
0.0
 40
0.0015416245892418
 50
86.5202397551138631
 51
119.2505445297378941
  0
ARC
  5
3FEA2
  8
0
 10
2973.3309741484681581
 20
160.380632593013587
 30
0.0
 40
0.012568898770168
 50
68.5638739940748252
 51
86.5202397551138631
  0
ARC
  5
3FEA3
  8
0
 10
2973.3110143598719333
 20
160.3297955917213073
 30
0.0
 40
0.0671838588197298
 50
63.2762387071336789
 51
68.5638739940748252
  0
ARC
  5
3FEA4
  8
0
 10
2973.3170386426500045
 20
160.3417611800211091
 30
0.0
 40
0.0537873187309023
 50
54.2016933026115666
 51
63.2762387071336789
  0
ARC
  5
3FEA5
  8
0
 10
2973.237540162375808
 20
160.1909393861714932
 30
0.0
 40
0.223879719332646
 50
56.8720288474820705
 51
60.2889955976679204
  0
ARC
  5
3FEA6
  8
0
 10
2973.0249115784658898
 20
159.8668505451254873
 30
0.0
 40
0.6114931381384189
 50
46.0459307723313174
 51
56.7831875205497312
  0
ARC
  5
3FEA7
  8
0
 10
2973.3850423686908471
 20
160.2353575240379087
 30
0.0
 40
0.0963091617051646
 50
39.9190375016758168
 51
48.1184713406409799
  0
ARC
  5
3FEA8
  8
0
 10
2973.4329152719619742
 20
160.2752914051812922
 30
0.0
 40
0.0339673196830261
 50
30.08218257733256
 51
40.0757209835483508
  0
ARC
  5
3FEA9
  8
0
 10
2973.4561463642689887
 20
160.2887911284024938
 30
0.0
 40
0.007098757760426
 50
13.04039305786781
 51
29.783400734919649
  0
ARC
  5
3FEAA
  8
0
 10
2973.4610028620131743
 20
160.2899758250441948
 30
0.0
 40
0.0021010006063811
 50
352.3036413456792957
 51
11.44935928826742
  0
ARC
  5
3FEAB
  8
0
 10
2973.4620190205291692
 20
160.2898385007829916
 30
0.0
 40
0.0010756050335611
 50
325.2793602496810763
 51
352.3036413457172102
  0
ARC
  5
3FEAC
  8
0
 10
2973.4620563447720087
 20
160.2898126363540996
 30
0.0
 40
0.0010301950359142
 50
288.7577008511868257
 51
325.2793602495958112
  0
ARC
  5
3FEAD
  8
0
 10
2973.4615252969788344
 20
160.291376362182092
 30
0.0
 40
0.0026816338704305
 50
265.4443680264599834
 51
288.7577008512142811
  0
ARC
  5
3FEAE
  8
0
 10
2973.4621035529471555
 20
160.2986337039095019
 30
0.0
 40
0.0099619765074782
 50
253.2695483111220938
 51
265.4443680264599834
  0
ARC
  5
3FEAF
  8
0
 10
2973.4676515319169994
 20
160.3170904357025961
 30
0.0
 40
0.0292345222429828
 50
246.0341946770049901
 51
253.2695483111220938
  0
ARC
  5
3FEB0
  8
0
 10
2973.4900275476070419
 20
160.3674286201786003
 30
0.0
 40
0.0843218973350695
 50
240.9140296733137063
 51
246.0341946770049901
  0
ARC
  5
3FEB1
  8
0
 10
2973.5579333227287862
 20
160.4895015502204956
 30
0.0
 40
0.224010817954631
 50
239.1354605901134107
 51
240.9140296733137063
  0
ARC
  5
3FEB2
  8
0
 10
2973.5542804227120541
 20
160.4833894176200033
 30
0.0
 40
0.2168902952591604
 50
238.6761330687652105
 51
239.1354605901134107
  0
ARC
  5
3FEB3
  8
0
 10
2973.6265153815338635
 20
160.0512722543820132
 30
0.0
 40
0.0697711467499409
 50
35.6776039514490222
 51
68.1362453751814883
  0
ARC
  5
3FEB4
  8
0
 10
2973.7192307289387827
 20
160.1695459863497035
 30
0.0
 40
0.0855437720558317
 50
218.7304399235748917
 51
245.0834238164262047
  0
LINE
  5
3FEB5
  8
0
 10
2973.7384140521489826
 20
160.1013258612294976
 30
0.0
 11
2973.7173084407468195
 21
160.0771497491307969
 31
0.0
  0
ARC
  5
3FEB6
  8
0
 10
2973.7085958767820557
 20
160.0855376944747945
 30
0.0
 40
0.0120940645754925
 50
243.2433419256803973
 51
316.0875140053382211
  0
ARC
  5
3FEB7
  8
0
 10
2973.7638644943031068
 20
160.2015185057431097
 30
0.0
 40
0.1405676528061263
 50
233.2188136703869077
 51
244.4107959602800975
  0
ARC
  5
3FEB8
  8
0
 10
2973.9427233610390431
 20
160.4505941381399907
 30
0.0
 40
0.4471916622081318
 50
227.5477908609402959
 51
233.972663841447087
  0
ARC
  5
3FEB9
  8
0
 10
2973.7001737161358506
 20
160.1854539871895895
 30
0.0
 40
0.0878455478717792
 50
217.8513554930401881
 51
227.5477908609402959
  0
ARC
  5
3FEBA
  8
0
 10
2973.6412082556248606
 20
160.139630976664904
 30
0.0
 40
0.0131684173240906
 50
179.8809535385518075
 51
217.8513554930381986
  0
ARC
  5
3FEBB
  8
0
 10
2973.6383092048718026
 20
160.1396370001841944
 30
0.0
 40
0.0102693603128002
 50
144.2944231809204041
 51
179.8809535385501874
  0
LINE
  5
3FEBC
  8
0
 10
2973.6299702098508533
 20
160.1456304068358918
 30
0.0
 11
2973.6489692636291693
 21
160.1726914930000021
 31
0.0
  0
ARC
  5
3FEBD
  8
0
 10
2974.0087171756799762
 20
160.5553770713441111
 30
0.0
 40
0.5390698978825519
 50
226.0809951489623018
 51
226.9804302504531961
  0
ARC
  5
3FEBE
  8
0
 10
2973.7454129783441203
 20
160.2819451117090068
 30
0.0
 40
0.1594725626911664
 50
219.7586506529057999
 51
226.0809951489623018
  0
ARC
  5
3FEBF
  8
0
 10
2973.6409340137979598
 20
160.1950241849235965
 30
0.0
 40
0.0235641319521953
 50
206.1908083553128108
 51
219.7586506529052031
  0
ARC
  5
3FEC0
  8
0
 10
2973.6234209139588529
 20
160.1864101609706097
 30
0.0
 40
0.0040472143001789
 50
183.2744411003866105
 51
206.1908083553616109
  0
ARC
  5
3FEC1
  8
0
 10
2973.6205285734658901
 20
160.1862446841587939
 30
0.0
 40
0.0011501440385256
 50
119.250544529827593
 51
183.2744411005452037
  0
ARC
  5
3FEC2
  8
0
 10
2973.620719862425176
 20
160.1859031207594057
 30
0.0
 40
0.0015416245892418
 50
86.5202397551138631
 51
119.2505445297378941
  0
ARC
  5
3FEC3
  8
0
 10
2973.6200505516058001
 20
160.1748961775466
 30
0.0
 40
0.012568898770168
 50
68.5638739940748252
 51
86.5202397551138631
  0
ARC
  5
3FEC4
  8
0
 10
2973.6000907630100301
 20
160.124059176254292
 30
0.0
 40
0.0671838588197298
 50
63.2762387071336789
 51
68.5638739940748252
  0
ARC
  5
3FEC5
  8
0
 10
2973.6061150457881013
 20
160.1360247645540937
 30
0.0
 40
0.0537873187309023
 50
54.2016933026115666
 51
63.2762387071336789
  0
ARC
  5
3FEC6
  8
0
 10
2973.5266165655139048
 20
159.9852029707045915
 30
0.0
 40
0.223879719332646
 50
56.8720288474820705
 51
60.2889955976679204
  0
ARC
  5
3FEC7
  8
0
 10
2973.3139879816039866
 20
159.6611141296585004
 30
0.0
 40
0.6114931381384189
 50
46.0459307723313174
 51
56.7831875205497312
  0
ARC
  5
3FEC8
  8
0
 10
2973.6741187718289439
 20
160.029621108571007
 30
0.0
 40
0.0963091617051646
 50
39.9190375016758168
 51
48.1184713406409799
  0
ARC
  5
3FEC9
  8
0
 10
2973.721991675100071
 20
160.0695549897143053
 30
0.0
 40
0.0339673196830261
 50
30.08218257733256
 51
40.0757209835483508
  0
ARC
  5
3FECA
  8
0
 10
2973.7452227674070855
 20
160.0830547129355068
 30
0.0
 40
0.007098757760426
 50
13.04039305786781
 51
29.783400734919649
  0
ARC
  5
3FECB
  8
0
 10
2973.7500792651521806
 20
160.0842394095772931
 30
0.0
 40
0.0021010006063811
 50
352.3036413456792957
 51
11.44935928826742
  0
ARC
  5
3FECC
  8
0
 10
2973.7510954236668113
 20
160.0841020853160046
 30
0.0
 40
0.0010756050335611
 50
325.2793602496810763
 51
352.3036413457172102
  0
ARC
  5
3FECD
  8
0
 10
2973.7511327479101055
 20
160.0840762208871979
 30
0.0
 40
0.0010301950359142
 50
288.7577008511868257
 51
325.2793602495958112
  0
ARC
  5
3FECE
  8
0
 10
2973.7506017001169312
 20
160.085639946715105
 30
0.0
 40
0.0026816338704305
 50
265.4443680264599834
 51
288.7577008512142811
  0
ARC
  5
3FECF
  8
0
 10
2973.7511799560847976
 20
160.0928972884424866
 30
0.0
 40
0.0099619765074782
 50
253.2695483111220938
 51
265.4443680264599834
  0
ARC
  5
3FED0
  8
0
 10
2973.7567279350541867
 20
160.1113540202354955
 30
0.0
 40
0.0292345222429828
 50
246.0341946770049901
 51
253.2695483111220938
  0
ARC
  5
3FED1
  8
0
 10
2973.7791039507451387
 20
160.1616922047116134
 30
0.0
 40
0.0843218973350695
 50
240.9140296733137063
 51
246.0341946770049901
  0
ARC
  5
3FED2
  8
0
 10
2973.8470097258668829
 20
160.2837651347535086
 30
0.0
 40
0.224010817954631
 50
239.1354605901134107
 51
240.9140296733137063
  0
ARC
  5
3FED3
  8
0
 10
2973.8433568258501509
 20
160.2776530021529879
 30
0.0
 40
0.2168902952591604
 50
238.6761330687652105
 51
239.1354605901134107
  0
ARC
  5
3FED4
  8
0
 10
2973.1613146462741497
 20
160.500871464424506
 30
0.0
 40
0.0215619838984234
 50
27.1924675820187893
 51
42.9654359788754903
  0
LINE
  5
3FED5
  8
0
 10
2973.9139791177080951
 20
159.9326449324466921
 30
0.0
 11
2973.8966041569528898
 21
159.9110288302638025
 31
0.0
  0
ARC
  5
3FED6
  8
0
 10
2973.888760529343017
 20
159.9173335155743132
 30
0.0
 40
0.0100633767167087
 50
241.1692782755750102
 51
321.2077792248559831
  0
ARC
  5
3FED7
  8
0
 10
2974.0683036435611939
 20
160.2435068293092115
 30
0.0
 40
0.3823868388515219
 50
227.360741391922403
 51
241.1692782755750102
  0
ARC
  5
3FED8
  8
0
 10
2973.8150989169921559
 20
159.970485928670513
 30
0.0
 40
0.010115158163694
 50
147.3904442026868082
 51
234.8981338291185068
  0
LINE
  5
3FED9
  8
0
 10
2973.8065782867802227
 20
159.9759371015223905
 30
0.0
 11
2973.8073998813270009
 21
159.97722698721401
 31
0.0
  0
ARC
  5
3FEDA
  8
0
 10
2974.1937732192668591
 20
160.3373511958099016
 30
0.0
 40
0.4938574729955605
 50
235.326406850935598
 51
237.9819412622670995
  0
ARC
  5
3FEDB
  8
0
 10
2973.8242836372251077
 20
159.7993000228576079
 30
0.0
 40
0.1607051465651159
 50
47.9422608721025583
 51
56.0729468506869111
  0
ARC
  5
3FEDC
  8
0
 10
2971.7974318859219238
 20
157.1044833514087031
 30
0.0
 40
3.5324594991084339
 50
53.1894532526113224
 51
54.5059856061361785
  0
LINE
  5
3FEDD
  8
0
 10
2973.857300027681049
 20
159.9911807960195063
 30
0.0
 11
2973.848441113033914
 21
159.9805277292207109
 31
0.0
  0
LINE
  5
3FEDE
  8
0
 10
2973.848441113033914
 20
159.9805277292207109
 30
0.0
 11
2973.8386305018339044
 21
159.9684614174273065
 31
0.0
  0
ARC
  5
3FEDF
  8
0
 10
2973.8306371097719421
 20
159.974960508701713
 30
0.0
 40
0.010302063096895
 50
244.9560023165778944
 51
320.8868889026982174
  0
ARC
  5
3FEE0
  8
0
 10
2973.9057526636638613
 20
160.1160899791092049
 30
0.0
 40
0.1701635319531878
 50
234.6910981021669897
 51
242.1563830236248123
  0
ARC
  5
3FEE1
  8
0
 10
2974.1587789367517871
 20
160.4968370371763058
 30
0.0
 40
0.6272636861622721
 50
229.5350872161646123
 51
235.9320209338372081
  0
ARC
  5
3FEE2
  8
0
 10
2973.758044316015912
 20
160.0282156840636105
 30
0.0
 40
0.0106918171888955
 50
147.3027655211124056
 51
233.5756293408510942
  0
LINE
  5
3FEE3
  8
0
 10
2973.7490467577840718
 20
160.0339914005257924
 30
0.0
 11
2973.7654882752308367
 21
160.0591283307537083
 31
0.0
  0
ARC
  5
3FEE4
  8
0
 10
2974.3506624688179727
 20
160.7808379767552083
 30
0.0
 40
0.9357846321268773
 50
229.4231780207994973
 51
231.0059774803224002
  0
ARC
  5
3FEE5
  8
0
 10
2973.7621081070251421
 20
160.0935973694292045
 30
0.0
 40
0.0309664795996532
 50
213.4446652597231946
 51
229.4231780207994973
  0
ARC
  5
3FEE6
  8
0
 10
2973.652263284322089
 20
159.9022677750228922
 30
0.0
 40
0.1934543083912888
 50
54.177498630690323
 51
64.2629835775401688
  0
ARC
  5
3FEE7
  8
0
 10
2972.9558335482402072
 20
158.8690770808503885
 30
0.0
 40
1.4393604694976541
 50
51.2225866828211025
 51
55.7704757428038533
  0
ARC
  5
3FEE8
  8
0
 10
2973.8179280180452224
 20
159.9346355246771907
 30
0.0
 40
0.0689022703102814
 50
37.7485308947538769
 51
55.1508211868387193
  0
ARC
  5
3FEE9
  8
0
 10
2973.9046175516068615
 20
160.0572721431317973
 30
0.0
 40
0.0866622656677103
 50
234.1418341793684021
 51
248.1825055771969062
  0
ARC
  5
3FEEA
  8
0
 10
2980.6792958363062098
 20
169.4137399270163087
 30
0.0
 40
11.6500000001209791
 50
233.2844537109359067
 51
233.5376245399598929
  0
ARC
  5
3FEEB
  8
0
 10
2980.6792958359169461
 20
169.4137399265042063
 30
0.0
 40
11.6499999994778403
 50
232.4093823089937985
 51
232.752626756154001
  0
LINE
  5
3FEEC
  8
0
 10
2973.5752047580608632
 20
160.1853929877026133
 30
0.0
 11
2973.5569641298911847
 21
160.1643138236370874
 31
0.0
  0
ARC
  5
3FEED
  8
0
 10
2973.5492848208068608
 20
160.170959031254597
 30
0.0
 40
0.0101553223631881
 50
233.0718507987270129
 51
319.1290777321472092
  0
ARC
  5
3FEEE
  8
0
 10
2975.1595381314600672
 20
162.31342205939319
 30
0.0
 40
2.6902791164089299
 50
231.1410538244097097
 51
233.0718507987270129
  0
ARC
  5
3FEEF
  8
0
 10
2973.4782902672609453
 20
160.2267711423355934
 30
0.0
 40
0.0105950994905936
 50
147.5809878468807028
 51
231.1410538244417125
  0
LINE
  5
3FEF0
  8
0
 10
2973.4693464131951259
 20
160.2324512486422066
 30
0.0
 11
2973.4855584474339594
 21
160.2557164193586061
 31
0.0
  0
ARC
  5
3FEF1
  8
0
 10
2973.8677704361130054
 20
160.7351014830180986
 30
0.0
 40
0.6160823734926844
 50
228.0309160972823861
 51
231.4526603695740903
  0
ARC
  5
3FEF2
  8
0
 10
2973.2507878311930654
 20
159.9593037861802998
 30
0.0
 40
0.3781239100581652
 50
51.619373147654791
 51
57.1716376328343614
  0
ARC
  5
3FEF3
  8
0
 10
2971.5858773823001684
 20
157.7417560263502025
 30
0.0
 40
3.1509974622078549
 50
50.8514931269392605
 51
52.9233820524110499
  0
ARC
  5
3FEF4
  8
0
 10
2973.4912651540171282
 20
160.0773520669415859
 30
0.0
 40
0.1368162917417806
 50
44.8735879836673419
 51
52.1555020316982407
  0
ARC
  5
3FEF5
  8
0
 10
2973.647149554016778
 20
160.2764357207628905
 30
0.0
 40
0.1182780103787046
 50
231.6347143313394952
 51
240.1182547550498043
  0
ARC
  5
3FEF6
  8
0
 10
2990.8108152816521397
 20
182.3012056732652013
 30
0.0
 40
28.0431217321157185
 50
231.7112983341291965
 51
231.8371869859855963
  0
ARC
  5
3FEF7
  8
0
 10
2986.5024386626678279
 20
176.4502456134123918
 30
0.0
 40
20.7832447964337312
 50
230.0575182095313096
 51
230.7302614010127115
  0
LINE
  5
3FEF8
  8
0
 10
2973.181369219464159
 20
160.497428521819586
 30
0.0
 11
2973.1652997439928185
 21
160.4759341526487049
 31
0.0
  0
ARC
  5
3FEF9
  8
0
 10
2973.1733089102190206
 20
160.4699463937521955
 30
0.0
 40
0.010000000012385
 50
143.2177226393235117
 51
230.218426782064995
  0
LINE
  5
3FEFA
  8
0
 10
2973.1669102844089139
 20
160.4622615002600128
 30
0.0
 11
2973.2368585406197781
 21
160.4040209120148859
 31
0.0
  0
ARC
  5
3FEFB
  8
0
 10
2973.2432573717501327
 20
160.4117060520997882
 30
0.0
 40
0.0100003208921353
 50
230.2184267820655066
 51
317.2095599806971222
  0
LINE
  5
3FEFC
  8
0
 10
2973.2505960394460089
 20
160.4049126454150098
 30
0.0
 11
2973.2689301428467843
 21
160.4247183038447133
 31
0.0
  0
ARC
  5
3FEFD
  8
0
 10
2984.0205977747259567
 20
173.232682480496095
 30
0.0
 40
16.7242724182948308
 50
228.2755171312963114
 51
229.000172360954906
  0
LINE
  5
3FEFE
  8
0
 10
2973.912313762121812
 20
159.9305730715290963
 30
0.0
 11
2974.1457138373830276
 21
159.768281654470286
 31
0.0
  0
ARC
  5
3FEFF
  8
0
 10
2983.0143784977749419
 20
171.9446816178353004
 30
0.0
 40
15.0935841729845208
 50
225.737770710100591
 51
227.3373610282658035
  0
LINE
  5
3FF00
  8
0
 10
2972.4970699787381818
 20
161.1508090825236081
 30
0.0
 11
2972.4748371783612129
 21
161.1307974913925136
 31
0.0
  0
ARC
  5
3FF01
  8
0
 10
2972.4680582996948033
 20
161.1383287993810995
 30
0.0
 40
0.0101328079020054
 50
225.3000089425125907
 51
311.9901607584263843
  0
ARC
  5
3FF02
  8
0
 10
2972.7575762809037769
 20
161.494641786839793
 30
0.0
 40
0.4691928106450902
 50
219.5887396391599111
 51
230.783966222702702
  0
ARC
  5
3FF03
  8
0
 10
2972.4042739281749164
 20
161.2021667090741914
 30
0.0
 40
0.0105408706307713
 50
137.0488748735918989
 51
218.2695977063982014
  0
LINE
  5
3FF04
  8
0
 10
2972.3965586939348213
 20
161.2093489868651943
 30
0.0
 11
2972.4163978220731224
 21
161.2315504725465871
 31
0.0
  0
ARC
  5
3FF05
  8
0
 10
2972.3106307611510601
 20
161.0449825828752921
 30
0.0
 40
0.1684636867279184
 50
38.3755234602545414
 51
51.6691530071015634
  0
ARC
  5
3FF06
  8
0
 10
2972.5515706111427789
 20
161.2861103663960876
 30
0.0
 40
0.174634017955816
 50
218.6113752126063048
 51
231.4332981763986083
  0
LINE
  5
3FF07
  8
0
 10
2972.5142901120498209
 20
161.3298253128812121
 30
0.0
 11
2972.4910223057299845
 21
161.3039472625536916
 31
0.0
  0
ARC
  5
3FF08
  8
0
 10
2972.4999712723060838
 20
161.295900952325411
 30
0.0
 40
0.0120344136150283
 50
138.0402476454858913
 51
202.6268184827108882
  0
ARC
  5
3FF09
  8
0
 10
2972.5481412361318689
 20
161.3159786318719
 30
0.0
 40
0.0642211804338814
 50
202.6268184827108882
 51
219.2567445899732093
  0
ARC
  5
3FF0A
  8
0
 10
2972.6743904242330245
 20
161.4111878359512104
 30
0.0
 40
0.2223118454668353
 50
217.6669247900520929
 51
236.9596008366916919
  0
ARC
  5
3FF0B
  8
0
 10
2972.5609063146839617
 20
161.2360151954883065
 30
0.0
 40
0.0135972799293515
 50
235.3697810367804095
 51
309.2869437332807934
  0
LINE
  5
3FF0C
  8
0
 10
2972.5695161737608032
 20
161.2254911112925129
 30
0.0
 11
2972.5953801690611726
 21
161.2487332568925069
 31
0.0
  0
ARC
  5
3FF0D
  8
0
 10
2971.0736568675029048
 20
159.1667507566355937
 30
0.0
 40
2.559934055858843
 50
53.8577880963315465
 51
53.9259098733873117
  0
ARC
  5
3FF0E
  8
0
 10
2972.651516605856159
 20
161.3271913485025948
 30
0.0
 40
0.1153500234309567
 50
233.8577880963314897
 51
240.9825518017827051
  0
ARC
  5
3FF0F
  8
0
 10
2972.6143791095000779
 20
161.2602416221006933
 30
0.0
 40
0.0387898542773519
 50
240.9825518017827051
 51
250.8620591528477917
  0
ARC
  5
3FF10
  8
0
 10
2972.605571459445855
 20
161.2348610139825098
 30
0.0
 40
0.0119244496104094
 50
250.8620591528477917
 51
267.298542480826427
  0
ARC
  5
3FF11
  8
0
 10
2972.6051458528181684
 20
161.2258409236920045
 30
0.0
 40
0.0028943239273616
 50
267.2985424807741879
 51
339.4621297020370889
  0
ARC
  5
3FF12
  8
0
 10
2972.6049340089862199
 20
161.2259202884885951
 30
0.0
 40
0.0031205463400299
 50
339.4621297021103032
 51
12.4296165990781091
  0
ARC
  5
3FF13
  8
0
 10
2972.5746678335958677
 20
161.2192494353080008
 30
0.0
 40
0.0341131527963288
 50
12.4296165990797007
 51
30.1254853552883404
  0
ARC
  5
3FF14
  8
0
 10
2972.5331126881369528
 20
161.1951360586884903
 30
0.0
 40
0.0821577679582055
 50
30.1254853552876298
 51
40.7204692657994087
  0
ARC
  5
3FF15
  8
0
 10
2972.2844017081511083
 20
161.018852518748389
 30
0.0
 40
0.3867205152555378
 50
36.4724624061202434
 51
53.526125217912373
  0
ARC
  5
3FF16
  8
0
 10
2972.4637529927190371
 20
161.2711158591316121
 30
0.0
 40
0.0774648332224485
 50
49.2781183582387214
 51
64.1801514500432404
  0
ARC
  5
3FF17
  8
0
 10
2972.4903159215791675
 20
161.3260153731255002
 30
0.0
 40
0.0164767538430333
 50
64.1801514500432404
 51
85.8484955916245553
  0
ARC
  5
3FF18
  8
0
 10
2972.4913085243301794
 20
161.3396905088328026
 30
0.0
 40
0.0027656416767282
 50
85.8484955916245553
 51
179.3298254273751979
  0
ARC
  5
3FF19
  8
0
 10
2972.4992447016879851
 20
161.3395976770941047
 30
0.0
 40
0.0107023619555709
 50
179.3298254273638008
 51
202.1106384038889985
  0
ARC
  5
3FF1A
  8
0
 10
2972.5496920806422168
 20
161.3600931455503087
 30
0.0
 40
0.0651541963644627
 50
202.1106384038889985
 51
209.8701367178175872
  0
ARC
  5
3FF1B
  8
0
 10
2972.5876884133590465
 20
161.3819156613043901
 30
0.0
 40
0.1089713561748983
 50
209.870136717816905
 51
217.5971623191153128
  0
ARC
  5
3FF1C
  8
0
 10
2972.4831547344251703
 20
161.2175988258532016
 30
0.0
 40
0.0605667049333043
 50
26.2190879974852784
 51
63.7809117947511623
  0
ARC
  5
3FF1D
  8
0
 10
2972.5648910512040857
 20
161.2993351423359911
 30
0.0
 40
0.0614277722349382
 50
206.4919829805189124
 51
243.5080168117079893
  0
LINE
  5
3FF1E
  8
0
 10
2972.4743910056731693
 20
161.2878984420459858
 30
0.0
 11
2972.4511231993519687
 21
161.2620203917186075
 31
0.0
  0
ARC
  5
3FF1F
  8
0
 10
2972.460072165928068
 20
161.2539740814902984
 30
0.0
 40
0.0120344136150283
 50
138.0402476454858913
 51
202.6268184827108882
  0
ARC
  5
3FF20
  8
0
 10
2972.5082421297538531
 20
161.2740517610367021
 30
0.0
 40
0.0642211804338814
 50
202.6268184827108882
 51
219.2567445899732093
  0
ARC
  5
3FF21
  8
0
 10
2972.6344913178550087
 20
161.3692609651160126
 30
0.0
 40
0.2223118454668353
 50
217.6669247900520929
 51
236.9596008366916919
  0
ARC
  5
3FF22
  8
0
 10
2972.5210072083059458
 20
161.1940883246531087
 30
0.0
 40
0.0135972799293515
 50
235.3697810367804095
 51
309.2869437332807934
  0
LINE
  5
3FF23
  8
0
 10
2972.5296170673827874
 20
161.1835642404572866
 30
0.0
 11
2972.5554810626831568
 21
161.2068063860573943
 31
0.0
  0
ARC
  5
3FF24
  8
0
 10
2971.0337577611248889
 20
159.1248238858005095
 30
0.0
 40
2.559934055858843
 50
53.8577880963315465
 51
53.9259098733873117
  0
ARC
  5
3FF25
  8
0
 10
2972.6116174994767789
 20
161.2852644776675106
 30
0.0
 40
0.1153500234309567
 50
233.8577880963314897
 51
240.9825518017827051
  0
ARC
  5
3FF26
  8
0
 10
2972.574480003122062
 20
161.2183147512656092
 30
0.0
 40
0.0387898542773519
 50
240.9825518017827051
 51
250.8620591528477917
  0
ARC
  5
3FF27
  8
0
 10
2972.5656723530692034
 20
161.1929341431473972
 30
0.0
 40
0.0119244496104094
 50
250.8620591528477917
 51
267.298542480826427
  0
ARC
  5
3FF28
  8
0
 10
2972.565246746441062
 20
161.1839140528568919
 30
0.0
 40
0.0028943239273616
 50
267.2985424807741879
 51
339.4621297020370889
  0
ARC
  5
3FF29
  8
0
 10
2972.5650349026091135
 20
161.183993417653511
 30
0.0
 40
0.0031205463400299
 50
339.4621297021103032
 51
12.4296165990781091
  0
ARC
  5
3FF2A
  8
0
 10
2972.5347687272178518
 20
161.1773225644728882
 30
0.0
 40
0.0341131527963288
 50
12.4296165990797007
 51
30.1254853552883404
  0
ARC
  5
3FF2B
  8
0
 10
2972.4932135817598464
 20
161.1532091878532924
 30
0.0
 40
0.0821577679582055
 50
30.1254853552876298
 51
40.7204692657994087
  0
ARC
  5
3FF2C
  8
0
 10
2972.2445026017730925
 20
160.9769256479133048
 30
0.0
 40
0.3867205152555378
 50
36.4724624061202434
 51
53.526125217912373
  0
ARC
  5
3FF2D
  8
0
 10
2972.4238538863410213
 20
161.2291889882964995
 30
0.0
 40
0.0774648332224485
 50
49.2781183582387214
 51
64.1801514500432404
  0
ARC
  5
3FF2E
  8
0
 10
2972.4504168152011516
 20
161.2840885022903876
 30
0.0
 40
0.0164767538430333
 50
64.1801514500432404
 51
85.8484955916245553
  0
ARC
  5
3FF2F
  8
0
 10
2972.4514094179521635
 20
161.29776363799769
 30
0.0
 40
0.0027656416767282
 50
85.8484955916245553
 51
179.3298254273751979
  0
ARC
  5
3FF30
  8
0
 10
2972.4593455953099692
 20
161.2976708062589069
 30
0.0
 40
0.0107023619555709
 50
179.3298254273638008
 51
202.1106384038889985
  0
ARC
  5
3FF31
  8
0
 10
2972.5097929742642009
 20
161.3181662747151961
 30
0.0
 40
0.0651541963644627
 50
202.1106384038889985
 51
209.8701367178175872
  0
ARC
  5
3FF32
  8
0
 10
2972.5477893069810307
 20
161.3399887904691923
 30
0.0
 40
0.1089713561748983
 50
209.870136717816905
 51
217.5971623191153128
  0
ARC
  5
3FF33
  8
0
 10
2972.4432556280457902
 20
161.175671955018089
 30
0.0
 40
0.0605667049333043
 50
26.2190879974852784
 51
63.7809117947511623
  0
ARC
  5
3FF34
  8
0
 10
2972.5249919448260698
 20
161.2574082715009069
 30
0.0
 40
0.0614277722349382
 50
206.4919829805189124
 51
243.5080168117079893
  0
LINE
  5
3FF35
  8
0
 10
2972.4413707534990863
 20
161.2569688735989928
 30
0.0
 11
2972.4181029471787951
 21
161.231090823271586
 31
0.0
  0
ARC
  5
3FF36
  8
0
 10
2972.427051913753985
 20
161.2230445130431917
 30
0.0
 40
0.0120344136150283
 50
138.0402476454858913
 51
202.6268184827108882
  0
ARC
  5
3FF37
  8
0
 10
2972.4752218775802248
 20
161.2431221925895954
 30
0.0
 40
0.0642211804338814
 50
202.6268184827108882
 51
219.2567445899732093
  0
ARC
  5
3FF38
  8
0
 10
2972.6014710656809257
 20
161.3383313966689059
 30
0.0
 40
0.2223118454668353
 50
217.6669247900520929
 51
236.9596008366916919
  0
ARC
  5
3FF39
  8
0
 10
2972.4879869561318628
 20
161.163158756206002
 30
0.0
 40
0.0135972799293515
 50
235.3697810367804095
 51
309.2869437332807934
  0
LINE
  5
3FF3A
  8
0
 10
2972.4965968152091591
 20
161.1526346720102936
 30
0.0
 11
2972.5224608105090738
 21
161.1758768176102876
 31
0.0
  0
ARC
  5
3FF3B
  8
0
 10
2971.0007375089498964
 20
159.0938943173534028
 30
0.0
 40
2.559934055858843
 50
53.8577880963315465
 51
53.9259098733873117
  0
ARC
  5
3FF3C
  8
0
 10
2972.5785972473040601
 20
161.2543349092204039
 30
0.0
 40
0.1153500234309567
 50
233.8577880963314897
 51
240.9825518017827051
  0
ARC
  5
3FF3D
  8
0
 10
2972.541459750947979
 20
161.1873851828185025
 30
0.0
 40
0.0387898542773519
 50
240.9825518017827051
 51
250.8620591528477917
  0
ARC
  5
3FF3E
  8
0
 10
2972.5326521008942109
 20
161.1620045747002905
 30
0.0
 40
0.0119244496104094
 50
250.8620591528477917
 51
267.298542480826427
  0
ARC
  5
3FF3F
  8
0
 10
2972.5322264942660695
 20
161.1529844844096999
 30
0.0
 40
0.0028943239273616
 50
267.2985424807741879
 51
339.4621297020370889
  0
ARC
  5
3FF40
  8
0
 10
2972.5320146504350305
 20
161.1530638492064043
 30
0.0
 40
0.0031205463400299
 50
339.4621297021103032
 51
12.4296165990781091
  0
ARC
  5
3FF41
  8
0
 10
2972.5017484750442236
 20
161.1463929960256962
 30
0.0
 40
0.0341131527963288
 50
12.4296165990797007
 51
30.1254853552883404
  0
ARC
  5
3FF42
  8
0
 10
2972.4601933295848539
 20
161.1222796194062141
 30
0.0
 40
0.0821577679582055
 50
30.1254853552876298
 51
40.7204692657994087
  0
ARC
  5
3FF43
  8
0
 10
2972.2114823495990095
 20
160.9459960794661981
 30
0.0
 40
0.3867205152555378
 50
36.4724624061202434
 51
37.3589347042959119
  0
ARC
  5
3FF44
  8
0
 10
2972.2114823495990095
 20
160.9459960794661981
 30
0.0
 40
0.3867205152555378
 50
52.2496465519047177
 51
53.526125217912373
  0
ARC
  5
3FF45
  8
0
 10
2972.3908336341669383
 20
161.1982594198493928
 30
0.0
 40
0.0774648332224485
 50
49.2781183582387214
 51
64.1801514500432404
  0
ARC
  5
3FF46
  8
0
 10
2972.4173965630270686
 20
161.2531589338433093
 30
0.0
 40
0.0164767538430333
 50
64.1801514500432404
 51
85.8484955916245553
  0
ARC
  5
3FF47
  8
0
 10
2972.4183891657780805
 20
161.2668340695506117
 30
0.0
 40
0.0027656416767282
 50
85.8484955916245553
 51
179.3298254273751979
  0
ARC
  5
3FF48
  8
0
 10
2972.4263253431358862
 20
161.2667412378118001
 30
0.0
 40
0.0107023619555709
 50
179.3298254273638008
 51
202.1106384038889985
  0
ARC
  5
3FF49
  8
0
 10
2972.4767727220892084
 20
161.2872367062680894
 30
0.0
 40
0.0651541963644627
 50
202.1106384038889985
 51
209.8701367178175872
  0
ARC
  5
3FF4A
  8
0
 10
2972.5147690548078572
 20
161.309059222022114
 30
0.0
 40
0.1089713561748983
 50
209.870136717816905
 51
217.5971623191153128
  0
ARC
  5
3FF4B
  8
0
 10
2972.4102353758730715
 20
161.1447423865710107
 30
0.0
 40
0.0605667049333043
 50
26.2190879974852784
 51
63.7809117947511623
  0
ARC
  5
3FF4C
  8
0
 10
2972.4919716926510773
 20
161.2264787030538002
 30
0.0
 40
0.0614277722349382
 50
206.4919829805189124
 51
243.5080168117079893
  0
ARC
  5
3FF4D
  8
0
 10
2972.3089615092999338
 20
161.1139140497406004
 30
0.0
 40
0.1593138075396892
 50
47.0182071684330012
 51
57.1041239004779584
  0
ARC
  5
3FF4E
  8
0
 10
2972.4862829037060692
 20
161.3005959386258894
 30
0.0
 40
0.1050886716518417
 50
210.2321306370903073
 51
224.8861615651769057
  0
ARC
  5
3FF4F
  8
0
 10
2972.4823172298470126
 20
161.1381424207845896
 30
0.0
 40
0.0194444830077878
 50
40.649280124923429
 51
45.7993067807707277
  0
ARC
  5
3FF50
  8
0
 10
2972.4104141783891464
 20
161.0670626734541884
 30
0.0
 40
0.1205101189369746
 50
31.4518945999287389
 51
44.0218457445725235
  0
ARC
  5
3FF51
  8
0
 10
2972.5835966820100111
 20
161.2436326005341982
 30
0.0
 40
0.1337001871927708
 50
226.7538394299411948
 51
238.242580839818288
  0
ARC
  5
3FF52
  8
0
 10
50001.5709548778177123
 20
47190.3072269510666956
 30
0.0
 40
66508.6205858196335612
 50
224.9975810573596107
 51
225.002421133089598
  0
LINE
  5
3FF53
  8
0
 10
2974.2359998508868557
 20
163.4698970318661964
 30
0.0
 11
2974.7354529406347865
 21
162.9704439422187932
 31
0.0
  0
ARC
  5
3FF54
  8
0
 10
2974.912114516560905
 20
163.9095062897058881
 30
0.0
 40
0.0109304988953739
 50
90.0969311221935953
 51
132.225879867878092
  0
ARC
  5
3FF55
  8
0
 10
2974.912144470324165
 20
163.891800700671098
 30
0.0
 40
0.0286361132675803
 50
63.4152131778729284
 51
90.0969311221935953
  0
ARC
  5
3FF56
  8
0
 10
2974.7218464072511779
 20
163.4565085970789937
 30
0.0
 40
0.5036709263475366
 50
44.9824565732874504
 51
66.2174906408300643
  0
ARC
  5
3FF57
  8
0
 10
2974.7221629952077819
 20
163.4563579356259879
 30
0.0
 40
0.5035536057993593
 50
23.7800066028648516
 51
45.0200458070851113
  0
ARC
  5
3FF58
  8
0
 10
2975.1365305479130257
 20
163.6415650338286127
 30
0.0
 40
0.0497432621584172
 50
6.0120207732168014
 51
21.0153183737127911
  0
ARC
  5
3FF59
  8
0
 10
2975.1751953011680598
 20
163.6465224693718028
 30
0.0
 40
0.0108078687725462
 50
317.445720206757926
 51
1.3388605703604
  0
LINE
  5
3FF5A
  8
0
 10
2975.1831567769609137
 20
163.6392132333924962
 30
0.0
 11
2974.7751311297110988
 21
163.2311875861425108
 31
0.0
  0
ARC
  5
3FF5B
  8
0
 10
2974.7077699204578494
 20
163.2987221594306106
 30
0.0
 40
0.0953858000172133
 50
294.0398614692255137
 51
314.926365213091799
  0
ARC
  5
3FF5C
  8
0
 10
2974.7007399424678624
 20
163.3144822309861866
 30
0.0
 40
0.1126426956238608
 50
271.4995138500055987
 51
294.0398614692255137
  0
ARC
  5
3FF5D
  8
0
 10
2974.6993368774801638
 20
163.3680805003097873
 30
0.0
 40
0.1662593261207681
 50
250.1463302555752932
 51
271.4995138500055987
  0
ARC
  5
3FF5E
  8
0
 10
2974.730058936434034
 20
163.4531641514194007
 30
0.0
 40
0.2567196632444389
 50
232.1791473933820953
 51
250.1463302555752932
  0
ARC
  5
3FF5F
  8
0
 10
2974.7782595036210296
 20
163.5152572718502029
 30
0.0
 40
0.3353253264117852
 50
225.3085383275227969
 51
232.1791473933820953
  0
ARC
  5
3FF60
  8
0
 10
2974.745165359720886
 20
163.4818047701556907
 30
0.0
 40
0.2882690597720062
 50
214.3439825473876965
 51
225.3085383275227969
  0
ARC
  5
3FF61
  8
0
 10
2974.7279494620029254
 20
163.4700415055405074
 30
0.0
 40
0.2674181238542743
 50
201.9430615317563138
 51
214.3439825473876965
  0
ARC
  5
3FF62
  8
0
 10
2974.6410613776720311
 20
163.4350368416230879
 30
0.0
 40
0.1737438707497714
 50
180.5865536568701089
 51
201.9430615317563138
  0
ARC
  5
3FF63
  8
0
 10
2974.5828945611151539
 20
163.4344413501021052
 30
0.0
 40
0.1155740060553332
 50
157.636136159788407
 51
180.5865536568717005
  0
ARC
  5
3FF64
  8
0
 10
2974.5645480952020989
 20
163.4419896844304105
 30
0.0
 40
0.0957354032167103
 50
135.0927054435294963
 51
157.636136159788407
  0
LINE
  5
3FF65
  8
0
 10
2974.4967434992599919
 20
163.5095752168925003
 30
0.0
 11
2974.9047686184599115
 21
163.9176003360925051
 31
0.0
  0
LINE
  5
3FF66
  8
0
 10
2975.4541848698609101
 20
163.6144582547925097
 30
0.0
 11
2976.1758709076138985
 21
164.3361442925028086
 31
0.0
  0
ARC
  5
3FF67
  8
0
 10
2977.2478447878611405
 20
163.2641704121924988
 30
0.0
 40
1.515999999999982
 50
90.0
 51
134.9999999983147916
  0
LINE
  5
3FF68
  8
0
 10
2977.2478447878611405
 20
164.7801704121924899
 30
0.0
 11
2978.614242268623002
 21
164.7801704121924899
 31
0.0
  0
LINE
  5
3FF69
  8
0
 10
2979.2327330300208814
 20
165.8419751067924892
 30
0.0
 11
2979.2326756980210121
 21
164.5299911548925138
 31
0.0
  0
LINE
  5
3FF6A
  8
0
 10
2979.611000296335078
 20
166.8160847984368047
 30
0.0
 11
2979.611000296335078
 21
163.5562785841721904
 31
0.0
  0
LINE
  5
3FF6B
  8
0
 10
2979.611000296335078
 20
141.3121091262455025
 30
0.0
 11
2979.611000296335078
 21
135.0585337818804987
 31
0.0
  0
LINE
  5
3FF6C
  8
0
 10
2974.9047686184599115
 20
163.9176003360925051
 30
0.0
 11
2975.1831567769609137
 21
163.6392132333924962
 31
0.0
  0
LINE
  5
3FF6D
  8
0
 10
2979.7936950563930623
 20
141.3921086626218084
 30
0.0
 11
2979.8136950566208725
 21
141.3921086626218084
 31
0.0
  0
LINE
  5
3FF6E
  8
0
 10
2979.8136950566208725
 20
141.3921086626218084
 30
0.0
 11
2979.8136950566208725
 21
134.9802324230217891
 31
0.0
  0
LINE
  5
3FF6F
  8
0
 10
2978.8136954612009504
 20
137.1131871007316079
 30
0.0
 11
2978.8136959820208176
 21
139.2600799801996061
 31
0.0
  0
ARC
  5
3FF70
  8
0
 10
2978.8451549846699891
 20
139.2595992884882889
 30
0.0
 40
0.0314626749047049
 50
110.1647849430946025
 51
179.1245919818468053
  0
ARC
  5
3FF71
  8
0
 10
2978.7340395890041691
 20
139.5621758334401079
 30
0.0
 40
0.290871308269299
 50
290.1647849430946167
 51
314.3943692760171871
  0
ARC
  5
3FF72
  8
0
 10
2978.6302692863910124
 20
139.5972635577618064
 30
0.0
 40
0.3916931737175453
 50
321.6694044253940206
 51
345.0422385703923851
  0
ARC
  5
3FF73
  8
0
 10
2995.9986140086098203
 20
135.7315321574116069
 30
0.0
 40
17.4020102601436086
 50
161.7572614514890859
 51
167.506244601206987
  0
ARC
  5
3FF74
  8
0
 10
2979.6609045556328965
 20
141.1156274226271989
 30
0.0
 40
0.2000000006794308
 50
113.646631984273597
 51
161.491237782767513
  0
LINE
  5
3FF75
  8
0
 10
2979.580685613220794
 20
141.2988347411217944
 30
0.0
 11
2979.7936950566208907
 21
141.392108662721796
 31
0.0
  0
ARC
  5
3FF76
  8
0
 10
2978.7636950566211453
 20
138.1848969096218127
 30
0.0
 40
1.049999999999937
 50
256.1763150543030179
 51
272.7294250422402797
  0
LINE
  5
3FF77
  8
0
 10
2978.5128134274209515
 20
137.1653095381180947
 30
0.0
 11
2976.8527869902841303
 21
137.5737788353102076
 31
0.0
  0
ARC
  5
3FF78
  8
0
 10
2976.8599550368357995
 20
137.6029099030818941
 30
0.0
 40
0.0300000000149073
 50
180.0000001146765953
 51
256.1763150543030179
  0
LINE
  5
3FF79
  8
0
 10
2976.8299550368210475
 20
137.6029099030218106
 30
0.0
 11
2976.8299550344909221
 21
138.7668839162217864
 31
0.0
  0
ARC
  5
3FF7A
  8
0
 10
2976.8599296851079998
 20
138.7668839162818131
 30
0.0
 40
0.029974650616257
 50
103.7857063874382959
 51
180.0000001146750037
  0
LINE
  5
3FF7B
  8
0
 10
2976.8527869902209204
 20
138.7959951098218028
 30
0.0
 11
2978.5128130624748337
 21
139.2044841913262019
 31
0.0
  0
ARC
  5
3FF7C
  8
0
 10
2978.7748363606629027
 20
138.1240084297934914
 30
0.0
 40
1.1117931834871111
 50
90.5730900343546779
 51
103.6314720339516953
  0
ARC
  5
3FF7D
  8
0
 10
2978.8897150893731123
 20
141.709099562233007
 30
0.0
 40
2.476560843183103
 50
267.0837254660276017
 51
268.2410047950914986
  0
LINE
  5
3FF7E
  8
0
 10
2976.807955036821113
 20
138.766604179973001
 30
0.0
 11
2976.8079547319071025
 21
137.6028462690636047
 31
0.0
  0
ARC
  5
3FF7F
  8
0
 10
2976.7879554292940156
 20
137.6028462743018963
 30
0.0
 40
0.0199993026136347
 50
262.2443402515456228
 51
359.9999849927535251
  0
ARC
  5
3FF80
  8
0
 10
2976.0595531200528967
 20
133.1215924472456891
 30
0.0
 40
4.5200740848846488
 50
80.7611073253272025
 51
86.305930594429455
  0
ARC
  5
3FF81
  8
0
 10
2980.9835834842810982
 20
102.9533126037821944
 30
0.0
 40
36.0781039733293625
 50
96.6909389148210181
 51
98.5483813861694813
  0
ARC
  5
3FF82
  8
0
 10
2976.7972930672808616
 20
138.6798138416930044
 30
0.0
 40
0.1072823139665305
 50
96.4312807388560458
 51
99.2808688927070477
  0
ARC
  5
3FF83
  8
0
 10
2976.7881726578439157
 20
138.7578017586698138
 30
0.0
 40
0.0287654552831244
 50
90.652283467752369
 51
95.7789972711298248
  0
ARC
  5
3FF84
  8
0
 10
2976.7871821726521375
 20
138.7626321551269086
 30
0.0
 40
0.0239423765718125
 50
69.6121225088648856
 51
88.4131628613051248
  0
ARC
  5
3FF85
  8
0
 10
2976.7880243512681773
 20
138.7666084528929957
 30
0.0
 40
0.0199306860100995
 50
359.9877164145901816
 51
67.8990418975701573
  0
ARC
  5
3FF86
  8
0
 10
2976.7999567293568361
 20
138.7440882229628869
 30
0.0
 40
0.0299983074719035
 50
285.4635235555276154
 51
0.0012656567209213
  0
ARC
  5
3FF87
  8
0
 10
2976.7999517038770136
 20
137.625703772569608
 30
0.0
 40
0.0300033557335723
 50
1.1592437603417689
 51
74.5297364777929658
  0
LINE
  5
3FF88
  8
0
 10
2979.7936950563930623
 20
134.9802324230217891
 30
0.0
 11
2979.8136950566208725
 21
134.9802324230217891
 31
0.0
  0
ARC
  5
3FF89
  8
0
 10
2978.8451549846699891
 20
137.1127417971553086
 30
0.0
 40
0.0314626749047049
 50
179.1890432869298877
 51
249.8352150569054118
  0
ARC
  5
3FF8A
  8
0
 10
2978.7340395890041691
 20
136.8101652522036034
 30
0.0
 40
0.290871308269299
 50
45.6056307239826992
 51
69.8352150569054118
  0
ARC
  5
3FF8B
  8
0
 10
2978.6302692863910124
 20
136.7750775278817912
 30
0.0
 40
0.3916931737175453
 50
14.9577614296075705
 51
38.3305955746060221
  0
ARC
  5
3FF8C
  8
0
 10
2995.9986140086098203
 20
140.6408089282319906
 30
0.0
 40
17.4020102601436086
 50
192.4937553987928993
 51
198.2427385485108005
  0
ARC
  5
3FF8D
  8
0
 10
2979.6609045556328965
 20
135.2567136630165123
 30
0.0
 40
0.2000000006794308
 50
198.5087622172316912
 51
246.353368015726403
  0
LINE
  5
3FF8E
  8
0
 10
2979.580685613220794
 20
135.0735063445218032
 30
0.0
 11
2979.7936950566208907
 21
134.9802324229218016
 31
0.0
  0
ARC
  5
3FF8F
  8
0
 10
2975.8455388650500026
 20
134.9650903977303074
 30
0.0
 40
0.3831431833858811
 50
192.0595692386407904
 51
206.4557077794250972
  0
ARC
  5
3FF90
  8
0
 10
2982.0790803681938996
 20
136.5867081091718944
 30
0.0
 40
6.823808528435567
 50
190.3557472291778083
 51
194.4403576329355872
  0
ARC
  5
3FF91
  8
0
 10
2981.4928927472260511
 20
136.4997811919425885
 30
0.0
 40
6.2315752707921668
 50
179.6710744597500877
 51
190.5383656306069895
  0
ARC
  5
3FF92
  8
0
 10
2981.9033020803622094
 20
136.610345055661611
 30
0.0
 40
6.6423029803384308
 50
168.8536722070624876
 51
180.645140746446998
  0
ARC
  5
3FF93
  8
0
 10
2982.643478491444057
 20
136.5020817469236079
 30
0.0
 40
7.3895381263981701
 50
164.4769293704652
 51
169.1395216748722987
  0
ARC
  5
3FF94
  8
0
 10
2976.007429705568029
 20
138.3239223806905045
 30
0.0
 40
0.5083988177880693
 50
145.7010473412616989
 51
162.1550764722987878
  0
ARC
  5
3FF95
  8
0
 10
2975.6262889745121356
 20
138.5839087504436975
 30
0.0
 40
0.0470300180985629
 50
96.7369297179877492
 51
145.7010473412616989
  0
ARC
  5
3FF96
  8
0
 10
2976.315835831628192
 20
137.0100542462731141
 30
0.0
 40
0.623201195054641
 50
86.7858946862411642
 51
106.374866400001693
  0
ARC
  5
3FF97
  8
0
 10
2976.2240748605731824
 20
137.3889182892546899
 30
0.0
 40
0.2345876036349007
 50
110.9643232305066931
 51
127.3241801995706055
  0
ARC
  5
3FF98
  8
0
 10
2976.3035274407520774
 20
137.3210554280236977
 30
0.0
 40
0.3374475749210222
 50
131.0682388801998002
 51
168.0888200193425064
  0
ARC
  5
3FF99
  8
0
 10
2978.8173870050168262
 20
136.856653634230895
 30
0.0
 40
2.8937485262384421
 50
169.3649405835928974
 51
180.0554525199715954
  0
ARC
  5
3FF9A
  8
0
 10
2967.6594191354070063
 20
137.0026472143999001
 30
0.0
 40
8.2655600826525717
 50
349.7827132229108997
 51
358.9685221524878784
  0
ARC
  5
3FF9B
  8
0
 10
2968.5564288155501345
 20
136.7787098262716938
 30
0.0
 40
7.343308310533434
 50
345.0569968826540048
 51
350.2607992416507159
  0
ARC
  5
3FF9C
  8
0
 10
2975.4588495973780482
 20
134.9354143814846907
 30
0.0
 40
0.199002549461617
 50
307.205294540460784
 51
345.3782418837196246
  0
ARC
  5
3FF9D
  8
0
 10
2975.5477632993611223
 20
134.8159693828309003
 30
0.0
 40
0.0501237888796654
 50
205.4907164308546896
 51
308.8146002558008831
  0
LINE
  5
3FF9E
  8
0
 10
2975.5874370723208813
 20
138.610410680533306
 30
0.0
 11
2975.5025188093209181
 21
134.7943978661334938
 31
0.0
  0
ENDSEC
  0
EOF
