  0
SECTION
  2
HEADER
  9
$ACADVER
  1
AC1009
  9
$INSBASE
 10
6473.7986009692585867
 20
357.5977162965612024
 30
0.0
  9
$EXTMIN
 10
6468.6716867671593718
 20
354.4058075443911093
 30
0.0
  9
$EXTMAX
 10
6473.810758149141293
 20
360.7858075443911048
 30
0.0
  9
$LIMMIN
 10
0.0
 20
0.0
  9
$LIMMAX
 10
11.6929133858000007
 20
8.2677165353999982
  9
$ORTHOMODE
 70
     0
  9
$REGENMODE
 70
     1
  9
$FILLMODE
 70
     1
  9
$QTEXTMODE
 70
     0
  9
$MIRRTEXT
 70
     0
  9
$DRAGMODE
 70
     2
  9
$LTSCALE
 40
0.6431102362
  9
$OSMODE
 70
  3839
  9
$ATTMODE
 70
     1
  9
$TEXTSIZE
 40
0.2
  9
$TRACEWID
 40
0.05
  9
$TEXTSTYLE
  7
STANDARD
  9
$CLAYER
  8
0
  9
$CELTYPE
  6
BYLAYER
  9
$CECOLOR
 62
   256
  9
$DIMSCALE
 40
1.0
  9
$DIMASZ
 40
0.1875
  9
$DIMEXO
 40
0.0625
  9
$DIMDLI
 40
0.4443307087
  9
$DIMRND
 40
0.0
  9
$DIMDLE
 40
0.0
  9
$DIMEXE
 40
0.125
  9
$DIMTP
 40
0.01
  9
$DIMTM
 40
0.01
  9
$DIMTXT
 40
2.0
  9
$DIMCEN
 40
0.1052362205
  9
$DIMTSZ
 40
0.0
  9
$DIMTOL
 70
     1
  9
$DIMLIM
 70
     0
  9
$DIMTIH
 70
     1
  9
$DIMTOH
 70
     1
  9
$DIMSE1
 70
     0
  9
$DIMSE2
 70
     0
  9
$DIMTAD
 70
     0
  9
$DIMZIN
 70
     0
  9
$DIMBLK
  1

  9
$DIMASO
 70
     1
  9
$DIMSHO
 70
     1
  9
$DIMPOST
  1
\X
  9
$DIMAPOST
  1

  9
$DIMALT
 70
     1
  9
$DIMALTD
 70
     2
  9
$DIMALTF
 40
25.3999999999999986
  9
$DIMLFAC
 40
1.0
  9
$DIMTOFL
 70
     0
  9
$DIMTVP
 40
0.0
  9
$DIMTIX
 70
     0
  9
$DIMSOXD
 70
     0
  9
$DIMSAH
 70
     0
  9
$DIMBLK1
  1

  9
$DIMBLK2
  1

  9
$DIMSTYLE
  2
STANDARD
  9
$DIMCLRD
 70
     0
  9
$DIMCLRE
 70
     0
  9
$DIMCLRT
 70
     0
  9
$DIMTFAC
 40
1.0
  9
$DIMGAP
 40
0.09
  9
$LUNITS
 70
     2
  9
$LUPREC
 70
     4
  9
$SKETCHINC
 40
0.1
  9
$FILLETRAD
 40
0.0
  9
$AUNITS
 70
     0
  9
$AUPREC
 70
     0
  9
$MENU
  1
.
  9
$ELEVATION
 40
0.0
  9
$PELEVATION
 40
0.0
  9
$THICKNESS
 40
0.0
  9
$LIMCHECK
 70
     0
  9
$BLIPMODE
 70
     0
  9
$CHAMFERA
 40
0.0
  9
$CHAMFERB
 40
0.0
  9
$SKPOLY
 70
     0
  9
$TDCREATE
 40
2458060.468368056230247
  9
$TDUPDATE
 40
2460594.5281250011175871
  9
$TDINDWG
 40
0.7478658565
  9
$TDUSRTIMER
 40
0.7478658565
  9
$USRTIMER
 70
     1
  9
$ANGBASE
 50
0.0
  9
$ANGDIR
 70
     0
  9
$PDMODE
 70
     0
  9
$PDSIZE
 40
0.3125
  9
$PLINEWID
 40
0.0
  9
$COORDS
 70
     1
  9
$SPLFRAME
 70
     0
  9
$SPLINETYPE
 70
     6
  9
$SPLINESEGS
 70
     8
  9
$ATTDIA
 70
     1
  9
$ATTREQ
 70
     1
  9
$HANDLING
 70
     1
  9
$HANDSEED
  5
34229
  9
$SURFTAB1
 70
     6
  9
$SURFTAB2
 70
     6
  9
$SURFTYPE
 70
     6
  9
$SURFU
 70
     6
  9
$SURFV
 70
     6
  9
$UCSNAME
  2

  9
$UCSORG
 10
0.0
 20
0.0
 30
0.0
  9
$UCSXDIR
 10
1.0
 20
0.0
 30
0.0
  9
$UCSYDIR
 10
0.0
 20
1.0
 30
0.0
  9
$PUCSNAME
  2

  9
$PUCSORG
 10
0.0
 20
0.0
 30
0.0
  9
$PUCSXDIR
 10
1.0
 20
0.0
 30
0.0
  9
$PUCSYDIR
 10
0.0
 20
1.0
 30
0.0
  9
$USERI1
 70
     0
  9
$USERI2
 70
     0
  9
$USERI3
 70
     0
  9
$USERI4
 70
     0
  9
$USERI5
 70
     0
  9
$USERR1
 40
0.0
  9
$USERR2
 40
0.0
  9
$USERR3
 40
0.0
  9
$USERR4
 40
0.0
  9
$USERR5
 40
0.0
  9
$WORLDVIEW
 70
     1
  9
$SHADEDGE
 70
     3
  9
$SHADEDIF
 70
    70
  9
$TILEMODE
 70
     1
  9
$MAXACTVP
 70
    64
  9
$PLIMCHECK
 70
     0
  9
$PEXTMIN
 10
1.0000000000000000E+20
 20
1.0000000000000000E+20
 30
1.0000000000000000E+20
  9
$PEXTMAX
 10
-1.0000000000000000E+20
 20
-1.0000000000000000E+20
 30
-1.0000000000000000E+20
  9
$PLIMMIN
 10
0.0
 20
0.0
  9
$PLIMMAX
 10
12.0
 20
9.0
  9
$UNITMODE
 70
     0
  9
$VISRETAIN
 70
     1
  9
$PLINEGEN
 70
     0
  9
$PSLTSCALE
 70
     1
  0
ENDSEC
  0
SECTION
  2
TABLES
  0
TABLE
  2
VPORT
 70
     1
  0
VPORT
  2
*ACTIVE
 70
     0
 10
0.0
 20
0.0
 11
1.0
 21
1.0
 12
2559.8758660128378324
 22
225.0162024418519877
 13
0.0
 23
0.0
 14
1.0
 24
1.0
 15
0.0
 25
0.0
 16
0.0
 26
0.0
 36
60.4960186965801583
 17
3911.3653564453120453
 27
132.5796051025390057
 37
0.0
 40
6.422962962962969
 41
2.1449438202247189
 42
50.0
 43
0.0
 44
0.0
 50
0.0
 51
0.0
 71
     0
 72
   100
 73
     1
 74
     1
 75
     0
 76
     0
 77
     0
 78
     0
  0
ENDTAB
  0
TABLE
  2
LTYPE
 70
     2
  0
LTYPE
  2
CONTINUOUS
 70
     0
  3
Solid line
 72
    65
 73
     0
 40
0.0
  0
LTYPE
  2
PHANTOM2
 70
     0
  3
___ _ _ ___ _ _ ___ _ _ ___ _ _
 72
    65
 73
     6
 40
1.25
 49
0.625
 49
-0.125
 49
0.125
 49
-0.125
 49
0.125
 49
-0.125
  0
ENDTAB
  0
TABLE
  2
LAYER
 70
     2
  0
LAYER
  2
0
 70
     0
 62
   255
  6
CONTINUOUS
  0
LAYER
  2
DEFPOINTS
 70
     0
 62
     7
  6
CONTINUOUS
  0
ENDTAB
  0
TABLE
  2
STYLE
 70
     1
  0
STYLE
  2
STANDARD
 70
     0
 40
0.0
 41
0.8
 50
0.0
 71
     0
 42
0.2
  3
txt
  4

  0
ENDTAB
  0
TABLE
  2
VIEW
 70
     0
  0
ENDTAB
  0
TABLE
  2
UCS
 70
     0
  0
ENDTAB
  0
TABLE
  2
APPID
 70
    11
  0
APPID
  2
ACAD
 70
     0
  0
APPID
  2
ACAD_MLEADERVER
 70
     0
  0
APPID
  2
ACAD_EXEMPT_FROM_CAD_STANDARDS
 70
     0
  0
APPID
  2
ACAD_NAV_VCDISPLAY
 70
     0
  0
APPID
  2
ACAECLAYERSTANDARD
 70
     0
  0
APPID
  2
ACCMTRANSPARENCY
 70
     0
  0
APPID
  2
ACAD_DSTYLE_DIMJAG
 70
     0
  0
APPID
  2
ACAD_DSTYLE_DIMTALN
 70
     0
  0
APPID
  2
ACDBATTR
 70
     0
  0
APPID
  2
ACADANNOTATIVE
 70
     0
  0
APPID
  2
DCO15
 70
     0
  0
ENDTAB
  0
TABLE
  2
DIMSTYLE
 70
     1
  0
DIMSTYLE
  2
STANDARD
 70
     0
  3

  4

  5

  6

  7

 40
1.0
 41
0.1875
 42
0.0625
 43
0.38
 44
0.125
 45
0.0
 46
0.0
 47
0.01
 48
0.01
140
0.15625
141
0.09
142
0.0
143
25.3999999999999986
144
1.0
145
0.0
146
1.0
147
0.09
 71
     1
 72
     0
 73
     1
 74
     1
 75
     0
 76
     0
 77
     0
 78
     4
170
     0
171
     2
172
     0
173
     0
174
     0
175
     0
176
     0
177
     0
178
     0
  0
ENDTAB
  0
ENDSEC
  0
SECTION
  2
BLOCKS
  0
BLOCK
  8
0
  2
$MODEL_SPACE
 70
     0
 10
0.0
 20
0.0
 30
0.0
  3
$MODEL_SPACE
  1

  0
ENDBLK
  5
21
  8
0
  0
BLOCK
 67
     1
  8
0
  2
$PAPER_SPACE
 70
     0
 10
0.0
 20
0.0
 30
0.0
  3
$PAPER_SPACE
  1

  0
ENDBLK
  5
1D
 67
     1
  8
0
  0
BLOCK
  8
0
  2
_FILLED
 70
     0
 10
0.0
 20
0.0
 30
0.0
  3
_FILLED
  1

  0
SOLID
  5
32F79
  8
0
  6
BYBLOCK
 62
     0
 10
0.0
 20
0.0
 30
0.0
 11
-1.0
 21
0.1666666667
 31
0.0
 12
-1.0
 22
-0.1666666667
 32
0.0
 13
-1.0
 23
-0.1666666667
 33
0.0
  0
ENDBLK
  5
32F7A
  8
0
  6
BYBLOCK
 62
     0
  0
ENDSEC
  0
SECTION
  2
ENTITIES
  0
LINE
  5
33F6A
  8
0
 10
6469.8030407922833547
 20
357.051882396440476
 30
0.0
 11
6469.2567653937603609
 21
356.360342757407409
 31
0.0
  0
ARC
  5
33F6B
  8
0
 10
6469.3839166019615732
 20
356.2607070384084977
 30
0.0
 40
0.1615385596327005
 50
141.9177416014858011
 51
175.5377100392022101
  0
LINE
  5
33F6C
  8
0
 10
6470.0524200220597777
 20
357.1659868828073741
 30
0.0
 11
6470.1022965176598518
 21
356.5902196189073834
 31
0.0
  0
LINE
  5
33F6D
  8
0
 10
6470.1321845858592496
 20
358.6288087069074209
 30
0.0
 11
6470.1321845858592496
 21
356.5628087069073899
 31
0.0
  0
LINE
  5
33F6E
  8
0
 10
6470.0524200220597777
 20
358.0256305309073923
 30
0.0
 11
6470.1022965176598518
 21
358.601397794807383
 31
0.0
  0
LINE
  5
33F6F
  8
0
 10
6470.749671019159905
 20
358.6288087069074209
 30
0.0
 11
6470.1321845858592496
 21
358.6288087069074209
 31
0.0
  0
LINE
  5
33F70
  8
0
 10
6470.7796710191596503
 20
358.5988087069073913
 30
0.0
 11
6470.7796710191596503
 21
356.5928087069074195
 31
0.0
  0
LINE
  5
33F71
  8
0
 10
6470.749671019159905
 20
356.5628087069073899
 30
0.0
 11
6470.1321845858592496
 21
356.5628087069073899
 31
0.0
  0
ARC
  5
33F72
  8
0
 10
6469.9926438856591631
 20
358.0308087069074077
 30
0.0
 40
0.06
 50
341.7917546250927785
 51
355.0490472366993799
  0
ARC
  5
33F73
  8
0
 10
6470.1321845858592496
 20
358.5988087069073913
 30
0.0
 40
0.03
 50
90.0
 51
175.049047236101103
  0
ARC
  5
33F74
  8
0
 10
6470.6789470390585848
 20
358.3408087069074099
 30
0.0
 40
0.12
 50
327.0732840127619738
 51
357.9999999999993179
  0
ARC
  5
33F75
  8
0
 10
6470.749671019159905
 20
358.5988087069073913
 30
0.0
 40
0.03
 50
0.0
 51
90.0
  0
ARC
  5
33F76
  8
0
 10
6469.9926438856591631
 20
357.1608087069074031
 30
0.0
 40
0.06
 50
4.9509527633005428
 51
18.2082453749072215
  0
ARC
  5
33F77
  8
0
 10
6470.1321845858592496
 20
356.5928087069074195
 30
0.0
 40
0.03
 50
184.9509527638988118
 51
270.0
  0
ARC
  5
33F78
  8
0
 10
6470.6789470390585848
 20
356.8508087069074008
 30
0.0
 40
0.12
 50
2.0000000000006981
 51
32.9267159872379622
  0
ARC
  5
33F79
  8
0
 10
6470.749671019159905
 20
356.5928087069074195
 30
0.0
 40
0.03
 50
270.0
 51
0.0
  0
LINE
  5
33F7A
  8
0
 10
6472.9481969551598013
 20
360.7709648496074237
 30
0.0
 11
6473.7986009692585867
 21
360.7858075443911048
 31
0.0
  0
LINE
  5
33F7B
  8
0
 10
6472.7499779471590955
 20
358.6458087069074168
 30
0.0
 11
6470.8676123456598361
 21
358.6458087069074168
 31
0.0
  0
LINE
  5
33F7C
  8
0
 10
6470.798873938359975
 20
356.8549966465074021
 30
0.0
 11
6470.8076488959586641
 21
356.6037147371073956
 31
0.0
  0
LINE
  5
33F7D
  8
0
 10
6470.798873938359975
 20
358.3366207673074086
 30
0.0
 11
6470.8076488959586641
 21
358.5879026767074151
 31
0.0
  0
LINE
  5
33F7E
  8
0
 10
6470.798873938359975
 20
358.3366207673074086
 30
0.0
 11
6470.798873938359975
 21
356.8549966465074021
 31
0.0
  0
LINE
  5
33F7F
  8
0
 10
6472.7499779471590955
 20
356.545808706907394
 30
0.0
 11
6470.8676123456598361
 21
356.545808706907394
 31
0.0
  0
LINE
  5
33F80
  8
0
 10
6472.8873308815591372
 20
354.4802955650073955
 30
0.0
 11
6472.8370072734587666
 21
356.4861879136074094
 31
0.0
  0
LINE
  5
33F81
  8
0
 10
6472.8370072734587666
 20
356.4861879136074094
 30
0.0
 11
6472.8370072734587666
 21
358.7054295002074014
 31
0.0
  0
LINE
  5
33F82
  8
0
 10
6472.8873243216776245
 20
360.7113443755753792
 30
0.0
 11
6472.8370072734587666
 21
358.7054295002074014
 31
0.0
  0
LINE
  5
33F83
  8
0
 10
6472.9481969551598013
 20
360.7709648496074237
 30
0.0
 11
6472.9481969551598013
 21
354.4206525642073871
 31
0.0
  0
LINE
  5
33F84
  8
0
 10
6473.7986009692585867
 20
354.4096250487313
 30
0.0
 11
6473.7986009692585867
 21
360.7858075443911048
 31
0.0
  0
LINE
  5
33F85
  8
0
 10
6472.9481969551598013
 20
354.4206525642073871
 30
0.0
 11
6473.7535343687459317
 21
354.4058075443911093
 31
0.0
  0
ARC
  5
33F86
  8
0
 10
6472.9492790043586865
 20
360.7089742925073779
 30
0.0
 40
0.062
 50
91.0000000000799787
 51
177.8092120637010112
  0
ARC
  5
33F87
  8
0
 10
6470.8676123456598361
 20
358.5858087069074145
 30
0.0
 40
0.06
 50
90.0
 51
177.999999999901604
  0
ARC
  5
33F88
  8
0
 10
6472.7499779471590955
 20
357.5958087069074054
 30
0.0
 40
1.05
 50
85.2455807590716717
 51
90.0
  0
ARC
  5
33F89
  8
0
 10
6472.7499779471590955
 20
357.5958087069074054
 30
0.0
 40
1.05
 50
270.0
 51
274.7544192409283141
  0
ARC
  5
33F8A
  8
0
 10
6472.9492733796832908
 20
354.4826296766042901
 30
0.0
 40
0.0619864594147275
 50
182.1579933568964975
 51
269.0049813636165936
  0
ARC
  5
33F8B
  8
0
 10
6470.8676123456598361
 20
356.6058087069073963
 30
0.0
 40
0.06
 50
182.0000000000983107
 51
270.0
  0
LINE
  5
33F8C
  8
0
 10
6469.2228677049943144
 20
358.1053769398902205
 30
0.0
 11
6469.4640505124943957
 21
358.1095868014573966
 31
0.0
  0
LINE
  5
33F8D
  8
0
 10
6469.1793341251932361
 20
358.8654431274073886
 30
0.0
 11
6468.7069494866927926
 21
358.8578017186073907
 31
0.0
  0
LINE
  5
33F8E
  8
0
 10
6469.1793341251932361
 20
358.9320806741073966
 30
0.0
 11
6468.7069494866927926
 21
358.9240382013073827
 31
0.0
  0
LINE
  5
33F8F
  8
0
 10
6469.183497951593381
 20
358.9658862875411955
 30
0.0
 11
6468.7026636497948857
 21
358.9574944561073835
 31
0.0
  0
LINE
  5
33F90
  8
0
 10
6469.1793335689480955
 20
358.6407907605074001
 30
0.0
 11
6468.7069494866927926
 21
358.6345015027073941
 31
0.0
  0
LINE
  5
33F91
  8
0
 10
6469.1793341251932361
 20
358.7675429675073815
 30
0.0
 11
6468.7069494866927926
 21
358.7604907796073803
 31
0.0
  0
LINE
  5
33F92
  8
0
 10
6469.1793341251932361
 20
358.4883077476073936
 30
0.0
 11
6468.7069494866927926
 21
358.4829361619073893
 31
0.0
  0
LINE
  5
33F93
  8
0
 10
6468.7026636497948857
 20
358.9574944561073835
 30
0.0
 11
6468.6774523698932171
 21
358.932282982807294
 31
0.0
  0
LINE
  5
33F94
  8
0
 10
6469.1793341251932361
 20
358.3138483853073808
 30
0.0
 11
6468.7069501254982242
 21
358.3095267415624789
 31
0.0
  0
LINE
  5
33F95
  8
0
 10
6470.030298023193609
 20
358.0997043474073962
 30
0.0
 11
6469.4640505124943957
 21
358.1095868014573966
 31
0.0
  0
LINE
  5
33F96
  8
0
 10
6469.1793341251932361
 20
357.9166192226073804
 30
0.0
 11
6468.7069494866927926
 21
357.9146883956074134
 31
0.0
  0
LINE
  5
33F97
  8
0
 10
6469.1793341251932361
 20
358.1217085031074134
 30
0.0
 11
6468.7069494866927926
 21
358.1185433279073891
 31
0.0
  0
LINE
  5
33F98
  8
0
 10
6469.1793341129932742
 20
357.7036305224074226
 30
0.0
 11
6468.7069494378938543
 21
357.7029815871073879
 31
0.0
  0
LINE
  5
33F99
  8
0
 10
6469.2174353636937667
 20
358.9319498623074196
 30
0.0
 11
6469.183497951593381
 21
358.9658862875411955
 31
0.0
  0
LINE
  5
33F9A
  8
0
 10
6469.1793341251932361
 20
357.4879868913074006
 30
0.0
 11
6468.7069494866927926
 21
357.4886358266073785
 31
0.0
  0
LINE
  5
33F9B
  8
0
 10
6469.1793341251932361
 20
357.2749981912073736
 30
0.0
 11
6468.7069494866927926
 21
357.2769290181072961
 31
0.0
  0
LINE
  5
33F9C
  8
0
 10
6469.1793341251932361
 20
357.0699089106072961
 30
0.0
 11
6468.7069494866927926
 21
357.0730740858073773
 31
0.0
  0
LINE
  5
33F9D
  8
0
 10
6470.030298023193609
 20
357.0919130664074146
 30
0.0
 11
6469.8785438355398583
 21
357.0892641871993192
 31
0.0
  0
LINE
  5
33F9E
  8
0
 10
6469.1793341251932361
 20
356.8777690284073856
 30
0.0
 11
6468.7069494866927926
 21
356.8820906147072947
 31
0.0
  0
LINE
  5
33F9F
  8
0
 10
6469.1793341251932361
 20
356.5508265923073736
 30
0.0
 11
6468.7069502510003076
 21
356.5571158065394002
 31
0.0
  0
LINE
  5
33FA0
  8
0
 10
6469.1793341251932361
 20
356.7033096662074172
 30
0.0
 11
6468.7069494866927926
 21
356.7086812518073771
 31
0.0
  0
LINE
  5
33FA1
  8
0
 10
6469.1793341251932361
 20
356.3261742864074222
 30
0.0
 11
6468.7069494866927926
 21
356.3338156951073756
 31
0.0
  0
LINE
  5
33FA2
  8
0
 10
6469.1793341251932361
 20
356.4240744462073849
 30
0.0
 11
6468.7069494866927926
 21
356.4311266341073861
 31
0.0
  0
LINE
  5
33FA3
  8
0
 10
6469.2171020903942917
 20
356.259334278107417
 30
0.0
 11
6469.183497951593381
 21
356.2257288012410754
 31
0.0
  0
LINE
  5
33FA4
  8
0
 10
6469.183497951593381
 20
356.2257288012410754
 30
0.0
 11
6468.7026636497948857
 21
356.2341229577074273
 31
0.0
  0
LINE
  5
33FA5
  8
0
 10
6469.1793341251932361
 20
356.2595367396074266
 30
0.0
 11
6468.7069494866927926
 21
356.2675792125074281
 31
0.0
  0
LINE
  5
33FA6
  8
0
 10
6470.0496395112941173
 20
358.0800223061074234
 30
0.0
 11
6470.0496395112941173
 21
357.1115951076073998
 31
0.0
  0
LINE
  5
33FA7
  8
0
 10
6468.7026636497948857
 20
356.2341229577074273
 30
0.0
 11
6468.6774523698932171
 21
356.2593344309074155
 31
0.0
  0
LINE
  5
33FA8
  8
0
 10
6469.2228677049943144
 20
358.9217238845038764
 30
0.0
 11
6469.2228677049943144
 21
356.2732752138103933
 31
0.0
  0
LINE
  5
33FA9
  8
0
 10
6468.6716867671593718
 20
358.9183420353641054
 30
0.0
 11
6468.6716867671593718
 21
356.2732753783507178
 31
0.0
  0
ARC
  5
33FAA
  8
0
 10
6470.0124610924112858
 20
357.8088346904272044
 30
0.0
 40
1.3097959992160519
 50
175.3644749725810925
 51
184.6354986132120928
  0
ARC
  5
33FAB
  8
0
 10
6469.9172670207490228
 20
358.0166158617573728
 30
0.0
 40
1.214601886051113
 50
175.1861675586465878
 51
184.8138324413565954
  0
ARC
  5
33FAC
  8
0
 10
6469.7689305211570172
 20
358.2140314826045255
 30
0.0
 40
1.0662653071562109
 50
174.8616762445300026
 51
185.1379404677595062
  0
ARC
  5
33FAD
  8
0
 10
6469.5821313647193165
 20
358.3962346757227806
 30
0.0
 40
0.8794660126061477
 50
174.3423495962321113
 51
185.6580725353636012
  0
ARC
  5
33FAE
  8
0
 10
6469.3751109637087211
 20
358.5587188323074201
 30
0.0
 40
0.6724453676698288
 50
173.5291825848264864
 51
186.4708174151735136
  0
ARC
  5
33FAF
  8
0
 10
6469.1680258756932744
 20
358.6974961411573872
 30
0.0
 40
0.4653598188135488
 50
172.22012347184031
 51
187.7798765281596047
  0
ARC
  5
33FB0
  8
0
 10
6470.0299544718936886
 20
358.0800223061074234
 30
0.0
 40
0.0196850394
 50
0.0
 51
89.0000000000243006
  0
ARC
  5
33FB1
  8
0
 10
6467.8191375875667291
 20
357.8101249505610895
 30
0.0
 40
1.3643590623262909
 50
355.5232502540658857
 51
4.4767431693952071
  0
ARC
  5
33FB2
  8
0
 10
6467.918299982514327
 20
358.0191638628573969
 30
0.0
 40
1.2651966298747299
 50
355.3510570898907872
 51
4.6489429101059887
  0
ARC
  5
33FB3
  8
0
 10
6468.0727521532371611
 20
358.2177784442073971
 30
0.0
 40
1.1107443874442759
 50
355.0382029380601807
 51
4.9617970619397713
  0
ARC
  5
33FB4
  8
0
 10
6468.2673731706581748
 20
358.4010780664573872
 30
0.0
 40
0.916123244912341
 50
354.5362422724015232
 51
5.4637577275985301
  0
ARC
  5
33FB5
  8
0
 10
6468.4831594822717307
 20
358.5645467144690883
 30
0.0
 40
0.7003367143837719
 50
353.7503705661645199
 51
6.250047454652317
  0
ARC
  5
33FB6
  8
0
 10
6468.6988827083869182
 20
358.7041689724434832
 30
0.0
 40
0.4846130695323946
 50
352.4852707742870166
 51
7.5142263463121184
  0
ARC
  5
33FB7
  8
0
 10
6470.0452635010897211
 20
357.5958090115507275
 30
0.0
 40
1.342598410806243
 50
175.4215078620466102
 51
184.5785182269607958
  0
ARC
  5
33FB8
  8
0
 10
6470.0124537185520239
 20
357.3827824223574225
 30
0.0
 40
1.3097886251562261
 50
175.3644620248369108
 51
184.6355379751630039
  0
ARC
  5
33FB9
  8
0
 10
6469.9172670490988821
 20
357.1750015519573935
 30
0.0
 40
1.2146019143002791
 50
175.1861676708689117
 51
184.8138323291277061
  0
ARC
  5
33FBA
  8
0
 10
6469.7690103344020827
 20
356.9775823502574212
 30
0.0
 40
1.0663451203978029
 50
174.8622519492624861
 51
185.1377480507374003
  0
ARC
  5
33FBB
  8
0
 10
6469.5821960322500672
 20
356.7953859332574211
 30
0.0
 40
0.8795306801321792
 50
174.3425577624873029
 51
185.6574422375126119
  0
ARC
  5
33FBC
  8
0
 10
6469.3750523040416738
 20
356.6329018982481784
 30
0.0
 40
0.672386707910441
 50
173.5289000996139919
 51
186.4716777571956925
  0
ARC
  5
33FBD
  8
0
 10
6469.1679839755488501
 20
356.4941184234833145
 30
0.0
 40
0.4653179186781519
 50
172.2190774944546945
 51
187.7802273416398862
  0
ARC
  5
33FBE
  8
0
 10
6470.0299544718936886
 20
357.1115951076073998
 30
0.0
 40
0.0196850394
 50
270.9999999999757279
 51
0.0
  0
ARC
  5
33FBF
  8
0
 10
6469.2031826003103561
 20
356.2732537465026894
 30
0.0
 40
0.0196851163890627
 50
315.0000446370044074
 51
0.0624830632444506
  0
ARC
  5
33FC0
  8
0
 10
6467.7849946432706929
 20
357.5958086278104133
 30
0.0
 40
1.3985020978565801
 50
355.5782211136595947
 51
4.4217853819100963
  0
ARC
  5
33FC1
  8
0
 10
6467.8191356574643578
 20
357.3814925412573871
 30
0.0
 40
1.364360992628135
 50
355.5232598914714117
 51
4.4767401085285812
  0
ARC
  5
33FC2
  8
0
 10
6467.9183000116781841
 20
357.1724535509073917
 30
0.0
 40
1.2651966008121609
 50
355.3510569805947057
 51
4.6489430194052277
  0
ARC
  5
33FC3
  8
0
 10
6468.0727521532371611
 20
356.9738389695074261
 30
0.0
 40
1.1107443874455629
 50
355.0382029380634776
 51
4.9617970619365259
  0
ARC
  5
33FC4
  8
0
 10
6468.2673731717050032
 20
356.7905393473074014
 30
0.0
 40
0.9161232438660393
 50
354.5362422692820132
 51
5.4637577307180134
  0
ARC
  5
33FC5
  8
0
 10
6468.4831124029642524
 20
356.6270681292573954
 30
0.0
 40
0.7003837936875545
 50
353.750580829542173
 51
6.2494191704577879
  0
ARC
  5
33FC6
  8
0
 10
6468.698851063649272
 20
356.4874505192573793
 30
0.0
 40
0.484644714265636
 50
352.4860193331659843
 51
7.5139806668340317
  0
ARC
  5
33FC7
  8
0
 10
6469.204024451109035
 20
358.9182696906885894
 30
0.0
 40
0.0191572354962738
 50
10.3876730691306101
 51
45.5694455854844023
  0
ARC
  5
33FC8
  8
0
 10
6468.7376010382677123
 20
358.9408035240082882
 30
0.0
 40
0.034936995566149
 50
151.322098113957594
 51
208.6771111899246023
  0
ARC
  5
33FC9
  8
0
 10
6468.8327772757838829
 20
358.8909199599573867
 30
0.0
 40
0.1301132215333154
 50
165.2540245819074869
 51
194.7459754180925131
  0
ARC
  5
33FCA
  8
0
 10
6468.9810160001543409
 20
358.809146249107414
 30
0.0
 40
0.2783519507973759
 50
169.9330748319362101
 51
190.0669251680637899
  0
ARC
  5
33FCB
  8
0
 10
6469.1472495838988834
 20
358.9489477935281911
 30
0.0
 40
0.0362480000496766
 50
332.2687089143478261
 51
27.7289991988402207
  0
ARC
  5
33FCC
  8
0
 10
6469.0480963061263537
 20
358.8987619007573926
 30
0.0
 40
0.1354012769917341
 50
345.7546700820254841
 51
14.2453299179775996
  0
ARC
  5
33FCD
  8
0
 10
6468.8936617277186087
 20
358.8164930474574135
 30
0.0
 40
0.2898358656301896
 50
350.2767724584360849
 51
9.7232275415638583
  0
ARC
  5
33FCE
  8
0
 10
6468.8936618919042303
 20
356.3751243663073751
 30
0.0
 40
0.2898357037954453
 50
350.2767669865991138
 51
9.7232330133976568
  0
ARC
  5
33FCF
  8
0
 10
6469.0480963057243571
 20
356.292855513007396
 30
0.0
 40
0.1354012773939779
 50
345.7546701034102057
 51
14.2453298965929704
  0
ARC
  5
33FD0
  8
0
 10
6469.1472503369141123
 20
356.2426699010887887
 30
0.0
 40
0.0362472028156074
 50
332.2657673135735195
 51
27.7314519360241505
  0
ARC
  5
33FD1
  8
0
 10
6468.9810162017784023
 20
356.3824711646072956
 30
0.0
 40
0.2783521493176211
 50
169.9330820864477118
 51
190.0669179135491049
  0
ARC
  5
33FD2
  8
0
 10
6468.8327771125232175
 20
356.3006974538074019
 30
0.0
 40
0.1301130636349865
 50
165.2540063038738936
 51
194.7459936961261064
  0
ARC
  5
33FD3
  8
0
 10
6468.7376021010077238
 20
356.2508136043741729
 30
0.0
 40
0.0349380649202163
 50
151.323314468142712
 51
208.6763988554774016
  0
ARC
  5
33FD4
  8
0
 10
6468.6929461433746837
 20
358.9177124495678868
 30
0.0
 40
0.0212686966063514
 50
136.7589344526053878
 51
178.3037099162081915
  0
ARC
  5
33FD5
  8
0
 10
6468.6916033032157429
 20
356.2733496013951253
 30
0.0
 40
0.0199166743595896
 50
180.213523450575309
 51
224.7238321806464114
  0
ARC
  5
33FD6
  8
0
 10
6469.8802615915192291
 20
356.9908539808427008
 30
0.0
 40
0.098425196697579
 50
90.9999999551540952
 51
141.680308856209308
  0
ARC
  5
33FD7
  8
0
 10
6469.5189407262641907
 20
356.3316842570840777
 30
0.0
 40
0.7742081163642724
 50
68.4720117279631069
 51
112.4836921158866971
  0
LINE
  5
34051
  8
0
 10
6473.7535343687459317
 20
354.4058075443911093
 30
0.0
 11
6473.7535343687459317
 21
354.409083008491109
 31
0.0
  0
LINE
  5
34052
  8
0
 10
6473.7535343687459317
 20
354.409083008491109
 30
0.0
 11
6473.7986009692585867
 21
354.4096250487313
 31
0.0
  0
ATTDEF
  5
34055
  8
DEFPOINTS
 10
6473.8000914824706342
 20
357.6021914416390928
 30
0.0
 40
0.001
  1
K-TS78015-9
  3

  2
MODELNUMBER
 70
     0
1001
ACDBATTR
1070
     0
1070
     1
  0
ATTDEF
  5
34056
  8
DEFPOINTS
 10
6473.7999656728152331
 20
357.6005246012600196
 30
0.0
 40
0.001
  1
COMPONENTS/RITE-TEMP
  3

  2
TRADENAME
 70
     0
1001
ACDBATTR
1070
     0
1070
     1
  0
ATTDEF
  5
34057
  8
DEFPOINTS
 10
6473.8000914824706342
 20
357.5988581083058193
 30
0.0
 40
0.001
  1
VALVE TRIM
  3

  2
PRODUCT
 70
     0
1001
ACDBATTR
1070
     0
1070
     1
  0
ENDSEC
  0
EOF
