  0
SECTION
  2
HEADER
  9
$ACADVER
  1
AC1009
  9
$INSBASE
 10
5193.8444165856144537
 20
222.6591553149000902
 30
0.0
  9
$EXTMIN
 10
5190.6537724950003394
 20
207.3982397152327053
 30
0.0
  9
$EXTMAX
 10
5197.035061888725977
 20
241.9241553148328023
 30
0.0
  9
$LIMMIN
 10
0.0
 20
0.0
  9
$LIMMAX
 10
11.6929133858000007
 20
8.2677165353999982
  9
$ORTHOMODE
 70
     0
  9
$REGENMODE
 70
     1
  9
$FILLMODE
 70
     1
  9
$QTEXTMODE
 70
     0
  9
$MIRRTEXT
 70
     0
  9
$DRAGMODE
 70
     2
  9
$LTSCALE
 40
0.6431102362
  9
$OSMODE
 70
  4095
  9
$ATTMODE
 70
     1
  9
$TEXTSIZE
 40
0.2
  9
$TRACEWID
 40
0.05
  9
$TEXTSTYLE
  7
STANDARD
  9
$CLAYER
  8
0
  9
$CELTYPE
  6
BYLAYER
  9
$CECOLOR
 62
   256
  9
$DIMSCALE
 40
1.0
  9
$DIMASZ
 40
0.1875
  9
$DIMEXO
 40
0.0625
  9
$DIMDLI
 40
0.4443307087
  9
$DIMRND
 40
0.0
  9
$DIMDLE
 40
0.0
  9
$DIMEXE
 40
0.125
  9
$DIMTP
 40
0.01
  9
$DIMTM
 40
0.01
  9
$DIMTXT
 40
2.0
  9
$DIMCEN
 40
0.1052362205
  9
$DIMTSZ
 40
0.0
  9
$DIMTOL
 70
     1
  9
$DIMLIM
 70
     0
  9
$DIMTIH
 70
     1
  9
$DIMTOH
 70
     1
  9
$DIMSE1
 70
     0
  9
$DIMSE2
 70
     0
  9
$DIMTAD
 70
     0
  9
$DIMZIN
 70
     0
  9
$DIMBLK
  1

  9
$DIMASO
 70
     1
  9
$DIMSHO
 70
     1
  9
$DIMPOST
  1
\X
  9
$DIMAPOST
  1

  9
$DIMALT
 70
     1
  9
$DIMALTD
 70
     2
  9
$DIMALTF
 40
25.3999999999999986
  9
$DIMLFAC
 40
1.0
  9
$DIMTOFL
 70
     0
  9
$DIMTVP
 40
0.0
  9
$DIMTIX
 70
     0
  9
$DIMSOXD
 70
     0
  9
$DIMSAH
 70
     0
  9
$DIMBLK1
  1

  9
$DIMBLK2
  1

  9
$DIMSTYLE
  2
STANDARD
  9
$DIMCLRD
 70
     0
  9
$DIMCLRE
 70
     0
  9
$DIMCLRT
 70
     0
  9
$DIMTFAC
 40
1.0
  9
$DIMGAP
 40
0.09
  9
$LUNITS
 70
     2
  9
$LUPREC
 70
     4
  9
$SKETCHINC
 40
0.1
  9
$FILLETRAD
 40
0.0
  9
$AUNITS
 70
     0
  9
$AUPREC
 70
     0
  9
$MENU
  1
.
  9
$ELEVATION
 40
0.0
  9
$PELEVATION
 40
0.0
  9
$THICKNESS
 40
0.0
  9
$LIMCHECK
 70
     0
  9
$BLIPMODE
 70
     0
  9
$CHAMFERA
 40
0.0
  9
$CHAMFERB
 40
0.0
  9
$SKPOLY
 70
     0
  9
$TDCREATE
 40
2458060.468368056230247
  9
$TDUPDATE
 40
2459831.61664351914078
  9
$TDINDWG
 40
0.4449491898
  9
$TDUSRTIMER
 40
0.4449491898
  9
$USRTIMER
 70
     1
  9
$ANGBASE
 50
0.0
  9
$ANGDIR
 70
     0
  9
$PDMODE
 70
     0
  9
$PDSIZE
 40
0.3125
  9
$PLINEWID
 40
0.0
  9
$COORDS
 70
     1
  9
$SPLFRAME
 70
     0
  9
$SPLINETYPE
 70
     6
  9
$SPLINESEGS
 70
     8
  9
$ATTDIA
 70
     1
  9
$ATTREQ
 70
     1
  9
$HANDLING
 70
     1
  9
$HANDSEED
  5
E7D1
  9
$SURFTAB1
 70
     6
  9
$SURFTAB2
 70
     6
  9
$SURFTYPE
 70
     6
  9
$SURFU
 70
     6
  9
$SURFV
 70
     6
  9
$UCSNAME
  2

  9
$UCSORG
 10
0.0
 20
0.0
 30
0.0
  9
$UCSXDIR
 10
1.0
 20
0.0
 30
0.0
  9
$UCSYDIR
 10
0.0
 20
1.0
 30
0.0
  9
$PUCSNAME
  2

  9
$PUCSORG
 10
0.0
 20
0.0
 30
0.0
  9
$PUCSXDIR
 10
1.0
 20
0.0
 30
0.0
  9
$PUCSYDIR
 10
0.0
 20
1.0
 30
0.0
  9
$USERI1
 70
     0
  9
$USERI2
 70
     0
  9
$USERI3
 70
     0
  9
$USERI4
 70
     0
  9
$USERI5
 70
     0
  9
$USERR1
 40
0.0
  9
$USERR2
 40
0.0
  9
$USERR3
 40
0.0
  9
$USERR4
 40
0.0
  9
$USERR5
 40
0.0
  9
$WORLDVIEW
 70
     1
  9
$SHADEDGE
 70
     3
  9
$SHADEDIF
 70
    70
  9
$TILEMODE
 70
     1
  9
$MAXACTVP
 70
    64
  9
$PLIMCHECK
 70
     0
  9
$PEXTMIN
 10
1.0000000000000000E+20
 20
1.0000000000000000E+20
 30
1.0000000000000000E+20
  9
$PEXTMAX
 10
-1.0000000000000000E+20
 20
-1.0000000000000000E+20
 30
-1.0000000000000000E+20
  9
$PLIMMIN
 10
0.0
 20
0.0
  9
$PLIMMAX
 10
12.0
 20
9.0
  9
$UNITMODE
 70
     0
  9
$VISRETAIN
 70
     1
  9
$PLINEGEN
 70
     0
  9
$PSLTSCALE
 70
     1
  0
ENDSEC
  0
SECTION
  2
TABLES
  0
TABLE
  2
VPORT
 70
     1
  0
VPORT
  2
*ACTIVE
 70
     0
 10
0.0
 20
0.0
 11
1.0
 21
1.0
 12
1390.300349809051113
 22
98.6659353182828625
 13
0.0
 23
0.0
 14
1.0
 24
1.0
 15
0.0
 25
0.0
 16
0.0
 26
0.0
 36
17.1152628219792007
 17
3803.5440673828129547
 27
125.9952621967499056
 37
0.0
 40
34.8025961758969018
 41
2.1335978835978828
 42
50.0
 43
0.0
 44
0.0
 50
0.0
 51
0.0
 71
     0
 72
   100
 73
     1
 74
     1
 75
     0
 76
     0
 77
     0
 78
     0
  0
ENDTAB
  0
TABLE
  2
LTYPE
 70
     2
  0
LTYPE
  2
CONTINUOUS
 70
     0
  3
Solid line
 72
    65
 73
     0
 40
0.0
  0
LTYPE
  2
PHANTOM2
 70
     0
  3
___ _ _ ___ _ _ ___ _ _ ___ _ _
 72
    65
 73
     6
 40
1.25
 49
0.625
 49
-0.125
 49
0.125
 49
-0.125
 49
0.125
 49
-0.125
  0
ENDTAB
  0
TABLE
  2
LAYER
 70
     2
  0
LAYER
  2
0
 70
     0
 62
   255
  6
CONTINUOUS
  0
LAYER
  2
DEFPOINTS
 70
     0
 62
     7
  6
CONTINUOUS
  0
ENDTAB
  0
TABLE
  2
STYLE
 70
     1
  0
STYLE
  2
STANDARD
 70
     0
 40
0.0
 41
0.8
 50
0.0
 71
     0
 42
0.2
  3
txt
  4

  0
ENDTAB
  0
TABLE
  2
VIEW
 70
     0
  0
ENDTAB
  0
TABLE
  2
UCS
 70
     0
  0
ENDTAB
  0
TABLE
  2
APPID
 70
     9
  0
APPID
  2
ACAD
 70
     0
  0
APPID
  2
ACAD_MLEADERVER
 70
     0
  0
APPID
  2
ACAD_EXEMPT_FROM_CAD_STANDARDS
 70
     0
  0
APPID
  2
ACAD_NAV_VCDISPLAY
 70
     0
  0
APPID
  2
ACAECLAYERSTANDARD
 70
     0
  0
APPID
  2
ACCMTRANSPARENCY
 70
     0
  0
APPID
  2
ACAD_DSTYLE_DIMJAG
 70
     0
  0
APPID
  2
ACAD_DSTYLE_DIMTALN
 70
     0
  0
APPID
  2
ACDBATTR
 70
     0
  0
ENDTAB
  0
TABLE
  2
DIMSTYLE
 70
     1
  0
DIMSTYLE
  2
STANDARD
 70
     0
  3

  4

  5

  6

  7

 40
1.0
 41
0.1875
 42
0.0625
 43
0.38
 44
0.125
 45
0.0
 46
0.0
 47
0.01
 48
0.01
140
0.15625
141
0.09
142
0.0
143
25.3999999999999986
144
1.0
145
0.0
146
1.0
147
0.09
 71
     1
 72
     0
 73
     1
 74
     1
 75
     0
 76
     0
 77
     0
 78
     4
170
     0
171
     2
172
     0
173
     0
174
     0
175
     0
176
     0
177
     0
178
     0
  0
ENDTAB
  0
ENDSEC
  0
SECTION
  2
BLOCKS
  0
BLOCK
  8
0
  2
$MODEL_SPACE
 70
     0
 10
0.0
 20
0.0
 30
0.0
  3
$MODEL_SPACE
  1

  0
ENDBLK
  5
21
  8
0
  0
BLOCK
 67
     1
  8
0
  2
$PAPER_SPACE
 70
     0
 10
0.0
 20
0.0
 30
0.0
  3
$PAPER_SPACE
  1

  0
ENDBLK
  5
1D
 67
     1
  8
0
  0
ENDSEC
  0
SECTION
  2
ENTITIES
  0
ATTDEF
  5
3930
  8
DEFPOINTS
 10
5193.8410305088063978
 20
222.6632673645709986
 30
0.0
 40
0.001
  1
K-TS97074-4Y
  3

  2
MODELNUMBER
 70
     0
1001
ACDBATTR
1070
     0
1070
     1
  0
ATTDEF
  5
3931
  8
DEFPOINTS
 10
5193.8410305088063978
 20
222.661600697904305
 30
0.0
 40
0.001
  1
PITCH
  3

  2
TRADENAME
 70
     0
1001
ACDBATTR
1070
     0
1070
     1
  0
ATTDEF
  5
3932
  8
DEFPOINTS
 10
5193.8410305088063978
 20
222.6599340312376967
 30
0.0
 40
0.001
  1
BATH AND SHOWER TRIM 
  3

  2
PRODUCT
 70
     0
1001
ACDBATTR
1070
     0
1070
     1
  0
ARC
  5
E1C7
  8
0
 10
5193.8453471032289599
 20
238.8070452126686973
 30
0.0
 40
2.5093315067813018
 50
265.1100427414108935
 51
269.978767254295974
  0
ARC
  5
E1C8
  8
0
 10
5193.8353985487301543
 20
238.6907608539472108
 30
0.0
 40
2.3926223562408091
 50
252.1044911396780037
 51
265.1100427414108935
  0
ARC
  5
E1C9
  8
0
 10
5193.7039358239053399
 20
238.2836353160568876
 30
0.0
 40
1.9647980329248631
 50
240.9991131038009939
 51
252.1044911396780037
  0
ARC
  5
E1CA
  8
0
 10
5193.5502136522218279
 20
238.0063233008287966
 30
0.0
 40
1.647729491664609
 50
225.1498922056348988
 51
240.9991131038009939
  0
ARC
  5
E1CB
  8
0
 10
5193.1964321069235666
 20
237.650685831337114
 30
0.0
 40
1.1460927789934141
 50
213.591787052472398
 51
225.1498922056348988
  0
ARC
  5
E1CC
  8
0
 10
5193.1847280676229275
 20
237.6429121042542079
 30
0.0
 40
1.132042321039094
 50
203.5862046641130974
 51
213.591787052472398
  0
ARC
  5
E1CD
  8
0
 10
5192.93486475024838
 20
237.5338211410906979
 30
0.0
 40
0.8594024200452356
 50
193.2529787132885133
 51
203.5862046641130974
  0
ARC
  5
E1CE
  8
0
 10
5193.1316915824108946
 20
237.5801785081370099
 30
0.0
 40
1.0616147029041101
 50
185.4549830119987917
 51
193.2529787132885133
  0
LINE
  5
E1CF
  8
0
 10
5192.0748847237637165
 20
237.4792575443206033
 30
0.0
 11
5192.0748847237637165
 21
238.101392220825403
 31
0.0
  0
ARC
  5
E1D0
  8
0
 10
5193.8220812454374027
 20
240.9566666225856011
 30
0.0
 40
1.5137826273562249
 50
269.8321490697529725
 51
270.8454330756180752
  0
ARC
  5
E1D1
  8
0
 10
5193.8419496361939309
 20
237.1170307509572979
 30
0.0
 40
2.3259867090740318
 50
90.598666246386756
 51
92.6357795999656162
  0
ARC
  5
E1D2
  8
0
 10
5193.8468587420620679
 20
237.0103933813691128
 30
0.0
 40
2.4327370154582071
 50
92.6357795999656162
 51
95.1888182316599654
  0
ARC
  5
E1D3
  8
0
 10
5193.8641213923765463
 20
236.8202977716890985
 30
0.0
 40
2.6236148295580222
 50
95.1888182316599654
 51
99.8064124061595237
  0
ARC
  5
E1D4
  8
0
 10
5193.7744350174807551
 20
237.3391802634160115
 30
0.0
 40
2.0970384475747941
 50
99.8064124061595237
 51
110.8069274713824939
  0
ARC
  5
E1D5
  8
0
 10
5193.8609721624361555
 20
237.1114525679768121
 30
0.0
 40
2.3406540889586029
 50
110.8069274713824939
 51
119.0919438210017063
  0
ARC
  5
E1D6
  8
0
 10
5193.3935001223262589
 20
237.9516120288483876
 30
0.0
 40
1.379197887160416
 50
119.0919438210017063
 51
139.7926741399807042
  0
ARC
  5
E1D7
  8
0
 10
5193.2866369529137955
 20
238.0419418323591003
 30
0.0
 40
1.2392721555053501
 50
139.7926741399807042
 51
153.32663636423041
  0
ARC
  5
E1D8
  8
0
 10
5193.0936257660641786
 20
238.1389039454446959
 30
0.0
 40
1.023274540649266
 50
153.32663636423041
 51
162.7456654359457104
  0
ARC
  5
E1D9
  8
0
 10
5192.8861274540386148
 20
238.2033510955646136
 30
0.0
 40
0.8059982542043366
 50
162.7456654359457104
 51
173.6096638518407076
  0
ARC
  5
E1DA
  8
0
 10
5193.2181748165603494
 20
238.1661627249536082
 30
0.0
 40
1.140121623433892
 50
173.6096638518407076
 51
177.6926054142195142
  0
ARC
  5
E1DB
  8
0
 10
5208.8114784833396698
 20
237.5378552269733916
 30
0.0
 40
16.7460784847238102
 50
177.6926054142195142
 51
178.0715253051992022
  0
ARC
  5
E1DC
  8
0
 10
5193.9414552967564305
 20
233.0383377506383908
 30
0.0
 40
5.7461762599902588
 50
90.9676240181534723
 51
92.4407333004871248
  0
ARC
  5
E1DD
  8
0
 10
5193.8415190478081058
 20
236.3561805986541913
 30
0.0
 40
2.4274413375129198
 50
93.4190907075965242
 51
102.7819477066622937
  0
ARC
  5
E1DE
  8
0
 10
5193.7789342384057818
 20
236.6320509602678044
 30
0.0
 40
2.1445609479759389
 50
102.7819477066622937
 51
116.104084156054995
  0
ARC
  5
E1DF
  8
0
 10
5193.5622934351522417
 20
237.0741900834892135
 30
0.0
 40
1.6521990466090111
 50
116.104084156054995
 51
132.8250202029975071
  0
ARC
  5
E1E0
  8
0
 10
5193.2411838077414359
 20
237.4206533294891983
 30
0.0
 40
1.179813426965806
 50
132.8250202029975071
 51
150.9150521437827877
  0
ARC
  5
E1E1
  8
0
 10
5193.0565030492807637
 20
237.5233817824203868
 30
0.0
 40
0.9684840215664573
 50
150.9150521437827877
 51
168.8170162730764048
  0
ARC
  5
E1E2
  8
0
 10
5192.9397789419190303
 20
237.5464577551628054
 30
0.0
 40
0.8495007548541678
 50
168.8170162730764048
 51
185.3708384491577021
  0
ARC
  5
E1E3
  8
0
 10
5193.094386789289274
 20
237.5609931103404051
 30
0.0
 40
1.004790364997425
 50
185.3708384491577021
 51
194.9757091058864091
  0
ARC
  5
E1E4
  8
0
 10
5193.2591795358293894
 20
237.6050743212350085
 30
0.0
 40
1.175377007106452
 50
194.9757091058864091
 51
210.0451082352153946
  0
LINE
  5
E1E5
  8
0
 10
5193.5795227007110952
 20
236.7720619622799916
 30
0.0
 11
5193.5866927967517768
 21
236.7078411722644944
 31
0.0
  0
LINE
  5
E1E6
  8
0
 10
5193.7047635271437684
 20
236.7693785340960062
 30
0.0
 11
5193.6978281747560686
 21
236.7072601432616921
 31
0.0
  0
ARC
  5
E1E7
  8
0
 10
5193.6043818345578984
 20
236.758457430120302
 30
0.0
 40
0.0312838832690747
 50
196.2595407451906908
 51
228.5136672160614921
  0
ARC
  5
E1E8
  8
0
 10
5193.5966401906916872
 20
236.7561995480039059
 30
0.0
 40
0.0232196981651518
 50
145.6404613477222085
 51
196.2595407451906908
  0
ARC
  5
E1E9
  8
0
 10
5193.6131809263342802
 20
236.744891018798711
 30
0.0
 40
0.043256633268194
 50
100.7748389908669964
 51
145.6404613477236012
  0
ARC
  5
E1EA
  8
0
 10
5193.6407194621733652
 20
236.6991285342932088
 30
0.0
 40
0.09517548234298
 50
65.4944159451338948
 51
111.9818195814593054
  0
ARC
  5
E1EB
  8
0
 10
5193.6704360279982211
 20
236.7444363567458083
 30
0.0
 40
0.0424321742137003
 50
25.5813780766894006
 51
76.7013965357523233
  0
ARC
  5
E1EC
  8
0
 10
5193.6849695978671662
 20
236.7530328871200993
 30
0.0
 40
0.0256540009573729
 50
307.7452545985016741
 51
22.27779475790296
  0
ARC
  5
E1ED
  8
0
 10
5193.625769287784351
 20
236.7162620323211115
 30
0.0
 40
0.0399735291842252
 50
192.161086094477298
 51
248.2972519764084041
  0
ARC
  5
E1EE
  8
0
 10
5193.6443411112868489
 20
236.7629244492800069
 30
0.0
 40
0.090195972221681
 50
248.2972519764084041
 51
281.4734015339553252
  0
ARC
  5
E1EF
  8
0
 10
5193.6521352939098506
 20
236.724523577596301
 30
0.0
 40
0.0510120950675091
 50
281.4734015339553252
 51
313.2599594324551049
  0
ARC
  5
E1F0
  8
0
 10
5193.6625391089792174
 20
236.7134678477972045
 30
0.0
 40
0.0358309050816383
 50
313.2599594324561849
 51
350.0231646423276857
  0
ARC
  5
E1F1
  8
0
 10
5193.6424320697724397
 20
236.7161468558093134
 30
0.0
 40
0.0214284814470156
 50
225.268577181822593
 51
311.9843035603021804
  0
ARC
  5
E1F2
  8
0
 10
5193.6507108109681212
 20
236.7069473152037062
 30
0.0
 40
0.0090523308687431
 50
311.9843035602989971
 51
43.0513963816545626
  0
ARC
  5
E1F3
  8
0
 10
5193.6424182423506863
 20
236.6992004508790899
 30
0.0
 40
0.0204004849534411
 50
43.05139638165695
 51
138.522364905803812
  0
ARC
  5
E1F4
  8
0
 10
5193.6336675117972845
 20
236.7069363559585895
 30
0.0
 40
0.0087206085566585
 50
138.5223649058073931
 51
223.5880504084645111
  0
ARC
  5
E1F5
  8
0
 10
5193.6419038644608008
 20
236.721632613067186
 30
0.0
 40
0.0354147243713751
 50
224.0631482881439922
 51
318.6765519004633802
  0
ARC
  5
E1F6
  8
0
 10
5193.6604738380337949
 20
236.7053050226714959
 30
0.0
 40
0.0106875302999107
 50
318.6765519004584917
 51
49.8685750553262892
  0
ARC
  5
E1F7
  8
0
 10
5193.6422633579759349
 20
236.6837034399742947
 30
0.0
 40
0.0389408479623065
 50
49.8685750553273408
 51
132.7400500447378136
  0
ARC
  5
E1F8
  8
0
 10
5193.6263121358088029
 20
236.7050656302666027
 30
0.0
 40
0.012733702702565
 50
145.3628895405566936
 51
219.2821553374907069
  0
ARC
  5
E1F9
  8
0
 10
5193.646649133858773
 20
236.8808511744454961
 30
0.0
 40
0.1337969311306891
 50
238.2054464453605078
 51
240.2968784324964133
  0
ARC
  5
E1FA
  8
0
 10
5193.646649133858773
 20
236.8808511744454961
 30
0.0
 40
0.1337969311306891
 50
295.2378127094195861
 51
297.7053647849486993
  0
LINE
  5
E1FB
  8
0
 10
5193.3778031881693096
 20
237.0023035213922924
 30
0.0
 11
5193.3849732842090816
 21
236.9380827313767099
 31
0.0
  0
LINE
  5
E1FC
  8
0
 10
5193.5030440146001638
 20
236.9996200932081933
 30
0.0
 11
5193.496108662214283
 21
236.9375017023739076
 31
0.0
  0
ARC
  5
E1FD
  8
0
 10
5193.4026623220152032
 20
236.9886989892326028
 30
0.0
 40
0.0312838832690747
 50
196.2595407451906908
 51
228.5136672160614921
  0
ARC
  5
E1FE
  8
0
 10
5193.3949206781499015
 20
236.986441107116093
 30
0.0
 40
0.0232196981651518
 50
145.6404613477222085
 51
196.2595407451906908
  0
ARC
  5
E1FF
  8
0
 10
5193.4114614137906756
 20
236.9751325779108981
 30
0.0
 40
0.043256633268194
 50
100.7748389908669964
 51
145.6404613477236012
  0
ARC
  5
E200
  8
0
 10
5193.43899994963067
 20
236.9293700934055096
 30
0.0
 40
0.09517548234298
 50
65.4944159451338948
 51
111.9818195814593054
  0
ARC
  5
E201
  8
0
 10
5193.4687165154564354
 20
236.9746779158579955
 30
0.0
 40
0.0424321742137003
 50
25.5813780766894006
 51
76.7013965357523233
  0
ARC
  5
E202
  8
0
 10
5193.4832500853253805
 20
236.9832744462324001
 30
0.0
 40
0.0256540009573729
 50
307.7452545985016741
 51
22.27779475790296
  0
ARC
  5
E203
  8
0
 10
5193.4240497752407464
 20
236.9465035914332987
 30
0.0
 40
0.0399735291842252
 50
192.161086094477298
 51
248.2972519764084041
  0
ARC
  5
E204
  8
0
 10
5193.4426215987441537
 20
236.9931660083921088
 30
0.0
 40
0.090195972221681
 50
248.2972519764084041
 51
281.4734015339553252
  0
ARC
  5
E205
  8
0
 10
5193.4504157813671554
 20
236.9547651367084882
 30
0.0
 40
0.0510120950675091
 50
281.4734015339553252
 51
313.2599594324551049
  0
ARC
  5
E206
  8
0
 10
5193.4608195964356128
 20
236.9437094069095053
 30
0.0
 40
0.0358309050816383
 50
313.2599594324561849
 51
350.0231646423276857
  0
ARC
  5
E207
  8
0
 10
5193.4407125572288351
 20
236.9463884149216142
 30
0.0
 40
0.0214284814470156
 50
225.268577181822593
 51
311.9843035603021804
  0
ARC
  5
E208
  8
0
 10
5193.4489912984254261
 20
236.9371888743158934
 30
0.0
 40
0.0090523308687431
 50
311.9843035602989971
 51
43.0513963816545626
  0
ARC
  5
E209
  8
0
 10
5193.4406987298079912
 20
236.9294420099913054
 30
0.0
 40
0.0204004849534411
 50
43.05139638165695
 51
138.522364905803812
  0
ARC
  5
E20A
  8
0
 10
5193.4319479992536799
 20
236.9371779150708903
 30
0.0
 40
0.0087206085566585
 50
138.5223649058073931
 51
223.5880504084645111
  0
ARC
  5
E20B
  8
0
 10
5193.4401843519181057
 20
236.9518741721794015
 30
0.0
 40
0.0354147243713751
 50
224.0631482881439922
 51
318.6765519004633802
  0
ARC
  5
E20C
  8
0
 10
5193.4587543254910997
 20
236.9355465817837114
 30
0.0
 40
0.0106875302999107
 50
318.6765519004584917
 51
49.8685750553262892
  0
ARC
  5
E20D
  8
0
 10
5193.4405438454341493
 20
236.9139449990865955
 30
0.0
 40
0.0389408479623065
 50
49.8685750553273408
 51
132.7400500447378136
  0
ARC
  5
E20E
  8
0
 10
5193.4245926232670172
 20
236.9353071893787899
 30
0.0
 40
0.012733702702565
 50
145.3628895405566936
 51
219.2821553374907069
  0
ARC
  5
E20F
  8
0
 10
5193.4449296213160778
 20
237.1110927335577117
 30
0.0
 40
0.1337969311306891
 50
238.2054464453605078
 51
240.2968784324964133
  0
ARC
  5
E210
  8
0
 10
5193.4449296213160778
 20
237.1110927335577117
 30
0.0
 40
0.1337969311306891
 50
295.2378127094195861
 51
297.7053647849486993
  0
LINE
  5
E211
  8
0
 10
5193.5801150104698536
 20
237.2326094411793918
 30
0.0
 11
5193.5872851065114446
 21
237.1683886511638946
 31
0.0
  0
LINE
  5
E212
  8
0
 10
5193.7053558369034363
 20
237.2299260129954064
 30
0.0
 11
5193.698420484514827
 21
237.1678076221610922
 31
0.0
  0
ARC
  5
E213
  8
0
 10
5193.6049741443166567
 20
237.2190049090197022
 30
0.0
 40
0.0312838832690747
 50
196.2595407451906908
 51
228.5136672160614921
  0
ARC
  5
E214
  8
0
 10
5193.597232500451355
 20
237.2167470269033061
 30
0.0
 40
0.0232196981651518
 50
145.6404613477222085
 51
196.2595407451906908
  0
ARC
  5
E215
  8
0
 10
5193.6137732360921291
 20
237.2054384976979975
 30
0.0
 40
0.043256633268194
 50
100.7748389908669964
 51
145.6404613477236012
  0
ARC
  5
E216
  8
0
 10
5193.641311771933033
 20
237.1596760131926089
 30
0.0
 40
0.09517548234298
 50
65.4944159451338948
 51
111.9818195814593054
  0
ARC
  5
E217
  8
0
 10
5193.6710283377578889
 20
237.2049838356450948
 30
0.0
 40
0.0424321742137003
 50
25.5813780766894006
 51
76.7013965357523233
  0
ARC
  5
E218
  8
0
 10
5193.685561907626834
 20
237.2135803660194995
 30
0.0
 40
0.0256540009573729
 50
307.7452545985016741
 51
22.27779475790296
  0
ARC
  5
E219
  8
0
 10
5193.6263615975431094
 20
237.1768095112205117
 30
0.0
 40
0.0399735291842252
 50
192.161086094477298
 51
248.2972519764084041
  0
ARC
  5
E21A
  8
0
 10
5193.6449334210456072
 20
237.2234719281792934
 30
0.0
 40
0.090195972221681
 50
248.2972519764084041
 51
281.4734015339553252
  0
ARC
  5
E21B
  8
0
 10
5193.6527276036686089
 20
237.1850710564957012
 30
0.0
 40
0.0510120950675091
 50
281.4734015339553252
 51
313.2599594324551049
  0
ARC
  5
E21C
  8
0
 10
5193.6631314187379758
 20
237.1740153266966047
 30
0.0
 40
0.0358309050816383
 50
313.2599594324561849
 51
350.0231646423276857
  0
ARC
  5
E21D
  8
0
 10
5193.6430243795311981
 20
237.1766943347087135
 30
0.0
 40
0.0214284814470156
 50
225.268577181822593
 51
311.9843035603021804
  0
ARC
  5
E21E
  8
0
 10
5193.6513031207268796
 20
237.1674947941031064
 30
0.0
 40
0.0090523308687431
 50
311.9843035602989971
 51
43.0513963816545626
  0
ARC
  5
E21F
  8
0
 10
5193.6430105521103542
 20
237.1597479297784048
 30
0.0
 40
0.0204004849534411
 50
43.05139638165695
 51
138.522364905803812
  0
ARC
  5
E220
  8
0
 10
5193.6342598215551334
 20
237.1674838348579897
 30
0.0
 40
0.0087206085566585
 50
138.5223649058073931
 51
223.5880504084645111
  0
ARC
  5
E221
  8
0
 10
5193.6424961742195592
 20
237.1821800919665861
 30
0.0
 40
0.0354147243713751
 50
224.0631482881439922
 51
318.6765519004633802
  0
ARC
  5
E222
  8
0
 10
5193.6610661477925532
 20
237.165852501570896
 30
0.0
 40
0.0106875302999107
 50
318.6765519004584917
 51
49.8685750553262892
  0
ARC
  5
E223
  8
0
 10
5193.6428556677356028
 20
237.1442509188736949
 30
0.0
 40
0.0389408479623065
 50
49.8685750553273408
 51
132.7400500447378136
  0
ARC
  5
E224
  8
0
 10
5193.6269044455693802
 20
237.1656131091660029
 30
0.0
 40
0.012733702702565
 50
145.3628895405566936
 51
219.2821553374907069
  0
ARC
  5
E225
  8
0
 10
5193.6472414436166218
 20
237.3413986533448963
 30
0.0
 40
0.1337969311306891
 50
238.2054464453605078
 51
240.2968784324964133
  0
ARC
  5
E226
  8
0
 10
5193.6472414436166218
 20
237.3413986533448963
 30
0.0
 40
0.1337969311306891
 50
295.2378127094195861
 51
297.7053647849486993
  0
LINE
  5
E227
  8
0
 10
5193.3774401943819612
 20
237.4795193398647939
 30
0.0
 11
5193.3846102904217332
 21
237.4152985498492967
 31
0.0
  0
LINE
  5
E228
  8
0
 10
5193.5026810208146344
 20
237.4768359116808085
 30
0.0
 11
5193.4957456684269346
 21
237.4147175208464944
 31
0.0
  0
ARC
  5
E229
  8
0
 10
5193.4022993282287644
 20
237.4659148077051043
 30
0.0
 40
0.0312838832690747
 50
196.2595407451906908
 51
228.5136672160614921
  0
ARC
  5
E22A
  8
0
 10
5193.3945576843643721
 20
237.4636569255887082
 30
0.0
 40
0.0232196981651518
 50
145.6404613477222085
 51
196.2595407451906908
  0
ARC
  5
E22B
  8
0
 10
5193.4110984200042367
 20
237.4523483963835133
 30
0.0
 40
0.043256633268194
 50
100.7748389908669964
 51
145.6404613477236012
  0
ARC
  5
E22C
  8
0
 10
5193.4386369558442311
 20
237.4065859118780111
 30
0.0
 40
0.09517548234298
 50
65.4944159451338948
 51
111.9818195814593054
  0
ARC
  5
E22D
  8
0
 10
5193.4683535216690871
 20
237.4518937343306106
 30
0.0
 40
0.0424321742137003
 50
25.5813780766894006
 51
76.7013965357523233
  0
ARC
  5
E22E
  8
0
 10
5193.4828870915389416
 20
237.4604902647049016
 30
0.0
 40
0.0256540009573729
 50
307.7452545985016741
 51
22.27779475790296
  0
ARC
  5
E22F
  8
0
 10
5193.423686781455217
 20
237.4237194099058001
 30
0.0
 40
0.0399735291842252
 50
192.161086094477298
 51
248.2972519764084041
  0
ARC
  5
E230
  8
0
 10
5193.4422586049577149
 20
237.4703818268648092
 30
0.0
 40
0.090195972221681
 50
248.2972519764084041
 51
281.4734015339553252
  0
ARC
  5
E231
  8
0
 10
5193.450052787579807
 20
237.4319809551811034
 30
0.0
 40
0.0510120950675091
 50
281.4734015339553252
 51
313.2599594324551049
  0
ARC
  5
E232
  8
0
 10
5193.4604566026500834
 20
237.4209252253820068
 30
0.0
 40
0.0358309050816383
 50
313.2599594324561849
 51
350.0231646423276857
  0
ARC
  5
E233
  8
0
 10
5193.4403495634433057
 20
237.4236042333940873
 30
0.0
 40
0.0214284814470156
 50
225.268577181822593
 51
311.9843035603021804
  0
ARC
  5
E234
  8
0
 10
5193.4486283046389872
 20
237.4144046927885086
 30
0.0
 40
0.0090523308687431
 50
311.9843035602989971
 51
43.0513963816545626
  0
ARC
  5
E235
  8
0
 10
5193.4403357360215523
 20
237.4066578284638922
 30
0.0
 40
0.0204004849534411
 50
43.05139638165695
 51
138.522364905803812
  0
ARC
  5
E236
  8
0
 10
5193.431585005467241
 20
237.4143937335433918
 30
0.0
 40
0.0087206085566585
 50
138.5223649058073931
 51
223.5880504084645111
  0
ARC
  5
E237
  8
0
 10
5193.4398213581316668
 20
237.4290899906519883
 30
0.0
 40
0.0354147243713751
 50
224.0631482881439922
 51
318.6765519004633802
  0
ARC
  5
E238
  8
0
 10
5193.4583913317046608
 20
237.4127624002562982
 30
0.0
 40
0.0106875302999107
 50
318.6765519004584917
 51
49.8685750553262892
  0
ARC
  5
E239
  8
0
 10
5193.4401808516477104
 20
237.391160817559097
 30
0.0
 40
0.0389408479623065
 50
49.8685750553273408
 51
132.7400500447378136
  0
ARC
  5
E23A
  8
0
 10
5193.4242296294805783
 20
237.4125230078512914
 30
0.0
 40
0.012733702702565
 50
145.3628895405566936
 51
219.2821553374907069
  0
ARC
  5
E23B
  8
0
 10
5193.4445666275296389
 20
237.5883085520302984
 30
0.0
 40
0.1337969311306891
 50
238.2054464453605078
 51
240.2968784324964133
  0
ARC
  5
E23C
  8
0
 10
5193.4445666275296389
 20
237.5883085520302984
 30
0.0
 40
0.1337969311306891
 50
295.2378127094195861
 51
297.7053647849486993
  0
LINE
  5
E23D
  8
0
 10
5193.5797868221980025
 20
237.7272269883482068
 30
0.0
 11
5193.5869569182377745
 21
237.6630061983325959
 31
0.0
  0
LINE
  5
E23E
  8
0
 10
5193.7050276486288567
 20
237.724543560164193
 30
0.0
 11
5193.6980922962420664
 21
237.6624251693299072
 31
0.0
  0
ARC
  5
E23F
  8
0
 10
5193.6046459560429867
 20
237.7136224561884035
 30
0.0
 40
0.0312838832690747
 50
196.2595407451906908
 51
228.5136672160614921
  0
ARC
  5
E240
  8
0
 10
5193.5969043121785944
 20
237.7113645740720074
 30
0.0
 40
0.0232196981651518
 50
145.6404613477222085
 51
196.2595407451906908
  0
ARC
  5
E241
  8
0
 10
5193.6134450478193685
 20
237.7000560448668125
 30
0.0
 40
0.043256633268194
 50
100.7748389908669964
 51
145.6404613477236012
  0
ARC
  5
E242
  8
0
 10
5193.6409835836593629
 20
237.6542935603613103
 30
0.0
 40
0.09517548234298
 50
65.4944159451338948
 51
111.9818195814593054
  0
ARC
  5
E243
  8
0
 10
5193.6707001494851283
 20
237.6996013828139098
 30
0.0
 40
0.0424321742137003
 50
25.5813780766894006
 51
76.7013965357523233
  0
ARC
  5
E244
  8
0
 10
5193.6852337193540734
 20
237.7081979131882861
 30
0.0
 40
0.0256540009573729
 50
307.7452545985016741
 51
22.27779475790296
  0
ARC
  5
E245
  8
0
 10
5193.6260334092703488
 20
237.671427058389213
 30
0.0
 40
0.0399735291842252
 50
192.161086094477298
 51
248.2972519764084041
  0
ARC
  5
E246
  8
0
 10
5193.6446052327728466
 20
237.7180894753481084
 30
0.0
 40
0.090195972221681
 50
248.2972519764084041
 51
281.4734015339553252
  0
ARC
  5
E247
  8
0
 10
5193.6523994153958483
 20
237.6796886036644025
 30
0.0
 40
0.0510120950675091
 50
281.4734015339553252
 51
313.2599594324551049
  0
ARC
  5
E248
  8
0
 10
5193.6628032304661247
 20
237.6686328738653913
 30
0.0
 40
0.0358309050816383
 50
313.2599594324561849
 51
350.0231646423276857
  0
ARC
  5
E249
  8
0
 10
5193.642696191259347
 20
237.6713118818773864
 30
0.0
 40
0.0214284814470156
 50
225.268577181822593
 51
311.9843035603021804
  0
ARC
  5
E24A
  8
0
 10
5193.650974932454119
 20
237.6621123412718077
 30
0.0
 40
0.0090523308687431
 50
311.9843035602989971
 51
43.0513963816545626
  0
ARC
  5
E24B
  8
0
 10
5193.6426823638366841
 20
237.6543654769471914
 30
0.0
 40
0.0204004849534411
 50
43.05139638165695
 51
138.522364905803812
  0
ARC
  5
E24C
  8
0
 10
5193.6339316332823728
 20
237.6621013820268047
 30
0.0
 40
0.0087206085566585
 50
138.5223649058073931
 51
223.5880504084645111
  0
ARC
  5
E24D
  8
0
 10
5193.6421679859467986
 20
237.6767976391352875
 30
0.0
 40
0.0354147243713751
 50
224.0631482881439922
 51
318.6765519004633802
  0
ARC
  5
E24E
  8
0
 10
5193.6607379595207021
 20
237.6604700487395974
 30
0.0
 40
0.0106875302999107
 50
318.6765519004584917
 51
49.8685750553262892
  0
ARC
  5
E24F
  8
0
 10
5193.6425274794637517
 20
237.6388684660423962
 30
0.0
 40
0.0389408479623065
 50
49.8685750553273408
 51
132.7400500447378136
  0
ARC
  5
E250
  8
0
 10
5193.6265762572966196
 20
237.6602306563347042
 30
0.0
 40
0.012733702702565
 50
145.3628895405566936
 51
219.2821553374907069
  0
ARC
  5
E251
  8
0
 10
5193.6469132553447707
 20
237.8360162005137113
 30
0.0
 40
0.1337969311306891
 50
238.2054464453605078
 51
240.2968784324964133
  0
ARC
  5
E252
  8
0
 10
5193.6469132553447707
 20
237.8360162005137113
 30
0.0
 40
0.1337969311306891
 50
295.2378127094195861
 51
297.7053647849486993
  0
LINE
  5
E253
  8
0
 10
5193.3783466778031652
 20
237.9925003393236125
 30
0.0
 11
5193.3855167738447562
 21
237.9282795493080869
 31
0.0
  0
LINE
  5
E254
  8
0
 10
5193.5035875042358384
 20
237.9898169111395987
 30
0.0
 11
5193.4966521518490481
 21
237.927698520305313
 31
0.0
  0
ARC
  5
E255
  8
0
 10
5193.4032058116508779
 20
237.9788958071638945
 30
0.0
 40
0.0312838832690747
 50
196.2595407451906908
 51
228.5136672160614921
  0
ARC
  5
E256
  8
0
 10
5193.3954641677846666
 20
237.9766379250474984
 30
0.0
 40
0.0232196981651518
 50
145.6404613477222085
 51
196.2595407451906908
  0
ARC
  5
E257
  8
0
 10
5193.4120049034263502
 20
237.9653293958423035
 30
0.0
 40
0.043256633268194
 50
100.7748389908669964
 51
145.6404613477236012
  0
ARC
  5
E258
  8
0
 10
5193.4395434392663446
 20
237.9195669113368012
 30
0.0
 40
0.09517548234298
 50
65.4944159451338948
 51
111.9818195814593054
  0
ARC
  5
E259
  8
0
 10
5193.4692600050912006
 20
237.9648747337894008
 30
0.0
 40
0.0424321742137003
 50
25.5813780766894006
 51
76.7013965357523233
  0
ARC
  5
E25A
  8
0
 10
5193.4837935749610551
 20
237.9734712641636918
 30
0.0
 40
0.0256540009573729
 50
307.7452545985016741
 51
22.27779475790296
  0
ARC
  5
E25B
  8
0
 10
5193.424593264876421
 20
237.936700409364704
 30
0.0
 40
0.0399735291842252
 50
192.161086094477298
 51
248.2972519764084041
  0
ARC
  5
E25C
  8
0
 10
5193.4431650883780094
 20
237.9833628263235141
 30
0.0
 40
0.090195972221681
 50
248.2972519764084041
 51
281.4734015339553252
  0
ARC
  5
E25D
  8
0
 10
5193.4509592710028301
 20
237.9449619546398935
 30
0.0
 40
0.0510120950675091
 50
281.4734015339553252
 51
313.2599594324551049
  0
ARC
  5
E25E
  8
0
 10
5193.4613630860721969
 20
237.933906224840797
 30
0.0
 40
0.0358309050816383
 50
313.2599594324561849
 51
350.0231646423276857
  0
ARC
  5
E25F
  8
0
 10
5193.4412560468663287
 20
237.9365852328529058
 30
0.0
 40
0.0214284814470156
 50
225.268577181822593
 51
311.9843035603021804
  0
ARC
  5
E260
  8
0
 10
5193.4495347880620102
 20
237.9273856922472987
 30
0.0
 40
0.0090523308687431
 50
311.9843035602989971
 51
43.0513963816545626
  0
ARC
  5
E261
  8
0
 10
5193.4412422194436658
 20
237.9196388279225971
 30
0.0
 40
0.0204004849534411
 50
43.05139638165695
 51
138.522364905803812
  0
ARC
  5
E262
  8
0
 10
5193.432491488890264
 20
237.9273747330022104
 30
0.0
 40
0.0087206085566585
 50
138.5223649058073931
 51
223.5880504084645111
  0
ARC
  5
E263
  8
0
 10
5193.4407278415537803
 20
237.9420709901108069
 30
0.0
 40
0.0354147243713751
 50
224.0631482881439922
 51
318.6765519004633802
  0
ARC
  5
E264
  8
0
 10
5193.4592978151267744
 20
237.9257433997150883
 30
0.0
 40
0.0106875302999107
 50
318.6765519004584917
 51
49.8685750553262892
  0
ARC
  5
E265
  8
0
 10
5193.4410873350698239
 20
237.9041418170178872
 30
0.0
 40
0.0389408479623065
 50
49.8685750553273408
 51
132.7400500447378136
  0
ARC
  5
E266
  8
0
 10
5193.4251361129026918
 20
237.9255040073101952
 30
0.0
 40
0.012733702702565
 50
145.3628895405566936
 51
219.2821553374907069
  0
ARC
  5
E267
  8
0
 10
5193.445473110950843
 20
238.1012895514890886
 30
0.0
 40
0.1337969311306891
 50
238.2054464453605078
 51
240.2968784324964133
  0
ARC
  5
E268
  8
0
 10
5193.445473110950843
 20
238.1012895514890886
 30
0.0
 40
0.1337969311306891
 50
295.2378127094195861
 51
297.7053647849486993
  0
LINE
  5
E269
  8
0
 10
5193.5781685198189734
 20
238.2557086189052882
 30
0.0
 11
5193.5853386158605645
 21
238.191487828889791
 31
0.0
  0
LINE
  5
E26A
  8
0
 10
5193.7034093462516466
 20
238.2530251907213028
 30
0.0
 11
5193.6964739938630373
 21
238.1909067998869887
 31
0.0
  0
ARC
  5
E26B
  8
0
 10
5193.6030276536648671
 20
238.2421040867455986
 30
0.0
 40
0.0312838832690747
 50
196.2595407451906908
 51
228.5136672160614921
  0
ARC
  5
E26C
  8
0
 10
5193.5952860097995654
 20
238.2398462046292025
 30
0.0
 40
0.0232196981651518
 50
145.6404613477222085
 51
196.2595407451906908
  0
ARC
  5
E26D
  8
0
 10
5193.6118267454412489
 20
238.2285376754240076
 30
0.0
 40
0.043256633268194
 50
100.7748389908669964
 51
145.6404613477236012
  0
ARC
  5
E26E
  8
0
 10
5193.6393652812821529
 20
238.1827751909185054
 30
0.0
 40
0.09517548234298
 50
65.4944159451338948
 51
111.9818195814593054
  0
ARC
  5
E26F
  8
0
 10
5193.6690818471070088
 20
238.2280830133711049
 30
0.0
 40
0.0424321742137003
 50
25.5813780766894006
 51
76.7013965357523233
  0
ARC
  5
E270
  8
0
 10
5193.6836154169759538
 20
238.2366795437453959
 30
0.0
 40
0.0256540009573729
 50
307.7452545985016741
 51
22.27779475790296
  0
ARC
  5
E271
  8
0
 10
5193.6244151068922292
 20
238.1999086889464081
 30
0.0
 40
0.0399735291842252
 50
192.161086094477298
 51
248.2972519764084041
  0
ARC
  5
E272
  8
0
 10
5193.6429869303947271
 20
238.2465711059051898
 30
0.0
 40
0.090195972221681
 50
248.2972519764084041
 51
281.4734015339553252
  0
ARC
  5
E273
  8
0
 10
5193.6507811130177288
 20
238.2081702342215976
 30
0.0
 40
0.0510120950675091
 50
281.4734015339553252
 51
313.2599594324551049
  0
ARC
  5
E274
  8
0
 10
5193.6611849280880051
 20
238.1971145044225864
 30
0.0
 40
0.0358309050816383
 50
313.2599594324561849
 51
350.0231646423276857
  0
ARC
  5
E275
  8
0
 10
5193.6410778888812274
 20
238.19979351243461
 30
0.0
 40
0.0214284814470156
 50
225.268577181822593
 51
311.9843035603021804
  0
ARC
  5
E276
  8
0
 10
5193.6493566300759994
 20
238.1905939718290028
 30
0.0
 40
0.0090523308687431
 50
311.9843035602989971
 51
43.0513963816545626
  0
ARC
  5
E277
  8
0
 10
5193.6410640614585645
 20
238.1828471075043012
 30
0.0
 40
0.0204004849534411
 50
43.05139638165695
 51
138.522364905803812
  0
ARC
  5
E278
  8
0
 10
5193.6323133309051627
 20
238.1905830125838861
 30
0.0
 40
0.0087206085566585
 50
138.5223649058073931
 51
223.5880504084645111
  0
ARC
  5
E279
  8
0
 10
5193.640549683568679
 20
238.205279269692511
 30
0.0
 40
0.0354147243713751
 50
224.0631482881439922
 51
318.6765519004633802
  0
ARC
  5
E27A
  8
0
 10
5193.6591196571425826
 20
238.1889516792967925
 30
0.0
 40
0.0106875302999107
 50
318.6765519004584917
 51
49.8685750553262892
  0
ARC
  5
E27B
  8
0
 10
5193.6409091770847226
 20
238.1673500965995913
 30
0.0
 40
0.0389408479623065
 50
49.8685750553273408
 51
132.7400500447378136
  0
ARC
  5
E27C
  8
0
 10
5193.6249579549175905
 20
238.1887122868918993
 30
0.0
 40
0.012733702702565
 50
145.3628895405566936
 51
219.2821553374907069
  0
ARC
  5
E27D
  8
0
 10
5193.6452949529666512
 20
238.3644978310707927
 30
0.0
 40
0.1337969311306891
 50
238.2054464453605078
 51
240.2968784324964133
  0
ARC
  5
E27E
  8
0
 10
5193.6452949529666512
 20
238.3644978310707927
 30
0.0
 40
0.1337969311306891
 50
295.2378127094195861
 51
297.7053647849486993
  0
LINE
  5
E27F
  8
0
 10
5193.3755540743568417
 20
238.5341820524621141
 30
0.0
 11
5193.3827241703984328
 21
238.4699612624465033
 31
0.0
  0
LINE
  5
E280
  8
0
 10
5193.5007949007886054
 20
238.5314986242779867
 30
0.0
 11
5193.4938595484018151
 21
238.4693802334437009
 31
0.0
  0
ARC
  5
E281
  8
0
 10
5193.4004132082036449
 20
238.5205775203023109
 30
0.0
 40
0.0312838832690747
 50
196.2595407451906908
 51
228.5136672160614921
  0
ARC
  5
E282
  8
0
 10
5193.3926715643392527
 20
238.5183196381858863
 30
0.0
 40
0.0232196981651518
 50
145.6404613477222085
 51
196.2595407451906908
  0
ARC
  5
E283
  8
0
 10
5193.4092122999791172
 20
238.5070111089806915
 30
0.0
 40
0.043256633268194
 50
100.7748389908669964
 51
145.6404613477236012
  0
ARC
  5
E284
  8
0
 10
5193.4367508358191117
 20
238.4612486244751892
 30
0.0
 40
0.09517548234298
 50
65.4944159451338948
 51
111.9818195814593054
  0
ARC
  5
E285
  8
0
 10
5193.4664674016448771
 20
238.5065564469277888
 30
0.0
 40
0.0424321742137003
 50
25.5813780766894006
 51
76.7013965357523233
  0
ARC
  5
E286
  8
0
 10
5193.4810009715129127
 20
238.5151529773021082
 30
0.0
 40
0.0256540009573729
 50
307.7452545985016741
 51
22.27779475790296
  0
ARC
  5
E287
  8
0
 10
5193.4218006614300975
 20
238.478382122503092
 30
0.0
 40
0.0399735291842252
 50
192.161086094477298
 51
248.2972519764084041
  0
ARC
  5
E288
  8
0
 10
5193.4403724849316859
 20
238.5250445394619021
 30
0.0
 40
0.090195972221681
 50
248.2972519764084041
 51
281.4734015339553252
  0
ARC
  5
E289
  8
0
 10
5193.4481666675555971
 20
238.4866436677783099
 30
0.0
 40
0.0510120950675091
 50
281.4734015339553252
 51
313.2599594324551049
  0
ARC
  5
E28A
  8
0
 10
5193.4585704826249639
 20
238.4755879379792987
 30
0.0
 40
0.0358309050816383
 50
313.2599594324561849
 51
350.0231646423276857
  0
ARC
  5
E28B
  8
0
 10
5193.4384634434181862
 20
238.4782669459912938
 30
0.0
 40
0.0214284814470156
 50
225.268577181822593
 51
311.9843035603021804
  0
ARC
  5
E28C
  8
0
 10
5193.4467421846129582
 20
238.4690674053856867
 30
0.0
 40
0.0090523308687431
 50
311.9843035602989971
 51
43.0513963816545626
  0
ARC
  5
E28D
  8
0
 10
5193.4384496159973423
 20
238.4613205410610988
 30
0.0
 40
0.0204004849534411
 50
43.05139638165695
 51
138.522364905803812
  0
ARC
  5
E28E
  8
0
 10
5193.4296988854421215
 20
238.4690564461405984
 30
0.0
 40
0.0087206085566585
 50
138.5223649058073931
 51
223.5880504084645111
  0
ARC
  5
E28F
  8
0
 10
5193.4379352381056378
 20
238.4837527032491948
 30
0.0
 40
0.0354147243713751
 50
224.0631482881439922
 51
318.6765519004633802
  0
ARC
  5
E290
  8
0
 10
5193.4565052116786319
 20
238.4674251128535047
 30
0.0
 40
0.0106875302999107
 50
318.6765519004584917
 51
49.8685750553262892
  0
ARC
  5
E291
  8
0
 10
5193.4382947316225909
 20
238.4458235301563036
 30
0.0
 40
0.0389408479623065
 50
49.8685750553273408
 51
132.7400500447378136
  0
ARC
  5
E292
  8
0
 10
5193.4223435094563683
 20
238.4671857204486116
 30
0.0
 40
0.012733702702565
 50
145.3628895405566936
 51
219.2821553374907069
  0
ARC
  5
E293
  8
0
 10
5193.442680507505429
 20
238.642971264627505
 30
0.0
 40
0.1337969311306891
 50
238.2054464453605078
 51
240.2968784324964133
  0
ARC
  5
E294
  8
0
 10
5193.442680507505429
 20
238.642971264627505
 30
0.0
 40
0.1337969311306891
 50
295.2378127094195861
 51
297.7053647849486993
  0
LINE
  5
E295
  8
0
 10
5192.7755683136856533
 20
238.2890798592733006
 30
0.0
 11
5192.7827384097272443
 21
238.2248590692578034
 31
0.0
  0
LINE
  5
E296
  8
0
 10
5192.900809140119236
 20
238.2863964310892868
 30
0.0
 11
5192.8938737877306266
 21
238.2242780402550011
 31
0.0
  0
ARC
  5
E297
  8
0
 10
5192.8004274475333659
 20
238.275475327113611
 30
0.0
 40
0.0312838832690747
 50
196.2595407451906908
 51
228.5136672160614921
  0
ARC
  5
E298
  8
0
 10
5192.7926858036671547
 20
238.2732174449971865
 30
0.0
 40
0.0232196981651518
 50
145.6404613477222085
 51
196.2595407451906908
  0
ARC
  5
E299
  8
0
 10
5192.8092265393079288
 20
238.2619089157919916
 30
0.0
 40
0.043256633268194
 50
100.7748389908669964
 51
145.6404613477236012
  0
ARC
  5
E29A
  8
0
 10
5192.8367650751488327
 20
238.2161464312864894
 30
0.0
 40
0.09517548234298
 50
65.4944159451338948
 51
111.9818195814593054
  0
ARC
  5
E29B
  8
0
 10
5192.8664816409727791
 20
238.2614542537390889
 30
0.0
 40
0.0424321742137003
 50
25.5813780766894006
 51
76.7013965357523233
  0
ARC
  5
E29C
  8
0
 10
5192.8810152108426337
 20
238.2700507841134083
 30
0.0
 40
0.0256540009573729
 50
307.7452545985016741
 51
22.27779475790296
  0
ARC
  5
E29D
  8
0
 10
5192.8218149007589091
 20
238.2332799293143921
 30
0.0
 40
0.0399735291842252
 50
192.161086094477298
 51
248.2972519764084041
  0
ARC
  5
E29E
  8
0
 10
5192.8403867242614069
 20
238.2799423462732022
 30
0.0
 40
0.090195972221681
 50
248.2972519764084041
 51
281.4734015339553252
  0
ARC
  5
E29F
  8
0
 10
5192.8481809068853181
 20
238.2415414745896101
 30
0.0
 40
0.0510120950675091
 50
281.4734015339553252
 51
313.2599594324551049
  0
ARC
  5
E2A0
  8
0
 10
5192.8585847219546849
 20
238.2304857447905135
 30
0.0
 40
0.0358309050816383
 50
313.2599594324561849
 51
350.0231646423276857
  0
ARC
  5
E2A1
  8
0
 10
5192.8384776827479072
 20
238.233164752802594
 30
0.0
 40
0.0214284814470156
 50
225.268577181822593
 51
311.9843035603021804
  0
ARC
  5
E2A2
  8
0
 10
5192.8467564239426792
 20
238.2239652121969868
 30
0.0
 40
0.0090523308687431
 50
311.9843035602989971
 51
43.0513963816545626
  0
ARC
  5
E2A3
  8
0
 10
5192.8384638553261539
 20
238.2162183478723989
 30
0.0
 40
0.0204004849534411
 50
43.05139638165695
 51
138.522364905803812
  0
ARC
  5
E2A4
  8
0
 10
5192.8297131247709331
 20
238.2239542529520122
 30
0.0
 40
0.0087206085566585
 50
138.5223649058073931
 51
223.5880504084645111
  0
ARC
  5
E2A5
  8
0
 10
5192.8379494774362684
 20
238.238650510060495
 30
0.0
 40
0.0354147243713751
 50
224.0631482881439922
 51
318.6765519004633802
  0
ARC
  5
E2A6
  8
0
 10
5192.8565194510092624
 20
238.2223229196648049
 30
0.0
 40
0.0106875302999107
 50
318.6765519004584917
 51
49.8685750553262892
  0
ARC
  5
E2A7
  8
0
 10
5192.8383089709523119
 20
238.2007213369676037
 30
0.0
 40
0.0389408479623065
 50
49.8685750553273408
 51
132.7400500447378136
  0
ARC
  5
E2A8
  8
0
 10
5192.8223577487851799
 20
238.2220835272599118
 30
0.0
 40
0.012733702702565
 50
145.3628895405566936
 51
219.2821553374907069
  0
ARC
  5
E2A9
  8
0
 10
5192.842694746833331
 20
238.3978690714388051
 30
0.0
 40
0.1337969311306891
 50
238.2054464453605078
 51
240.2968784324964133
  0
ARC
  5
E2AA
  8
0
 10
5192.842694746833331
 20
238.3978690714388051
 30
0.0
 40
0.1337969311306891
 50
295.2378127094195861
 51
297.7053647849486993
  0
LINE
  5
E2AB
  8
0
 10
5192.9737073245169086
 20
238.0084083320209061
 30
0.0
 11
5192.9808774205575901
 21
237.9441875420054089
 31
0.0
  0
LINE
  5
E2AC
  8
0
 10
5193.0989481509495818
 20
238.0057249038368923
 30
0.0
 11
5193.0920127985618819
 21
237.9436065130026066
 31
0.0
  0
ARC
  5
E2AD
  8
0
 10
5192.9985664583628022
 20
237.9948037998611881
 30
0.0
 40
0.0312838832690747
 50
196.2595407451906908
 51
228.5136672160614921
  0
ARC
  5
E2AE
  8
0
 10
5192.99082481449841
 20
237.992545917744792
 30
0.0
 40
0.0232196981651518
 50
145.6404613477222085
 51
196.2595407451906908
  0
ARC
  5
E2AF
  8
0
 10
5193.0073655501400935
 20
237.9812373885395971
 30
0.0
 40
0.043256633268194
 50
100.7748389908669964
 51
145.6404613477236012
  0
ARC
  5
E2B0
  8
0
 10
5193.034904085980088
 20
237.9354749040340948
 30
0.0
 40
0.09517548234298
 50
65.4944159451338948
 51
111.9818195814593054
  0
ARC
  5
E2B1
  8
0
 10
5193.0646206518049439
 20
237.9807827264866944
 30
0.0
 40
0.0424321742137003
 50
25.5813780766894006
 51
76.7013965357523233
  0
ARC
  5
E2B2
  8
0
 10
5193.079154221673889
 20
237.9893792568610138
 30
0.0
 40
0.0256540009573729
 50
307.7452545985016741
 51
22.27779475790296
  0
ARC
  5
E2B3
  8
0
 10
5193.0199539115910738
 20
237.9526084020619976
 30
0.0
 40
0.0399735291842252
 50
192.161086094477298
 51
248.2972519764084041
  0
ARC
  5
E2B4
  8
0
 10
5193.0385257350926622
 20
237.999270819020893
 30
0.0
 40
0.090195972221681
 50
248.2972519764084041
 51
281.4734015339553252
  0
ARC
  5
E2B5
  8
0
 10
5193.0463199177165734
 20
237.9608699473371871
 30
0.0
 40
0.0510120950675091
 50
281.4734015339553252
 51
313.2599594324551049
  0
ARC
  5
E2B6
  8
0
 10
5193.0567237327859402
 20
237.9498142175382043
 30
0.0
 40
0.0358309050816383
 50
313.2599594324561849
 51
350.0231646423276857
  0
ARC
  5
E2B7
  8
0
 10
5193.0366166935791625
 20
237.9524932255501994
 30
0.0
 40
0.0214284814470156
 50
225.268577181822593
 51
311.9843035603021804
  0
ARC
  5
E2B8
  8
0
 10
5193.044895434773025
 20
237.9432936849445923
 30
0.0
 40
0.0090523308687431
 50
311.9843035602989971
 51
43.0513963816545626
  0
ARC
  5
E2B9
  8
0
 10
5193.0366028661583186
 20
237.9355468206200044
 30
0.0
 40
0.0204004849534411
 50
43.05139638165695
 51
138.522364905803812
  0
ARC
  5
E2BA
  8
0
 10
5193.0278521356021884
 20
237.9432827256995893
 30
0.0
 40
0.0087206085566585
 50
138.5223649058073931
 51
223.5880504084645111
  0
ARC
  5
E2BB
  8
0
 10
5193.0360884882657047
 20
237.9579789828081005
 30
0.0
 40
0.0354147243713751
 50
224.0631482881439922
 51
318.6765519004633802
  0
ARC
  5
E2BC
  8
0
 10
5193.0546584618396082
 20
237.9416513924124956
 30
0.0
 40
0.0106875302999107
 50
318.6765519004584917
 51
49.8685750553262892
  0
ARC
  5
E2BD
  8
0
 10
5193.0364479817835672
 20
237.9200498097152092
 30
0.0
 40
0.0389408479623065
 50
49.8685750553273408
 51
132.7400500447378136
  0
ARC
  5
E2BE
  8
0
 10
5193.0204967596173447
 20
237.9414120000074888
 30
0.0
 40
0.012733702702565
 50
145.3628895405566936
 51
219.2821553374907069
  0
ARC
  5
E2BF
  8
0
 10
5193.0408337576636768
 20
238.1171975441864106
 30
0.0
 40
0.1337969311306891
 50
238.2054464453605078
 51
240.2968784324964133
  0
ARC
  5
E2C0
  8
0
 10
5193.0408337576636768
 20
238.1171975441864106
 30
0.0
 40
0.1337969311306891
 50
295.2378127094195861
 51
297.7053647849486993
  0
LINE
  5
E2C1
  8
0
 10
5192.3694575804120177
 20
237.7930995247344015
 30
0.0
 11
5192.3766276764517897
 21
237.7288787347187906
 31
0.0
  0
LINE
  5
E2C2
  8
0
 10
5192.4946984068428719
 20
237.7904160965503877
 30
0.0
 11
5192.4877630544560816
 21
237.728297705716102
 31
0.0
  0
ARC
  5
E2C3
  8
0
 10
5192.3943167142579114
 20
237.7794949925745982
 30
0.0
 40
0.0312838832690747
 50
196.2595407451906908
 51
228.5136672160614921
  0
ARC
  5
E2C4
  8
0
 10
5192.3865750703926096
 20
237.7772371104582021
 30
0.0
 40
0.0232196981651518
 50
145.6404613477222085
 51
196.2595407451906908
  0
ARC
  5
E2C5
  8
0
 10
5192.4031158060333837
 20
237.7659285812530072
 30
0.0
 40
0.043256633268194
 50
100.7748389908669964
 51
145.6404613477236012
  0
ARC
  5
E2C6
  8
0
 10
5192.4306543418733781
 20
237.7201660967475902
 30
0.0
 40
0.09517548234298
 50
65.4944159451338948
 51
111.9818195814593054
  0
ARC
  5
E2C7
  8
0
 10
5192.4603709076982341
 20
237.7654739192001045
 30
0.0
 40
0.0424321742137003
 50
25.5813780766894006
 51
76.7013965357523233
  0
ARC
  5
E2C8
  8
0
 10
5192.4749044775680886
 20
237.7740704495745092
 30
0.0
 40
0.0256540009573729
 50
307.7452545985016741
 51
22.27779475790296
  0
ARC
  5
E2C9
  8
0
 10
5192.4157041674834545
 20
237.7372995947754077
 30
0.0
 40
0.0399735291842252
 50
192.161086094477298
 51
248.2972519764084041
  0
ARC
  5
E2CA
  8
0
 10
5192.4342759909859524
 20
237.7839620117343031
 30
0.0
 40
0.090195972221681
 50
248.2972519764084041
 51
281.4734015339553252
  0
ARC
  5
E2CB
  8
0
 10
5192.4420701736089541
 20
237.7455611400505973
 30
0.0
 40
0.0510120950675091
 50
281.4734015339553252
 51
313.2599594324551049
  0
ARC
  5
E2CC
  8
0
 10
5192.4524739886792304
 20
237.734505410251586
 30
0.0
 40
0.0358309050816383
 50
313.2599594324561849
 51
350.0231646423276857
  0
ARC
  5
E2CD
  8
0
 10
5192.4323669494724527
 20
237.7371844182636096
 30
0.0
 40
0.0214284814470156
 50
225.268577181822593
 51
311.9843035603021804
  0
ARC
  5
E2CE
  8
0
 10
5192.4406456906681342
 20
237.7279848776580025
 30
0.0
 40
0.0090523308687431
 50
311.9843035602989971
 51
43.0513963816545626
  0
ARC
  5
E2CF
  8
0
 10
5192.4323531220497898
 20
237.7202380133333861
 30
0.0
 40
0.0204004849534411
 50
43.05139638165695
 51
138.522364905803812
  0
ARC
  5
E2D0
  8
0
 10
5192.423602391496388
 20
237.7279739184129994
 30
0.0
 40
0.0087206085566585
 50
138.5223649058073931
 51
223.5880504084645111
  0
ARC
  5
E2D1
  8
0
 10
5192.4318387441608138
 20
237.7426701755215106
 30
0.0
 40
0.0354147243713751
 50
224.0631482881439922
 51
318.6765519004633802
  0
ARC
  5
E2D2
  8
0
 10
5192.4504087177338079
 20
237.7263425851257921
 30
0.0
 40
0.0106875302999107
 50
318.6765519004584917
 51
49.8685750553262892
  0
ARC
  5
E2D3
  8
0
 10
5192.4321982376768574
 20
237.7047410024285909
 30
0.0
 40
0.0389408479623065
 50
49.8685750553273408
 51
132.7400500447378136
  0
ARC
  5
E2D4
  8
0
 10
5192.4162470155088158
 20
237.726103192720899
 30
0.0
 40
0.012733702702565
 50
145.3628895405566936
 51
219.2821553374907069
  0
ARC
  5
E2D5
  8
0
 10
5192.436584013558786
 20
237.9018887368997923
 30
0.0
 40
0.1337969311306891
 50
238.2054464453605078
 51
240.2968784324964133
  0
ARC
  5
E2D6
  8
0
 10
5192.436584013558786
 20
237.9018887368997923
 30
0.0
 40
0.1337969311306891
 50
295.2378127094195861
 51
297.7053647849486993
  0
LINE
  5
E2D7
  8
0
 10
5192.7722061934719022
 20
237.76124836369641
 30
0.0
 11
5192.7793762895125838
 21
237.6970275736807992
 31
0.0
  0
LINE
  5
E2D8
  8
0
 10
5192.8974470199036659
 20
237.7585649355123962
 30
0.0
 11
5192.8905116675168756
 21
237.6964465446781105
 31
0.0
  0
ARC
  5
E2D9
  8
0
 10
5192.7970653273177959
 20
237.7476438315366067
 30
0.0
 40
0.0312838832690747
 50
196.2595407451906908
 51
228.5136672160614921
  0
ARC
  5
E2DA
  8
0
 10
5192.7893236834515847
 20
237.7453859494202106
 30
0.0
 40
0.0232196981651518
 50
145.6404613477222085
 51
196.2595407451906908
  0
ARC
  5
E2DB
  8
0
 10
5192.8058644190932682
 20
237.7340774202149873
 30
0.0
 40
0.043256633268194
 50
100.7748389908669964
 51
145.6404613477236012
  0
ARC
  5
E2DC
  8
0
 10
5192.8334029549341722
 20
237.6883149357095988
 30
0.0
 40
0.09517548234298
 50
65.4944159451338948
 51
111.9818195814593054
  0
ARC
  5
E2DD
  8
0
 10
5192.8631195207590281
 20
237.7336227581621131
 30
0.0
 40
0.0424321742137003
 50
25.5813780766894006
 51
76.7013965357523233
  0
ARC
  5
E2DE
  8
0
 10
5192.8776530906288826
 20
237.7422192885364893
 30
0.0
 40
0.0256540009573729
 50
307.7452545985016741
 51
22.27779475790296
  0
ARC
  5
E2DF
  8
0
 10
5192.8184527805442485
 20
237.7054484337373879
 30
0.0
 40
0.0399735291842252
 50
192.161086094477298
 51
248.2972519764084041
  0
ARC
  5
E2E0
  8
0
 10
5192.8370246040458369
 20
237.7521108506963117
 30
0.0
 40
0.090195972221681
 50
248.2972519764084041
 51
281.4734015339553252
  0
ARC
  5
E2E1
  8
0
 10
5192.8448187866706576
 20
237.7137099790126058
 30
0.0
 40
0.0510120950675091
 50
281.4734015339553252
 51
313.2599594324551049
  0
ARC
  5
E2E2
  8
0
 10
5192.8552226017400244
 20
237.7026542492135945
 30
0.0
 40
0.0358309050816383
 50
313.2599594324561849
 51
350.0231646423276857
  0
ARC
  5
E2E3
  8
0
 10
5192.8351155625341562
 20
237.7053332572255897
 30
0.0
 40
0.0214284814470156
 50
225.268577181822593
 51
311.9843035603021804
  0
ARC
  5
E2E4
  8
0
 10
5192.8433943037289282
 20
237.696133716620011
 30
0.0
 40
0.0090523308687431
 50
311.9843035602989971
 51
43.0513963816545626
  0
ARC
  5
E2E5
  8
0
 10
5192.8351017351124028
 20
237.6883868522953946
 30
0.0
 40
0.0204004849534411
 50
43.05139638165695
 51
138.522364905803812
  0
ARC
  5
E2E6
  8
0
 10
5192.8263510045562725
 20
237.696122757375008
 30
0.0
 40
0.0087206085566585
 50
138.5223649058073931
 51
223.5880504084645111
  0
ARC
  5
E2E7
  8
0
 10
5192.8345873572206983
 20
237.7108190144836044
 30
0.0
 40
0.0354147243713751
 50
224.0631482881439922
 51
318.6765519004633802
  0
ARC
  5
E2E8
  8
0
 10
5192.8531573307936924
 20
237.6944914240878006
 30
0.0
 40
0.0106875302999107
 50
318.6765519004584917
 51
49.8685750553262892
  0
ARC
  5
E2E9
  8
0
 10
5192.8349468507367419
 20
237.6728898413905995
 30
0.0
 40
0.0389408479623065
 50
49.8685750553273408
 51
132.7400500447378136
  0
ARC
  5
E2EA
  8
0
 10
5192.8189956285696098
 20
237.6942520316829075
 30
0.0
 40
0.012733702702565
 50
145.3628895405566936
 51
219.2821553374907069
  0
ARC
  5
E2EB
  8
0
 10
5192.839332626617761
 20
237.8700375758618009
 30
0.0
 40
0.1337969311306891
 50
238.2054464453605078
 51
240.2968784324964133
  0
ARC
  5
E2EC
  8
0
 10
5192.839332626617761
 20
237.8700375758618009
 30
0.0
 40
0.1337969311306891
 50
295.2378127094195861
 51
297.7053647849486993
  0
LINE
  5
E2ED
  8
0
 10
5192.974012103772111
 20
237.4965594045773116
 30
0.0
 11
5192.9811821998127925
 21
237.4323386145617008
 31
0.0
  0
LINE
  5
E2EE
  8
0
 10
5193.0992529302038747
 20
237.4938759763932978
 30
0.0
 11
5193.0923175778170844
 21
237.4317575855590121
 31
0.0
  0
ARC
  5
E2EF
  8
0
 10
5192.9988712376180047
 20
237.4829548724175083
 30
0.0
 40
0.0312838832690747
 50
196.2595407451906908
 51
228.5136672160614921
  0
ARC
  5
E2F0
  8
0
 10
5192.9911295937527029
 20
237.4806969903011975
 30
0.0
 40
0.0232196981651518
 50
145.6404613477222085
 51
196.2595407451906908
  0
ARC
  5
E2F1
  8
0
 10
5193.0076703293925675
 20
237.4693884610958889
 30
0.0
 40
0.043256633268194
 50
100.7748389908669964
 51
145.6404613477236012
  0
ARC
  5
E2F2
  8
0
 10
5193.0352088652343809
 20
237.4236259765905004
 30
0.0
 40
0.09517548234298
 50
65.4944159451338948
 51
111.9818195814593054
  0
ARC
  5
E2F3
  8
0
 10
5193.0649254310592369
 20
237.4689337990429863
 30
0.0
 40
0.0424321742137003
 50
25.5813780766894006
 51
76.7013965357523233
  0
ARC
  5
E2F4
  8
0
 10
5193.0794590009290914
 20
237.4775303294173909
 30
0.0
 40
0.0256540009573729
 50
307.7452545985016741
 51
22.27779475790296
  0
ARC
  5
E2F5
  8
0
 10
5193.0202586908435478
 20
237.4407594746184031
 30
0.0
 40
0.0399735291842252
 50
192.161086094477298
 51
248.2972519764084041
  0
ARC
  5
E2F6
  8
0
 10
5193.0388305143469552
 20
237.4874218915772133
 30
0.0
 40
0.090195972221681
 50
248.2972519764084041
 51
281.4734015339553252
  0
ARC
  5
E2F7
  8
0
 10
5193.0466246969708664
 20
237.4490210198935927
 30
0.0
 40
0.0510120950675091
 50
281.4734015339553252
 51
313.2599594324551049
  0
ARC
  5
E2F8
  8
0
 10
5193.0570285120402332
 20
237.4379652900944961
 30
0.0
 40
0.0358309050816383
 50
313.2599594324561849
 51
350.0231646423276857
  0
ARC
  5
E2F9
  8
0
 10
5193.036921472834365
 20
237.440644298106605
 30
0.0
 40
0.0214284814470156
 50
225.268577181822593
 51
311.9843035603021804
  0
ARC
  5
E2FA
  8
0
 10
5193.045200214029137
 20
237.4314447575009126
 30
0.0
 40
0.0090523308687431
 50
311.9843035602989971
 51
43.0513963816545626
  0
ARC
  5
E2FB
  8
0
 10
5193.0369076454117021
 20
237.4236978931762962
 30
0.0
 40
0.0204004849534411
 50
43.05139638165695
 51
138.522364905803812
  0
ARC
  5
E2FC
  8
0
 10
5193.0281569148573908
 20
237.4314337982559096
 30
0.0
 40
0.0087206085566585
 50
138.5223649058073931
 51
223.5880504084645111
  0
ARC
  5
E2FD
  8
0
 10
5193.0363932675209071
 20
237.446130055364506
 30
0.0
 40
0.0354147243713751
 50
224.0631482881439922
 51
318.6765519004633802
  0
ARC
  5
E2FE
  8
0
 10
5193.0549632410948107
 20
237.4298024649687875
 30
0.0
 40
0.0106875302999107
 50
318.6765519004584917
 51
49.8685750553262892
  0
ARC
  5
E2FF
  8
0
 10
5193.0367527610378602
 20
237.4082008822715011
 30
0.0
 40
0.0389408479623065
 50
49.8685750553273408
 51
132.7400500447378136
  0
ARC
  5
E300
  8
0
 10
5193.0208015388707281
 20
237.4295630725638091
 30
0.0
 40
0.012733702702565
 50
145.3628895405566936
 51
219.2821553374907069
  0
ARC
  5
E301
  8
0
 10
5193.0411385369188793
 20
237.6053486167427877
 30
0.0
 40
0.1337969311306891
 50
238.2054464453605078
 51
240.2968784324964133
  0
ARC
  5
E302
  8
0
 10
5193.0411385369188793
 20
237.6053486167427877
 30
0.0
 40
0.1337969311306891
 50
295.2378127094195861
 51
297.7053647849486993
  0
LINE
  5
E303
  8
0
 10
5192.3695479823427377
 20
237.3023603610542125
 30
0.0
 11
5192.3767180783834192
 21
237.2381395710386016
 31
0.0
  0
LINE
  5
E304
  8
0
 10
5192.4947888087735919
 20
237.2996769328701987
 30
0.0
 11
5192.487853456387711
 21
237.237558542035913
 31
0.0
  0
ARC
  5
E305
  8
0
 10
5192.3944071161877218
 20
237.2887558288944945
 30
0.0
 40
0.0312838832690747
 50
196.2595407451906908
 51
228.5136672160614921
  0
ARC
  5
E306
  8
0
 10
5192.3866654723233296
 20
237.2864979467780984
 30
0.0
 40
0.0232196981651518
 50
145.6404613477222085
 51
196.2595407451906908
  0
ARC
  5
E307
  8
0
 10
5192.4032062079641037
 20
237.2751894175729035
 30
0.0
 40
0.043256633268194
 50
100.7748389908669964
 51
145.6404613477236012
  0
ARC
  5
E308
  8
0
 10
5192.4307447438059171
 20
237.2294269330674013
 30
0.0
 40
0.09517548234298
 50
65.4944159451338948
 51
111.9818195814593054
  0
ARC
  5
E309
  8
0
 10
5192.4604613096298635
 20
237.2747347555200008
 30
0.0
 40
0.0424321742137003
 50
25.5813780766894006
 51
76.7013965357523233
  0
ARC
  5
E30A
  8
0
 10
5192.4749948794997181
 20
237.2833312858942918
 30
0.0
 40
0.0256540009573729
 50
307.7452545985016741
 51
22.27779475790296
  0
ARC
  5
E30B
  8
0
 10
5192.4157945694159935
 20
237.2465604310951903
 30
0.0
 40
0.0399735291842252
 50
192.161086094477298
 51
248.2972519764084041
  0
ARC
  5
E30C
  8
0
 10
5192.4343663929175818
 20
237.2932228480541994
 30
0.0
 40
0.090195972221681
 50
248.2972519764084041
 51
281.4734015339553252
  0
ARC
  5
E30D
  8
0
 10
5192.4421605755405835
 20
237.2548219763704935
 30
0.0
 40
0.0510120950675091
 50
281.4734015339553252
 51
313.2599594324551049
  0
ARC
  5
E30E
  8
0
 10
5192.4525643906099504
 20
237.243766246571397
 30
0.0
 40
0.0358309050816383
 50
313.2599594324561849
 51
350.0231646423276857
  0
ARC
  5
E30F
  8
0
 10
5192.4324573514040821
 20
237.2464452545835059
 30
0.0
 40
0.0214284814470156
 50
225.268577181822593
 51
311.9843035603021804
  0
ARC
  5
E310
  8
0
 10
5192.4407360925988542
 20
237.2372457139778987
 30
0.0
 40
0.0090523308687431
 50
311.9843035602989971
 51
43.0513963816545626
  0
ARC
  5
E311
  8
0
 10
5192.4324435239832383
 20
237.2294988496533108
 30
0.0
 40
0.0204004849534411
 50
43.05139638165695
 51
138.522364905803812
  0
ARC
  5
E312
  8
0
 10
5192.4236927934280175
 20
237.2372347547328957
 30
0.0
 40
0.0087206085566585
 50
138.5223649058073931
 51
223.5880504084645111
  0
ARC
  5
E313
  8
0
 10
5192.4319291460924433
 20
237.2519310118414069
 30
0.0
 40
0.0354147243713751
 50
224.0631482881439922
 51
318.6765519004633802
  0
ARC
  5
E314
  8
0
 10
5192.4504991196654373
 20
237.2356034214456884
 30
0.0
 40
0.0106875302999107
 50
318.6765519004584917
 51
49.8685750553262892
  0
ARC
  5
E315
  8
0
 10
5192.4322886396075774
 20
237.2140018387484872
 30
0.0
 40
0.0389408479623065
 50
49.8685750553273408
 51
132.7400500447378136
  0
ARC
  5
E316
  8
0
 10
5192.4163374174413548
 20
237.2353640290407952
 30
0.0
 40
0.012733702702565
 50
145.3628895405566936
 51
219.2821553374907069
  0
ARC
  5
E317
  8
0
 10
5192.4366744154885964
 20
237.4111495732196886
 30
0.0
 40
0.1337969311306891
 50
238.2054464453605078
 51
240.2968784324964133
  0
ARC
  5
E318
  8
0
 10
5192.4366744154885964
 20
237.4111495732196886
 30
0.0
 40
0.1337969311306891
 50
295.2378127094195861
 51
297.7053647849486993
  0
LINE
  5
E319
  8
0
 10
5192.7718310331556495
 20
237.2666988637328984
 30
0.0
 11
5192.7790011291972405
 21
237.2024780737172875
 31
0.0
  0
LINE
  5
E31A
  8
0
 10
5192.8970718595883227
 20
237.264015435548913
 30
0.0
 11
5192.8901365072024419
 21
237.2018970447145989
 31
0.0
  0
ARC
  5
E31B
  8
0
 10
5192.7966901670033621
 20
237.2530943315730951
 30
0.0
 40
0.0312838832690747
 50
196.2595407451906908
 51
228.5136672160614921
  0
ARC
  5
E31C
  8
0
 10
5192.7889485231371509
 20
237.250836449456699
 30
0.0
 40
0.0232196981651518
 50
145.6404613477222085
 51
196.2595407451906908
  0
ARC
  5
E31D
  8
0
 10
5192.805489258777925
 20
237.2395279202515042
 30
0.0
 40
0.043256633268194
 50
100.7748389908669964
 51
145.6404613477236012
  0
ARC
  5
E31E
  8
0
 10
5192.8330277946188289
 20
237.1937654357460872
 30
0.0
 40
0.09517548234298
 50
65.4944159451338948
 51
111.9818195814593054
  0
ARC
  5
E31F
  8
0
 10
5192.8627443604436849
 20
237.2390732581986015
 30
0.0
 40
0.0424321742137003
 50
25.5813780766894006
 51
76.7013965357523233
  0
ARC
  5
E320
  8
0
 10
5192.8772779303144489
 20
237.2476697885730061
 30
0.0
 40
0.0256540009573729
 50
307.7452545985016741
 51
22.27779475790296
  0
ARC
  5
E321
  8
0
 10
5192.8180776202289053
 20
237.2108989337739047
 30
0.0
 40
0.0399735291842252
 50
192.161086094477298
 51
248.2972519764084041
  0
ARC
  5
E322
  8
0
 10
5192.8366494437314032
 20
237.2575613507328001
 30
0.0
 40
0.090195972221681
 50
248.2972519764084041
 51
281.4734015339553252
  0
ARC
  5
E323
  8
0
 10
5192.8444436263562238
 20
237.2191604790490942
 30
0.0
 40
0.0510120950675091
 50
281.4734015339553252
 51
313.2599594324551049
  0
ARC
  5
E324
  8
0
 10
5192.8548474414246812
 20
237.2081047492501114
 30
0.0
 40
0.0358309050816383
 50
313.2599594324561849
 51
350.0231646423276857
  0
ARC
  5
E325
  8
0
 10
5192.834740402218813
 20
237.2107837572621918
 30
0.0
 40
0.0214284814470156
 50
225.268577181822593
 51
311.9843035603021804
  0
ARC
  5
E326
  8
0
 10
5192.8430191434126755
 20
237.2015842166566131
 30
0.0
 40
0.0090523308687431
 50
311.9843035602989971
 51
43.0513963816545626
  0
ARC
  5
E327
  8
0
 10
5192.8347265747961501
 20
237.1938373523319115
 30
0.0
 40
0.0204004849534411
 50
43.05139638165695
 51
138.522364905803812
  0
ARC
  5
E328
  8
0
 10
5192.8259758442418388
 20
237.2015732574114963
 30
0.0
 40
0.0087206085566585
 50
138.5223649058073931
 51
223.5880504084645111
  0
ARC
  5
E329
  8
0
 10
5192.8342121969053551
 20
237.2162695145200075
 30
0.0
 40
0.0354147243713751
 50
224.0631482881439922
 51
318.6765519004633802
  0
ARC
  5
E32A
  8
0
 10
5192.8527821704792586
 20
237.1999419241244027
 30
0.0
 40
0.0106875302999107
 50
318.6765519004584917
 51
49.8685750553262892
  0
ARC
  5
E32B
  8
0
 10
5192.8345716904223082
 20
237.1783403414270879
 30
0.0
 40
0.0389408479623065
 50
49.8685750553273408
 51
132.7400500447378136
  0
ARC
  5
E32C
  8
0
 10
5192.8186204682551761
 20
237.1997025317193959
 30
0.0
 40
0.012733702702565
 50
145.3628895405566936
 51
219.2821553374907069
  0
ARC
  5
E32D
  8
0
 10
5192.8389574663033272
 20
237.3754880758984029
 30
0.0
 40
0.1337969311306891
 50
238.2054464453605078
 51
240.2968784324964133
  0
ARC
  5
E32E
  8
0
 10
5192.8389574663033272
 20
237.3754880758984029
 30
0.0
 40
0.1337969311306891
 50
295.2378127094195861
 51
297.7053647849486993
  0
LINE
  5
E32F
  8
0
 10
5192.9738784259579916
 20
237.0189591117147927
 30
0.0
 11
5192.9810485219995826
 21
236.9547383216992102
 31
0.0
  0
LINE
  5
E330
  8
0
 10
5193.0991192523906648
 20
237.0162756835308073
 30
0.0
 11
5193.0921839000020555
 21
236.9541572926964932
 31
0.0
  0
ARC
  5
E331
  8
0
 10
5192.9987375598038852
 20
237.0053545795549894
 30
0.0
 40
0.0312838832690747
 50
196.2595407451906908
 51
228.5136672160614921
  0
ARC
  5
E332
  8
0
 10
5192.9909959159385835
 20
237.0030966974385933
 30
0.0
 40
0.0232196981651518
 50
145.6404613477222085
 51
196.2595407451906908
  0
ARC
  5
E333
  8
0
 10
5193.0075366515802671
 20
236.9917881682333984
 30
0.0
 40
0.043256633268194
 50
100.7748389908669964
 51
145.6404613477236012
  0
ARC
  5
E334
  8
0
 10
5193.0350751874202615
 20
236.9460256837280099
 30
0.0
 40
0.09517548234298
 50
65.4944159451338948
 51
111.9818195814593054
  0
ARC
  5
E335
  8
0
 10
5193.0647917532460269
 20
236.9913335061804958
 30
0.0
 40
0.0424321742137003
 50
25.5813780766894006
 51
76.7013965357523233
  0
ARC
  5
E336
  8
0
 10
5193.079325323114972
 20
236.9999300365549004
 30
0.0
 40
0.0256540009573729
 50
307.7452545985016741
 51
22.27779475790296
  0
ARC
  5
E337
  8
0
 10
5193.0201250130312474
 20
236.963159181755799
 30
0.0
 40
0.0399735291842252
 50
192.161086094477298
 51
248.2972519764084041
  0
ARC
  5
E338
  8
0
 10
5193.0386968365337452
 20
237.0098215987146943
 30
0.0
 40
0.090195972221681
 50
248.2972519764084041
 51
281.4734015339553252
  0
ARC
  5
E339
  8
0
 10
5193.0464910191558374
 20
236.9714207270309885
 30
0.0
 40
0.0510120950675091
 50
281.4734015339553252
 51
313.2599594324551049
  0
ARC
  5
E33A
  8
0
 10
5193.0568948342261137
 20
236.9603649972320056
 30
0.0
 40
0.0358309050816383
 50
313.2599594324561849
 51
350.0231646423276857
  0
ARC
  5
E33B
  8
0
 10
5193.036787795019336
 20
236.9630440052440861
 30
0.0
 40
0.0214284814470156
 50
225.268577181822593
 51
311.9843035603021804
  0
ARC
  5
E33C
  8
0
 10
5193.0450665362150175
 20
236.9538444646383937
 30
0.0
 40
0.0090523308687431
 50
311.9843035602989971
 51
43.0513963816545626
  0
ARC
  5
E33D
  8
0
 10
5193.0367739675975827
 20
236.9460976003138057
 30
0.0
 40
0.0204004849534411
 50
43.05139638165695
 51
138.522364905803812
  0
ARC
  5
E33E
  8
0
 10
5193.0280232370441809
 20
236.9538335053933906
 30
0.0
 40
0.0087206085566585
 50
138.5223649058073931
 51
223.5880504084645111
  0
ARC
  5
E33F
  8
0
 10
5193.0362595897076972
 20
236.9685297625019871
 30
0.0
 40
0.0354147243713751
 50
224.0631482881439922
 51
318.6765519004633802
  0
ARC
  5
E340
  8
0
 10
5193.0548295632816007
 20
236.952202172106297
 30
0.0
 40
0.0106875302999107
 50
318.6765519004584917
 51
49.8685750553262892
  0
ARC
  5
E341
  8
0
 10
5193.0366190832237407
 20
236.9306005894090106
 30
0.0
 40
0.0389408479623065
 50
49.8685750553273408
 51
132.7400500447378136
  0
ARC
  5
E342
  8
0
 10
5193.0206678610556992
 20
236.9519627797012902
 30
0.0
 40
0.012733702702565
 50
145.3628895405566936
 51
219.2821553374907069
  0
ARC
  5
E343
  8
0
 10
5193.0410048591056693
 20
237.1277483238802972
 30
0.0
 40
0.1337969311306891
 50
238.2054464453605078
 51
240.2968784324964133
  0
ARC
  5
E344
  8
0
 10
5193.0410048591056693
 20
237.1277483238802972
 30
0.0
 40
0.1337969311306891
 50
295.2378127094195861
 51
297.7053647849486993
  0
LINE
  5
E345
  8
0
 10
5192.7753439259267907
 20
236.8055547813455064
 30
0.0
 11
5192.7825140219683817
 21
236.7413339913298955
 31
0.0
  0
LINE
  5
E346
  8
0
 10
5192.9005847523612829
 20
236.8028713531614073
 30
0.0
 11
5192.8936493999726736
 21
236.7407529623270932
 31
0.0
  0
ARC
  5
E347
  8
0
 10
5192.8002030597754128
 20
236.7919502491857884
 30
0.0
 40
0.0312838832690747
 50
196.2595407451906908
 51
228.5136672160614921
  0
ARC
  5
E348
  8
0
 10
5192.7924614159092016
 20
236.789692367069307
 30
0.0
 40
0.0232196981651518
 50
145.6404613477222085
 51
196.2595407451906908
  0
ARC
  5
E349
  8
0
 10
5192.8090021515499757
 20
236.7783838378641121
 30
0.0
 40
0.043256633268194
 50
100.7748389908669964
 51
145.6404613477236012
  0
ARC
  5
E34A
  8
0
 10
5192.8365406873899701
 20
236.7326213533586952
 30
0.0
 40
0.09517548234298
 50
65.4944159451338948
 51
111.9818195814593054
  0
ARC
  5
E34B
  8
0
 10
5192.8662572532157355
 20
236.7779291758112095
 30
0.0
 40
0.0424321742137003
 50
25.5813780766894006
 51
76.7013965357523233
  0
ARC
  5
E34C
  8
0
 10
5192.8807908230846806
 20
236.7865257061855004
 30
0.0
 40
0.0256540009573729
 50
307.7452545985016741
 51
22.27779475790296
  0
ARC
  5
E34D
  8
0
 10
5192.821590513000956
 20
236.7497548513865127
 30
0.0
 40
0.0399735291842252
 50
192.161086094477298
 51
248.2972519764084041
  0
ARC
  5
E34E
  8
0
 10
5192.8401623365034538
 20
236.7964172683452944
 30
0.0
 40
0.090195972221681
 50
248.2972519764084041
 51
281.4734015339553252
  0
ARC
  5
E34F
  8
0
 10
5192.847956519127365
 20
236.7580163966617022
 30
0.0
 40
0.0510120950675091
 50
281.4734015339553252
 51
313.2599594324551049
  0
ARC
  5
E350
  8
0
 10
5192.8583603341958224
 20
236.7469606668626909
 30
0.0
 40
0.0358309050816383
 50
313.2599594324561849
 51
350.0231646423276857
  0
ARC
  5
E351
  8
0
 10
5192.8382532949890447
 20
236.7496396748747998
 30
0.0
 40
0.0214284814470156
 50
225.268577181822593
 51
311.9843035603021804
  0
ARC
  5
E352
  8
0
 10
5192.8465320361847262
 20
236.7404401342691074
 30
0.0
 40
0.0090523308687431
 50
311.9843035602989971
 51
43.0513963816545626
  0
ARC
  5
E353
  8
0
 10
5192.8382394675682008
 20
236.732693269944491
 30
0.0
 40
0.0204004849534411
 50
43.05139638165695
 51
138.522364905803812
  0
ARC
  5
E354
  8
0
 10
5192.82948873701298
 20
236.7404291750241043
 30
0.0
 40
0.0087206085566585
 50
138.5223649058073931
 51
223.5880504084645111
  0
ARC
  5
E355
  8
0
 10
5192.8377250896783153
 20
236.7551254321325871
 30
0.0
 40
0.0354147243713751
 50
224.0631482881439922
 51
318.6765519004633802
  0
ARC
  5
E356
  8
0
 10
5192.8562950632513093
 20
236.738797841736897
 30
0.0
 40
0.0106875302999107
 50
318.6765519004584917
 51
49.8685750553262892
  0
ARC
  5
E357
  8
0
 10
5192.8380845831934494
 20
236.7171962590396959
 30
0.0
 40
0.0389408479623065
 50
49.8685750553273408
 51
132.7400500447378136
  0
ARC
  5
E358
  8
0
 10
5192.8221333610263173
 20
236.7385584493320039
 30
0.0
 40
0.012733702702565
 50
145.3628895405566936
 51
219.2821553374907069
  0
ARC
  5
E359
  8
0
 10
5192.8424703590753779
 20
236.9143439935108972
 30
0.0
 40
0.1337969311306891
 50
238.2054464453605078
 51
240.2968784324964133
  0
ARC
  5
E35A
  8
0
 10
5192.8424703590753779
 20
236.9143439935108972
 30
0.0
 40
0.1337969311306891
 50
295.2378127094195861
 51
297.7053647849486993
  0
LINE
  5
E35B
  8
0
 10
5193.3759213803296007
 20
236.5602498289898961
 30
0.0
 11
5193.3830914763730107
 21
236.4960290389741999
 31
0.0
  0
LINE
  5
E35C
  8
0
 10
5193.5011622067631833
 20
236.557566400805797
 30
0.0
 11
5193.494226854376393
 21
236.4954480099715113
 31
0.0
  0
ARC
  5
E35D
  8
0
 10
5193.4007805141782228
 20
236.5466452968300928
 30
0.0
 40
0.0312838832690747
 50
196.2595407451906908
 51
228.5136672160614921
  0
ARC
  5
E35E
  8
0
 10
5193.3930388703111021
 20
236.5443874147136967
 30
0.0
 40
0.0232196981651518
 50
145.6404613477222085
 51
196.2595407451906908
  0
ARC
  5
E35F
  8
0
 10
5193.4095796059527856
 20
236.5330788855085018
 30
0.0
 40
0.043256633268194
 50
100.7748389908669964
 51
145.6404613477236012
  0
ARC
  5
E360
  8
0
 10
5193.4371181417927801
 20
236.4873164010029996
 30
0.0
 40
0.09517548234298
 50
65.4944159451338948
 51
111.9818195814593054
  0
ARC
  5
E361
  8
0
 10
5193.466834707617636
 20
236.5326242234555991
 30
0.0
 40
0.0424321742137003
 50
25.5813780766894006
 51
76.7013965357523233
  0
ARC
  5
E362
  8
0
 10
5193.4813682774865811
 20
236.5412207538298901
 30
0.0
 40
0.0256540009573729
 50
307.7452545985016741
 51
22.27779475790296
  0
ARC
  5
E363
  8
0
 10
5193.4221679674037659
 20
236.5044498990309023
 30
0.0
 40
0.0399735291842252
 50
192.161086094477298
 51
248.2972519764084041
  0
ARC
  5
E364
  8
0
 10
5193.4407397909062638
 20
236.5511123159897124
 30
0.0
 40
0.090195972221681
 50
248.2972519764084041
 51
281.4734015339553252
  0
ARC
  5
E365
  8
0
 10
5193.448533973530175
 20
236.5127114443060918
 30
0.0
 40
0.0510120950675091
 50
281.4734015339553252
 51
313.2599594324551049
  0
ARC
  5
E366
  8
0
 10
5193.4589377885977228
 20
236.501655714507109
 30
0.0
 40
0.0358309050816383
 50
313.2599594324561849
 51
350.0231646423276857
  0
ARC
  5
E367
  8
0
 10
5193.4388307493918546
 20
236.5043347225191042
 30
0.0
 40
0.0214284814470156
 50
225.268577181822593
 51
311.9843035603021804
  0
ARC
  5
E368
  8
0
 10
5193.4471094905884456
 20
236.495135181913497
 30
0.0
 40
0.0090523308687431
 50
311.9843035602989971
 51
43.0513963816545626
  0
ARC
  5
E369
  8
0
 10
5193.4388169219710107
 20
236.4873883175889091
 30
0.0
 40
0.0204004849534411
 50
43.05139638165695
 51
138.522364905803812
  0
ARC
  5
E36A
  8
0
 10
5193.4300661914157899
 20
236.4951242226684087
 30
0.0
 40
0.0087206085566585
 50
138.5223649058073931
 51
223.5880504084645111
  0
ARC
  5
E36B
  8
0
 10
5193.4383025440802157
 20
236.5098204797770052
 30
0.0
 40
0.0354147243713751
 50
224.0631482881439922
 51
318.6765519004633802
  0
ARC
  5
E36C
  8
0
 10
5193.4568725176532098
 20
236.4934928893812867
 30
0.0
 40
0.0106875302999107
 50
318.6765519004584917
 51
49.8685750553262892
  0
ARC
  5
E36D
  8
0
 10
5193.4386620375962593
 20
236.4718913066841139
 30
0.0
 40
0.0389408479623065
 50
49.8685750553273408
 51
132.7400500447378136
  0
ARC
  5
E36E
  8
0
 10
5193.4227108154291273
 20
236.4932534969763935
 30
0.0
 40
0.012733702702565
 50
145.3628895405566936
 51
219.2821553374907069
  0
ARC
  5
E36F
  8
0
 10
5193.4430478134781879
 20
236.6690390411552869
 30
0.0
 40
0.1337969311306891
 50
238.2054464453605078
 51
240.2968784324964133
  0
ARC
  5
E370
  8
0
 10
5193.4430478134781879
 20
236.6690390411552869
 30
0.0
 40
0.1337969311306891
 50
295.2378127094195861
 51
297.7053647849486993
  0
ARC
  5
E371
  8
0
 10
5193.844415381619001
 20
236.3522364757128003
 30
0.0
 40
2.3889737270205198
 50
89.9999565841197438
 51
92.519414773700646
  0
ARC
  5
E372
  8
0
 10
5193.902336091898178
 20
235.8529789050733996
 30
0.0
 40
2.890517955546299
 50
93.2314068206599558
 51
99.5289481350175862
  0
ARC
  5
E373
  8
0
 10
5193.7967423054733445
 20
236.6171163917881017
 30
0.0
 40
2.119561330266921
 50
100.1334741658516947
 51
113.0413294662692039
  0
ARC
  5
E374
  8
0
 10
5193.6281815817337701
 20
237.0064000873921941
 30
0.0
 40
1.695362013350332
 50
112.9484011244985027
 51
128.0427285066027991
  0
ARC
  5
E375
  8
0
 10
5193.3346453320946239
 20
237.3734141702800002
 30
0.0
 40
1.225438359287504
 50
127.8088185744524026
 51
146.8873861502893021
  0
ARC
  5
E376
  8
0
 10
5193.0648534205429314
 20
237.5414432405937077
 30
0.0
 40
0.9076933823885049
 50
146.4680759392545042
 51
176.3004159827617059
  0
ARC
  5
E377
  8
0
 10
5193.0715876271860907
 20
237.559402213526198
 30
0.0
 40
0.9134392080826479
 50
177.4518843095825957
 51
216.6675616384953003
  0
ARC
  5
E378
  8
0
 10
5193.4667050773159644
 20
237.8514013023655878
 30
0.0
 40
1.4047428892528671
 50
216.5967460481564046
 51
242.2611142616800066
  0
ARC
  5
E379
  8
0
 10
5193.7790900663067077
 20
238.4100288518258139
 30
0.0
 40
2.0446355504613218
 50
241.7994143884455127
 51
258.1848981028346088
  0
ARC
  5
E37A
  8
0
 10
5193.849077722344191
 20
238.7757320471457092
 30
0.0
 40
2.4169294202533642
 50
258.3360087976627142
 51
265.5240609307094246
  0
ARC
  5
E37B
  8
0
 10
5193.8245396997035641
 20
238.2269493488159924
 30
0.0
 40
1.8679957141900621
 50
264.9607834460974232
 51
270.6097004901578202
  0
ARC
  5
E37C
  8
0
 10
5193.8524786277148451
 20
238.9252350638867881
 30
0.0
 40
2.5570297567635372
 50
264.4570714819485033
 51
269.8193658031956943
  0
ARC
  5
E37D
  8
0
 10
5193.8463475756152548
 20
238.6843573322113912
 30
0.0
 40
2.3167497205500012
 50
252.2093876170434896
 51
264.0325739597174106
  0
ARC
  5
E37E
  8
0
 10
5193.6872738846323045
 20
238.1784984995942125
 30
0.0
 40
1.7864807406654719
 50
234.361964699968695
 51
252.1101876327516891
  0
ARC
  5
E37F
  8
0
 10
5193.3585102225661103
 20
237.7299753674066949
 30
0.0
 40
1.2304152752361111
 50
207.4282363063387038
 51
234.634527961785011
  0
ARC
  5
E380
  8
0
 10
5193.1086071964164148
 20
237.5703985517891113
 30
0.0
 40
0.935473298016911
 50
179.1882356951383883
 51
205.8034853352041011
  0
ARC
  5
E381
  8
0
 10
5193.1902778996927736
 20
237.5692413671137899
 30
0.0
 40
1.0171521989055621
 50
169.4113715511442138
 51
179.1882356951383883
  0
ARC
  5
E382
  8
0
 10
5192.9785908374042265
 20
237.6088140404278874
 30
0.0
 40
0.8017980514790993
 50
157.6179844483949921
 51
169.4113715511442138
  0
ARC
  5
E383
  8
0
 10
5193.847676755590328
 20
238.8965980798382986
 30
0.0
 40
0.6827538076378071
 50
90.2735392346542227
 51
96.591228455392681
  0
ARC
  5
E384
  8
0
 10
5193.8409932655922603
 20
238.9771103489271979
 30
0.0
 40
0.6020121560297299
 50
96.8388992317302666
 51
113.1196430064891985
  0
ARC
  5
E385
  8
0
 10
5193.7617241220350479
 20
239.1627778457539932
 30
0.0
 40
0.4001309620116615
 50
113.1196430064891985
 51
132.2059440444444931
  0
ARC
  5
E386
  8
0
 10
5193.7658400610571334
 20
239.1582395436915078
 30
0.0
 40
0.4062577180567873
 50
132.2059440444444931
 51
141.5938011566935018
  0
LINE
  5
E387
  8
0
 10
5193.4384165856135951
 20
239.4091450424594996
 30
0.0
 11
5193.4384165856135951
 21
240.6591547085822924
 31
0.0
  0
ARC
  5
E388
  8
0
 10
5193.844417191863613
 20
240.6591553148327876
 30
0.0
 40
1.2650000000000039
 50
288.7203318846537172
 51
251.2796681153463112
  0
ARC
  5
E389
  8
0
 10
5193.843487280498266
 20
238.8070452126686973
 30
0.0
 40
2.5093315067813018
 50
270.021232745704026
 51
274.8899572585892201
  0
ARC
  5
E38A
  8
0
 10
5193.8534358349970717
 20
238.6907608539472108
 30
0.0
 40
2.3926223562408091
 50
274.8899572585892201
 51
287.8955088603220247
  0
ARC
  5
E38B
  8
0
 10
5193.984898559821886
 20
238.2836353160568876
 30
0.0
 40
1.9647980329248631
 50
287.8955088603220247
 51
299.0008868961988924
  0
ARC
  5
E38C
  8
0
 10
5194.138620731505398
 20
238.0063233008287966
 30
0.0
 40
1.647729491664609
 50
299.0008868961988924
 51
314.8501077943651012
  0
ARC
  5
E38D
  8
0
 10
5194.4924022768027498
 20
237.650685831337114
 30
0.0
 40
1.1460927789934141
 50
314.8501077943651012
 51
326.4082129475274883
  0
ARC
  5
E38E
  8
0
 10
5194.504106316103389
 20
237.6429121042542079
 30
0.0
 40
1.132042321039094
 50
326.4082129475274883
 51
336.4137953358869026
  0
ARC
  5
E38F
  8
0
 10
5194.7539696334797554
 20
237.5338211410906979
 30
0.0
 40
0.8594024200452356
 50
336.4137953358869026
 51
346.7470212867115151
  0
ARC
  5
E390
  8
0
 10
5194.5571428013172408
 20
237.5801785081370099
 30
0.0
 40
1.0616147029041101
 50
346.7470212867115151
 51
354.5450169880011799
  0
LINE
  5
E391
  8
0
 10
5195.6139496599626
 20
237.4792575443206033
 30
0.0
 11
5195.6139496599626
 21
238.101392220825403
 31
0.0
  0
ARC
  5
E392
  8
0
 10
5193.8667531382898233
 20
240.9566666225856011
 30
0.0
 40
1.5137826273562249
 50
269.1545669243819248
 51
270.1678509302470275
  0
ARC
  5
E393
  8
0
 10
5193.846884747533295
 20
237.1170307509572979
 30
0.0
 40
2.3259867090740318
 50
87.3642204000343838
 51
89.401333753613244
  0
ARC
  5
E394
  8
0
 10
5193.8419756416660675
 20
237.0103933813691128
 30
0.0
 40
2.4327370154582071
 50
84.8111817683400062
 51
87.3642204000343838
  0
ARC
  5
E395
  8
0
 10
5193.8247129913497702
 20
236.8202977716890985
 30
0.0
 40
2.6236148295580222
 50
80.1935875938404905
 51
84.8111817683400062
  0
ARC
  5
E396
  8
0
 10
5193.9143993662446519
 20
237.3391802634160115
 30
0.0
 40
2.0970384475747941
 50
69.1930725286174635
 51
80.1935875938404905
  0
ARC
  5
E397
  8
0
 10
5193.8278622212910705
 20
237.1114525679768121
 30
0.0
 40
2.3406540889586029
 50
60.9080561789982724
 51
69.1930725286174635
  0
ARC
  5
E398
  8
0
 10
5194.2953342614009671
 20
237.9516120288483876
 30
0.0
 40
1.379197887160416
 50
40.2073258600192887
 51
60.9080561789982724
  0
ARC
  5
E399
  8
0
 10
5194.4021974308143399
 20
238.0419418323591003
 30
0.0
 40
1.2392721555053501
 50
26.6733636357695509
 51
40.2073258600192887
  0
ARC
  5
E39A
  8
0
 10
5194.5952086176639568
 20
238.1389039454446959
 30
0.0
 40
1.023274540649266
 50
17.2543345640543215
 51
26.6733636357695509
  0
ARC
  5
E39B
  8
0
 10
5194.8027069296877016
 20
238.2033510955646136
 30
0.0
 40
0.8059982542043366
 50
6.3903361481593279
 51
17.2543345640543215
  0
ARC
  5
E39C
  8
0
 10
5194.4706595671668765
 20
238.1661627249536082
 30
0.0
 40
1.140121623433892
 50
2.307394585780449
 51
6.3903361481593279
  0
ARC
  5
E39D
  8
0
 10
5178.8773559003875562
 20
237.5378552269733916
 30
0.0
 40
16.7460784847238102
 50
1.9284746948008029
 51
2.307394585780449
  0
ARC
  5
E39E
  8
0
 10
5193.7473790869707955
 20
233.0383377506383908
 30
0.0
 40
5.7461762599902588
 50
87.5592666995128894
 51
89.0323759818465419
  0
ARC
  5
E39F
  8
0
 10
5193.8473153359191201
 20
236.3561805986541913
 30
0.0
 40
2.4274413375129198
 50
77.2180522933376494
 51
86.5809092924034758
  0
ARC
  5
E3A0
  8
0
 10
5193.9099001453214441
 20
236.6320509602678044
 30
0.0
 40
2.1445609479759389
 50
63.8959158439449411
 51
77.2180522933376494
  0
ARC
  5
E3A1
  8
0
 10
5194.1265409485740747
 20
237.0741900834892135
 30
0.0
 40
1.6521990466090111
 50
47.1749797970024218
 51
63.8959158439449411
  0
ARC
  5
E3A2
  8
0
 10
5194.4476505759866996
 20
237.4206533294891983
 30
0.0
 40
1.179813426965806
 50
29.0849478562172301
 51
47.1749797970024218
  0
ARC
  5
E3A3
  8
0
 10
5194.6323313344455528
 20
237.5233817824203868
 30
0.0
 40
0.9684840215664573
 50
11.1829837269235899
 51
29.0849478562172301
  0
ARC
  5
E3A4
  8
0
 10
5194.7490554418072861
 20
237.5464577551628054
 30
0.0
 40
0.8495007548541678
 50
354.6291615508422979
 51
11.1829837269235899
  0
ARC
  5
E3A5
  8
0
 10
5194.5944475944379519
 20
237.5609931103404051
 30
0.0
 40
1.004790364997425
 50
345.0242908941135056
 51
354.6291615508422979
  0
ARC
  5
E3A6
  8
0
 10
5194.4296548478978366
 20
237.6050743212350085
 30
0.0
 40
1.175377007106452
 50
329.9548917647845769
 51
345.0242908941135056
  0
LINE
  5
E3A7
  8
0
 10
5194.1093116830161307
 20
236.7720619622799916
 30
0.0
 11
5194.1021415869754492
 21
236.7078411722644944
 31
0.0
  0
LINE
  5
E3A8
  8
0
 10
5193.984070856584367
 20
236.7693785340960062
 30
0.0
 11
5193.9910062089711573
 21
236.7072601432616921
 31
0.0
  0
ARC
  5
E3A9
  8
0
 10
5194.0844525491693275
 20
236.758457430120302
 30
0.0
 40
0.0312838832690747
 50
311.4863327839385079
 51
343.7404592548093092
  0
ARC
  5
E3AA
  8
0
 10
5194.0921941930346293
 20
236.7561995480039059
 30
0.0
 40
0.0232196981651518
 50
343.7404592548093092
 51
34.3595386522777488
  0
ARC
  5
E3AB
  8
0
 10
5194.0756534573938552
 20
236.744891018798711
 30
0.0
 40
0.043256633268194
 50
34.3595386522763988
 51
79.2251610091330036
  0
ARC
  5
E3AC
  8
0
 10
5194.0481149215538608
 20
236.6991285342932088
 30
0.0
 40
0.09517548234298
 50
68.0181804185406946
 51
114.5055840548661052
  0
ARC
  5
E3AD
  8
0
 10
5194.0183983557280953
 20
236.7444363567458083
 30
0.0
 40
0.0424321742137003
 50
103.2986034642477051
 51
154.4186219233106101
  0
ARC
  5
E3AE
  8
0
 10
5194.0038647858591503
 20
236.7530328871200993
 30
0.0
 40
0.0256540009573729
 50
157.7222052420970044
 51
232.2547454014982975
  0
ARC
  5
E3AF
  8
0
 10
5194.0630650959419654
 20
236.7162620323211115
 30
0.0
 40
0.0399735291842252
 50
291.7027480235915959
 51
347.838913905522702
  0
ARC
  5
E3B0
  8
0
 10
5194.044493272440377
 20
236.7629244492800069
 30
0.0
 40
0.090195972221681
 50
258.5265984660446748
 51
291.7027480235915959
  0
ARC
  5
E3B1
  8
0
 10
5194.0366990898173754
 20
236.724523577596301
 30
0.0
 40
0.0510120950675091
 50
226.7400405675448951
 51
258.5265984660446748
  0
ARC
  5
E3B2
  8
0
 10
5194.0262952747480085
 20
236.7134678477972045
 30
0.0
 40
0.0358309050816383
 50
189.9768353576722859
 51
226.7400405675437014
  0
ARC
  5
E3B3
  8
0
 10
5194.0464023139538767
 20
236.7161468558093134
 30
0.0
 40
0.0214284814470156
 50
228.015696439697706
 51
314.731422818177407
  0
ARC
  5
E3B4
  8
0
 10
5194.0381235727591047
 20
236.7069473152037062
 30
0.0
 40
0.0090523308687431
 50
136.9486036183454019
 51
228.0156964397010029
  0
ARC
  5
E3B5
  8
0
 10
5194.0464161413747206
 20
236.6992004508790899
 30
0.0
 40
0.0204004849534411
 50
41.4776350941962022
 51
136.948603618342986
  0
ARC
  5
E3B6
  8
0
 10
5194.0551668719308509
 20
236.7069363559585895
 30
0.0
 40
0.0087206085566585
 50
316.4119495915354037
 51
41.4776350941925429
  0
ARC
  5
E3B7
  8
0
 10
5194.0469305192673346
 20
236.721632613067186
 30
0.0
 40
0.0354147243713751
 50
221.3234480995365914
 51
315.9368517118559794
  0
ARC
  5
E3B8
  8
0
 10
5194.0283605456943405
 20
236.7053050226714959
 30
0.0
 40
0.0106875302999107
 50
130.1314249446737108
 51
221.3234480995415083
  0
ARC
  5
E3B9
  8
0
 10
5194.046571025751291
 20
236.6837034399742947
 30
0.0
 40
0.0389408479623065
 50
47.2599499552621793
 51
130.1314249446726024
  0
ARC
  5
E3BA
  8
0
 10
5194.0625222479184231
 20
236.7050656302666027
 30
0.0
 40
0.012733702702565
 50
320.7178446625093216
 51
34.6371104594433206
  0
ARC
  5
E3BB
  8
0
 10
5194.0421852498693625
 20
236.8808511744454961
 30
0.0
 40
0.1337969311306891
 50
299.7031215675036151
 51
301.7945535546396059
  0
ARC
  5
E3BC
  8
0
 10
5194.0421852498693625
 20
236.8808511744454961
 30
0.0
 40
0.1337969311306891
 50
242.294635215051386
 51
244.7621872905804992
  0
LINE
  5
E3BD
  8
0
 10
5194.3110311955588259
 20
237.0023035213922924
 30
0.0
 11
5194.3038610995181443
 21
236.9380827313767099
 31
0.0
  0
LINE
  5
E3BE
  8
0
 10
5194.1857903691270621
 20
236.9996200932081933
 30
0.0
 11
5194.1927257215138525
 21
236.9375017023739076
 31
0.0
  0
ARC
  5
E3BF
  8
0
 10
5194.2861720617120227
 20
236.9886989892326028
 30
0.0
 40
0.0312838832690747
 50
311.4863327839385079
 51
343.7404592548093092
  0
ARC
  5
E3C0
  8
0
 10
5194.2939137055773244
 20
236.986441107116093
 30
0.0
 40
0.0232196981651518
 50
343.7404592548093092
 51
34.3595386522777488
  0
ARC
  5
E3C1
  8
0
 10
5194.2773729699365504
 20
236.9751325779108981
 30
0.0
 40
0.043256633268194
 50
34.3595386522763988
 51
79.2251610091330036
  0
ARC
  5
E3C2
  8
0
 10
5194.2498344340965559
 20
236.9293700934055096
 30
0.0
 40
0.09517548234298
 50
68.0181804185406946
 51
114.5055840548661052
  0
ARC
  5
E3C3
  8
0
 10
5194.2201178682717
 20
236.9746779158579955
 30
0.0
 40
0.0424321742137003
 50
103.2986034642477051
 51
154.4186219233106101
  0
ARC
  5
E3C4
  8
0
 10
5194.2055842984009359
 20
236.9832744462324001
 30
0.0
 40
0.0256540009573729
 50
157.7222052420970044
 51
232.2547454014982975
  0
ARC
  5
E3C5
  8
0
 10
5194.2647846084855701
 20
236.9465035914332987
 30
0.0
 40
0.0399735291842252
 50
291.7027480235915959
 51
347.838913905522702
  0
ARC
  5
E3C6
  8
0
 10
5194.2462127849830722
 20
236.9931660083921088
 30
0.0
 40
0.090195972221681
 50
258.5265984660446748
 51
291.7027480235915959
  0
ARC
  5
E3C7
  8
0
 10
5194.2384186023600705
 20
236.9547651367084882
 30
0.0
 40
0.0510120950675091
 50
226.7400405675448951
 51
258.5265984660446748
  0
ARC
  5
E3C8
  8
0
 10
5194.2280147872907037
 20
236.9437094069095053
 30
0.0
 40
0.0358309050816383
 50
189.9768353576722859
 51
226.7400405675437014
  0
ARC
  5
E3C9
  8
0
 10
5194.2481218264965719
 20
236.9463884149216142
 30
0.0
 40
0.0214284814470156
 50
228.015696439697706
 51
314.731422818177407
  0
ARC
  5
E3CA
  8
0
 10
5194.2398430853017999
 20
236.9371888743158934
 30
0.0
 40
0.0090523308687431
 50
136.9486036183454019
 51
228.0156964397010029
  0
ARC
  5
E3CB
  8
0
 10
5194.2481356539192348
 20
236.9294420099913054
 30
0.0
 40
0.0204004849534411
 50
41.4776350941962022
 51
136.948603618342986
  0
ARC
  5
E3CC
  8
0
 10
5194.2568863844726366
 20
236.9371779150708903
 30
0.0
 40
0.0087206085566585
 50
316.4119495915354037
 51
41.4776350941925429
  0
ARC
  5
E3CD
  8
0
 10
5194.2486500318091203
 20
236.9518741721794015
 30
0.0
 40
0.0354147243713751
 50
221.3234480995365914
 51
315.9368517118559794
  0
ARC
  5
E3CE
  8
0
 10
5194.2300800582361262
 20
236.9355465817837114
 30
0.0
 40
0.0106875302999107
 50
130.1314249446737108
 51
221.3234480995415083
  0
ARC
  5
E3CF
  8
0
 10
5194.2482905382930767
 20
236.9139449990865955
 30
0.0
 40
0.0389408479623065
 50
47.2599499552621793
 51
130.1314249446726024
  0
ARC
  5
E3D0
  8
0
 10
5194.2642417604602088
 20
236.9353071893787899
 30
0.0
 40
0.012733702702565
 50
320.7178446625093216
 51
34.6371104594433206
  0
ARC
  5
E3D1
  8
0
 10
5194.2439047624111481
 20
237.1110927335577117
 30
0.0
 40
0.1337969311306891
 50
299.7031215675036151
 51
301.7945535546396059
  0
ARC
  5
E3D2
  8
0
 10
5194.2439047624111481
 20
237.1110927335577117
 30
0.0
 40
0.1337969311306891
 50
242.294635215051386
 51
244.7621872905804992
  0
LINE
  5
E3D3
  8
0
 10
5194.1087193732573724
 20
237.2326094411793918
 30
0.0
 11
5194.1015492772157813
 21
237.1683886511638946
 31
0.0
  0
LINE
  5
E3D4
  8
0
 10
5193.9834785468246992
 20
237.2299260129954064
 30
0.0
 11
5193.9904138992133085
 21
237.1678076221610922
 31
0.0
  0
ARC
  5
E3D5
  8
0
 10
5194.0838602394105692
 20
237.2190049090197022
 30
0.0
 40
0.0312838832690747
 50
311.4863327839385079
 51
343.7404592548093092
  0
ARC
  5
E3D6
  8
0
 10
5194.0916018832749614
 20
237.2167470269033061
 30
0.0
 40
0.0232196981651518
 50
343.7404592548093092
 51
34.3595386522777488
  0
ARC
  5
E3D7
  8
0
 10
5194.0750611476360064
 20
237.2054384976979975
 30
0.0
 40
0.043256633268194
 50
34.3595386522763988
 51
79.2251610091330036
  0
ARC
  5
E3D8
  8
0
 10
5194.0475226117951024
 20
237.1596760131926089
 30
0.0
 40
0.09517548234298
 50
68.0181804185406946
 51
114.5055840548661052
  0
ARC
  5
E3D9
  8
0
 10
5194.0178060459702465
 20
237.2049838356450948
 30
0.0
 40
0.0424321742137003
 50
103.2986034642477051
 51
154.4186219233106101
  0
ARC
  5
E3DA
  8
0
 10
5194.0032724761003919
 20
237.2135803660194995
 30
0.0
 40
0.0256540009573729
 50
157.7222052420970044
 51
232.2547454014982975
  0
ARC
  5
E3DB
  8
0
 10
5194.0624727861850261
 20
237.1768095112205117
 30
0.0
 40
0.0399735291842252
 50
291.7027480235915959
 51
347.838913905522702
  0
ARC
  5
E3DC
  8
0
 10
5194.0439009626807092
 20
237.2234719281792934
 30
0.0
 40
0.090195972221681
 50
258.5265984660446748
 51
291.7027480235915959
  0
ARC
  5
E3DD
  8
0
 10
5194.036106780058617
 20
237.1850710564957012
 30
0.0
 40
0.0510120950675091
 50
226.7400405675448951
 51
258.5265984660446748
  0
ARC
  5
E3DE
  8
0
 10
5194.0257029649892502
 20
237.1740153266966047
 30
0.0
 40
0.0358309050816383
 50
189.9768353576722859
 51
226.7400405675437014
  0
ARC
  5
E3DF
  8
0
 10
5194.0458100041960279
 20
237.1766943347087135
 30
0.0
 40
0.0214284814470156
 50
228.015696439697706
 51
314.731422818177407
  0
ARC
  5
E3E0
  8
0
 10
5194.0375312630003464
 20
237.1674947941031064
 30
0.0
 40
0.0090523308687431
 50
136.9486036183454019
 51
228.0156964397010029
  0
ARC
  5
E3E1
  8
0
 10
5194.0458238316168718
 20
237.1597479297784048
 30
0.0
 40
0.0204004849534411
 50
41.4776350941962022
 51
136.948603618342986
  0
ARC
  5
E3E2
  8
0
 10
5194.0545745621720926
 20
237.1674838348579897
 30
0.0
 40
0.0087206085566585
 50
316.4119495915354037
 51
41.4776350941925429
  0
ARC
  5
E3E3
  8
0
 10
5194.0463382095067573
 20
237.1821800919665861
 30
0.0
 40
0.0354147243713751
 50
221.3234480995365914
 51
315.9368517118559794
  0
ARC
  5
E3E4
  8
0
 10
5194.0277682359328537
 20
237.165852501570896
 30
0.0
 40
0.0106875302999107
 50
130.1314249446737108
 51
221.3234480995415083
  0
ARC
  5
E3E5
  8
0
 10
5194.0459787159907137
 20
237.1442509188736949
 30
0.0
 40
0.0389408479623065
 50
47.2599499552621793
 51
130.1314249446726024
  0
ARC
  5
E3E6
  8
0
 10
5194.0619299381578458
 20
237.1656131091660029
 30
0.0
 40
0.012733702702565
 50
320.7178446625093216
 51
34.6371104594433206
  0
ARC
  5
E3E7
  8
0
 10
5194.0415929401087851
 20
237.3413986533448963
 30
0.0
 40
0.1337969311306891
 50
299.7031215675036151
 51
301.7945535546396059
  0
ARC
  5
E3E8
  8
0
 10
5194.0415929401087851
 20
237.3413986533448963
 30
0.0
 40
0.1337969311306891
 50
242.294635215051386
 51
244.7621872905804992
  0
LINE
  5
E3E9
  8
0
 10
5194.3113941893452647
 20
237.4795193398647939
 30
0.0
 11
5194.3042240933036737
 21
237.4152985498492967
 31
0.0
  0
LINE
  5
E3EA
  8
0
 10
5194.1861533629125915
 20
237.4768359116808085
 30
0.0
 11
5194.1930887153012009
 21
237.4147175208464944
 31
0.0
  0
ARC
  5
E3EB
  8
0
 10
5194.2865350554993711
 20
237.4659148077051043
 30
0.0
 40
0.0312838832690747
 50
311.4863327839385079
 51
343.7404592548093092
  0
ARC
  5
E3EC
  8
0
 10
5194.2942766993637633
 20
237.4636569255887082
 30
0.0
 40
0.0232196981651518
 50
343.7404592548093092
 51
34.3595386522777488
  0
ARC
  5
E3ED
  8
0
 10
5194.2777359637229893
 20
237.4523483963835133
 30
0.0
 40
0.043256633268194
 50
34.3595386522763988
 51
79.2251610091330036
  0
ARC
  5
E3EE
  8
0
 10
5194.2501974278839043
 20
237.4065859118780111
 30
0.0
 40
0.09517548234298
 50
68.0181804185406946
 51
114.5055840548661052
  0
ARC
  5
E3EF
  8
0
 10
5194.2204808620572294
 20
237.4518937343306106
 30
0.0
 40
0.0424321742137003
 50
103.2986034642477051
 51
154.4186219233106101
  0
ARC
  5
E3F0
  8
0
 10
5194.2059472921882843
 20
237.4604902647049016
 30
0.0
 40
0.0256540009573729
 50
157.7222052420970044
 51
232.2547454014982975
  0
ARC
  5
E3F1
  8
0
 10
5194.265147602272009
 20
237.4237194099058001
 30
0.0
 40
0.0399735291842252
 50
291.7027480235915959
 51
347.838913905522702
  0
ARC
  5
E3F2
  8
0
 10
5194.2465757787704206
 20
237.4703818268648092
 30
0.0
 40
0.090195972221681
 50
258.5265984660446748
 51
291.7027480235915959
  0
ARC
  5
E3F3
  8
0
 10
5194.2387815961474189
 20
237.4319809551811034
 30
0.0
 40
0.0510120950675091
 50
226.7400405675448951
 51
258.5265984660446748
  0
ARC
  5
E3F4
  8
0
 10
5194.2283777810771426
 20
237.4209252253820068
 30
0.0
 40
0.0358309050816383
 50
189.9768353576722859
 51
226.7400405675437014
  0
ARC
  5
E3F5
  8
0
 10
5194.2484848202839203
 20
237.4236042333940873
 30
0.0
 40
0.0214284814470156
 50
228.015696439697706
 51
314.731422818177407
  0
ARC
  5
E3F6
  8
0
 10
5194.2402060790882388
 20
237.4144046927885086
 30
0.0
 40
0.0090523308687431
 50
136.9486036183454019
 51
228.0156964397010029
  0
ARC
  5
E3F7
  8
0
 10
5194.2484986477047642
 20
237.4066578284638922
 30
0.0
 40
0.0204004849534411
 50
41.4776350941962022
 51
136.948603618342986
  0
ARC
  5
E3F8
  8
0
 10
5194.257249378259985
 20
237.4143937335433918
 30
0.0
 40
0.0087206085566585
 50
316.4119495915354037
 51
41.4776350941925429
  0
ARC
  5
E3F9
  8
0
 10
5194.2490130255946497
 20
237.4290899906519883
 30
0.0
 40
0.0354147243713751
 50
221.3234480995365914
 51
315.9368517118559794
  0
ARC
  5
E3FA
  8
0
 10
5194.2304430520216556
 20
237.4127624002562982
 30
0.0
 40
0.0106875302999107
 50
130.1314249446737108
 51
221.3234480995415083
  0
ARC
  5
E3FB
  8
0
 10
5194.2486535320786061
 20
237.391160817559097
 30
0.0
 40
0.0389408479623065
 50
47.2599499552621793
 51
130.1314249446726024
  0
ARC
  5
E3FC
  8
0
 10
5194.2646047542466476
 20
237.4125230078512914
 30
0.0
 40
0.012733702702565
 50
320.7178446625093216
 51
34.6371104594433206
  0
ARC
  5
E3FD
  8
0
 10
5194.2442677561966775
 20
237.5883085520302984
 30
0.0
 40
0.1337969311306891
 50
299.7031215675036151
 51
301.7945535546396059
  0
ARC
  5
E3FE
  8
0
 10
5194.2442677561966775
 20
237.5883085520302984
 30
0.0
 40
0.1337969311306891
 50
242.294635215051386
 51
244.7621872905804992
  0
LINE
  5
E3FF
  8
0
 10
5194.109047561530133
 20
237.7272269883482068
 30
0.0
 11
5194.1018774654876324
 21
237.6630061983325959
 31
0.0
  0
LINE
  5
E400
  8
0
 10
5193.9838067350965503
 20
237.724543560164193
 30
0.0
 11
5193.9907420874860691
 21
237.6624251693299072
 31
0.0
  0
ARC
  5
E401
  8
0
 10
5194.0841884276842393
 20
237.7136224561884035
 30
0.0
 40
0.0312838832690747
 50
311.4863327839385079
 51
343.7404592548093092
  0
ARC
  5
E402
  8
0
 10
5194.091930071547722
 20
237.7113645740720074
 30
0.0
 40
0.0232196981651518
 50
343.7404592548093092
 51
34.3595386522777488
  0
ARC
  5
E403
  8
0
 10
5194.0753893359078575
 20
237.7000560448668125
 30
0.0
 40
0.043256633268194
 50
34.3595386522763988
 51
79.2251610091330036
  0
ARC
  5
E404
  8
0
 10
5194.047850800067863
 20
237.6542935603613103
 30
0.0
 40
0.09517548234298
 50
68.0181804185406946
 51
114.5055840548661052
  0
ARC
  5
E405
  8
0
 10
5194.0181342342420976
 20
237.6996013828139098
 30
0.0
 40
0.0424321742137003
 50
103.2986034642477051
 51
154.4186219233106101
  0
ARC
  5
E406
  8
0
 10
5194.003600664372243
 20
237.7081979131882861
 30
0.0
 40
0.0256540009573729
 50
157.7222052420970044
 51
232.2547454014982975
  0
ARC
  5
E407
  8
0
 10
5194.0628009744568772
 20
237.671427058389213
 30
0.0
 40
0.0399735291842252
 50
291.7027480235915959
 51
347.838913905522702
  0
ARC
  5
E408
  8
0
 10
5194.0442291509543793
 20
237.7180894753481084
 30
0.0
 40
0.090195972221681
 50
258.5265984660446748
 51
291.7027480235915959
  0
ARC
  5
E409
  8
0
 10
5194.0364349683313776
 20
237.6796886036644025
 30
0.0
 40
0.0510120950675091
 50
226.7400405675448951
 51
258.5265984660446748
  0
ARC
  5
E40A
  8
0
 10
5194.0260311532611013
 20
237.6686328738653913
 30
0.0
 40
0.0358309050816383
 50
189.9768353576722859
 51
226.7400405675437014
  0
ARC
  5
E40B
  8
0
 10
5194.046138192467879
 20
237.6713118818773864
 30
0.0
 40
0.0214284814470156
 50
228.015696439697706
 51
314.731422818177407
  0
ARC
  5
E40C
  8
0
 10
5194.037859451273107
 20
237.6621123412718077
 30
0.0
 40
0.0090523308687431
 50
136.9486036183454019
 51
228.0156964397010029
  0
ARC
  5
E40D
  8
0
 10
5194.0461520198896324
 20
237.6543654769471914
 30
0.0
 40
0.0204004849534411
 50
41.4776350941962022
 51
136.948603618342986
  0
ARC
  5
E40E
  8
0
 10
5194.0549027504448532
 20
237.6621013820268047
 30
0.0
 40
0.0087206085566585
 50
316.4119495915354037
 51
41.4776350941925429
  0
ARC
  5
E40F
  8
0
 10
5194.0466663977813369
 20
237.6767976391352875
 30
0.0
 40
0.0354147243713751
 50
221.3234480995365914
 51
315.9368517118559794
  0
ARC
  5
E410
  8
0
 10
5194.0280964242056143
 20
237.6604700487395974
 30
0.0
 40
0.0106875302999107
 50
130.1314249446737108
 51
221.3234480995415083
  0
ARC
  5
E411
  8
0
 10
5194.0463069042625648
 20
237.6388684660423962
 30
0.0
 40
0.0389408479623065
 50
47.2599499552621793
 51
130.1314249446726024
  0
ARC
  5
E412
  8
0
 10
5194.0622581264306064
 20
237.6602306563347042
 30
0.0
 40
0.012733702702565
 50
320.7178446625093216
 51
34.6371104594433206
  0
ARC
  5
E413
  8
0
 10
5194.0419211283815457
 20
237.8360162005137113
 30
0.0
 40
0.1337969311306891
 50
299.7031215675036151
 51
301.7945535546396059
  0
ARC
  5
E414
  8
0
 10
5194.0419211283815457
 20
237.8360162005137113
 30
0.0
 40
0.1337969311306891
 50
242.294635215051386
 51
244.7621872905804992
  0
LINE
  5
E415
  8
0
 10
5194.3104877059231512
 20
237.9925003393236125
 30
0.0
 11
5194.3033176098815602
 21
237.9282795493080869
 31
0.0
  0
LINE
  5
E416
  8
0
 10
5194.185246879492297
 20
237.9898169111395987
 30
0.0
 11
5194.1921822318781778
 21
237.927698520305313
 31
0.0
  0
ARC
  5
E417
  8
0
 10
5194.2856285720763481
 20
237.9788958071638945
 30
0.0
 40
0.0312838832690747
 50
311.4863327839385079
 51
343.7404592548093092
  0
ARC
  5
E418
  8
0
 10
5194.2933702159407403
 20
237.9766379250474984
 30
0.0
 40
0.0232196981651518
 50
343.7404592548093092
 51
34.3595386522777488
  0
ARC
  5
E419
  8
0
 10
5194.2768294803008757
 20
237.9653293958423035
 30
0.0
 40
0.043256633268194
 50
34.3595386522763988
 51
79.2251610091330036
  0
ARC
  5
E41A
  8
0
 10
5194.2492909444608813
 20
237.9195669113368012
 30
0.0
 40
0.09517548234298
 50
68.0181804185406946
 51
114.5055840548661052
  0
ARC
  5
E41B
  8
0
 10
5194.2195743786360254
 20
237.9648747337894008
 30
0.0
 40
0.0424321742137003
 50
103.2986034642477051
 51
154.4186219233106101
  0
ARC
  5
E41C
  8
0
 10
5194.2050408087661708
 20
237.9734712641636918
 30
0.0
 40
0.0256540009573729
 50
157.7222052420970044
 51
232.2547454014982975
  0
ARC
  5
E41D
  8
0
 10
5194.2642411188498954
 20
237.936700409364704
 30
0.0
 40
0.0399735291842252
 50
291.7027480235915959
 51
347.838913905522702
  0
ARC
  5
E41E
  8
0
 10
5194.2456692953483071
 20
237.9833628263235141
 30
0.0
 40
0.090195972221681
 50
258.5265984660446748
 51
291.7027480235915959
  0
ARC
  5
E41F
  8
0
 10
5194.2378751127243959
 20
237.9449619546398935
 30
0.0
 40
0.0510120950675091
 50
226.7400405675448951
 51
258.5265984660446748
  0
ARC
  5
E420
  8
0
 10
5194.2274712976541196
 20
237.933906224840797
 30
0.0
 40
0.0358309050816383
 50
189.9768353576722859
 51
226.7400405675437014
  0
ARC
  5
E421
  8
0
 10
5194.2475783368618067
 20
237.9365852328529058
 30
0.0
 40
0.0214284814470156
 50
228.015696439697706
 51
314.731422818177407
  0
ARC
  5
E422
  8
0
 10
5194.2392995956661252
 20
237.9273856922472987
 30
0.0
 40
0.0090523308687431
 50
136.9486036183454019
 51
228.0156964397010029
  0
ARC
  5
E423
  8
0
 10
5194.2475921642835601
 20
237.9196388279225971
 30
0.0
 40
0.0204004849534411
 50
41.4776350941962022
 51
136.948603618342986
  0
ARC
  5
E424
  8
0
 10
5194.2563428948378714
 20
237.9273747330022104
 30
0.0
 40
0.0087206085566585
 50
316.4119495915354037
 51
41.4776350941925429
  0
ARC
  5
E425
  8
0
 10
5194.2481065421743551
 20
237.9420709901108069
 30
0.0
 40
0.0354147243713751
 50
221.3234480995365914
 51
315.9368517118559794
  0
ARC
  5
E426
  8
0
 10
5194.2295365686013611
 20
237.9257433997150883
 30
0.0
 40
0.0106875302999107
 50
130.1314249446737108
 51
221.3234480995415083
  0
ARC
  5
E427
  8
0
 10
5194.247747048657402
 20
237.9041418170178872
 30
0.0
 40
0.0389408479623065
 50
47.2599499552621793
 51
130.1314249446726024
  0
ARC
  5
E428
  8
0
 10
5194.2636982708236246
 20
237.9255040073101952
 30
0.0
 40
0.012733702702565
 50
320.7178446625093216
 51
34.6371104594433206
  0
ARC
  5
E429
  8
0
 10
5194.243361272774564
 20
238.1012895514890886
 30
0.0
 40
0.1337969311306891
 50
299.7031215675036151
 51
301.7945535546396059
  0
ARC
  5
E42A
  8
0
 10
5194.243361272774564
 20
238.1012895514890886
 30
0.0
 40
0.1337969311306891
 50
242.294635215051386
 51
244.7621872905804992
  0
LINE
  5
E42B
  8
0
 10
5194.110665863907343
 20
238.2557086189052882
 30
0.0
 11
5194.103495767865752
 21
238.191487828889791
 31
0.0
  0
LINE
  5
E42C
  8
0
 10
5193.9854250374746698
 20
238.2530251907213028
 30
0.0
 11
5193.9923603898632791
 21
238.1909067998869887
 31
0.0
  0
ARC
  5
E42D
  8
0
 10
5194.0858067300614493
 20
238.2421040867455986
 30
0.0
 40
0.0312838832690747
 50
311.4863327839385079
 51
343.7404592548093092
  0
ARC
  5
E42E
  8
0
 10
5194.0935483739267511
 20
238.2398462046292025
 30
0.0
 40
0.0232196981651518
 50
343.7404592548093092
 51
34.3595386522777488
  0
ARC
  5
E42F
  8
0
 10
5194.077007638285977
 20
238.2285376754240076
 30
0.0
 40
0.043256633268194
 50
34.3595386522763988
 51
79.2251610091330036
  0
ARC
  5
E430
  8
0
 10
5194.0494691024450731
 20
238.1827751909185054
 30
0.0
 40
0.09517548234298
 50
68.0181804185406946
 51
114.5055840548661052
  0
ARC
  5
E431
  8
0
 10
5194.0197525366202171
 20
238.2280830133711049
 30
0.0
 40
0.0424321742137003
 50
103.2986034642477051
 51
154.4186219233106101
  0
ARC
  5
E432
  8
0
 10
5194.0052189667512721
 20
238.2366795437453959
 30
0.0
 40
0.0256540009573729
 50
157.7222052420970044
 51
232.2547454014982975
  0
ARC
  5
E433
  8
0
 10
5194.0644192768349967
 20
238.1999086889464081
 30
0.0
 40
0.0399735291842252
 50
291.7027480235915959
 51
347.838913905522702
  0
ARC
  5
E434
  8
0
 10
5194.0458474533334083
 20
238.2465711059051898
 30
0.0
 40
0.090195972221681
 50
258.5265984660446748
 51
291.7027480235915959
  0
ARC
  5
E435
  8
0
 10
5194.0380532707085877
 20
238.2081702342215976
 30
0.0
 40
0.0510120950675091
 50
226.7400405675448951
 51
258.5265984660446748
  0
ARC
  5
E436
  8
0
 10
5194.0276494556392208
 20
238.1971145044225864
 30
0.0
 40
0.0358309050816383
 50
189.9768353576722859
 51
226.7400405675437014
  0
ARC
  5
E437
  8
0
 10
5194.0477564948459985
 20
238.19979351243461
 30
0.0
 40
0.0214284814470156
 50
228.015696439697706
 51
314.731422818177407
  0
ARC
  5
E438
  8
0
 10
5194.039477753650317
 20
238.1905939718290028
 30
0.0
 40
0.0090523308687431
 50
136.9486036183454019
 51
228.0156964397010029
  0
ARC
  5
E439
  8
0
 10
5194.0477703222668424
 20
238.1828471075043012
 30
0.0
 40
0.0204004849534411
 50
41.4776350941962022
 51
136.948603618342986
  0
ARC
  5
E43A
  8
0
 10
5194.0565210528220632
 20
238.1905830125838861
 30
0.0
 40
0.0087206085566585
 50
316.4119495915354037
 51
41.4776350941925429
  0
ARC
  5
E43B
  8
0
 10
5194.0482847001585469
 20
238.205279269692511
 30
0.0
 40
0.0354147243713751
 50
221.3234480995365914
 51
315.9368517118559794
  0
ARC
  5
E43C
  8
0
 10
5194.0297147265846434
 20
238.1889516792967925
 30
0.0
 40
0.0106875302999107
 50
130.1314249446737108
 51
221.3234480995415083
  0
ARC
  5
E43D
  8
0
 10
5194.0479252066415938
 20
238.1673500965995913
 30
0.0
 40
0.0389408479623065
 50
47.2599499552621793
 51
130.1314249446726024
  0
ARC
  5
E43E
  8
0
 10
5194.0638764288087259
 20
238.1887122868918993
 30
0.0
 40
0.012733702702565
 50
320.7178446625093216
 51
34.6371104594433206
  0
ARC
  5
E43F
  8
0
 10
5194.0435394307605748
 20
238.3644978310707927
 30
0.0
 40
0.1337969311306891
 50
299.7031215675036151
 51
301.7945535546396059
  0
ARC
  5
E440
  8
0
 10
5194.0435394307605748
 20
238.3644978310707927
 30
0.0
 40
0.1337969311306891
 50
242.294635215051386
 51
244.7621872905804992
  0
LINE
  5
E441
  8
0
 10
5194.3132803093703842
 20
238.5341820524621141
 30
0.0
 11
5194.3061102133287932
 21
238.4699612624465033
 31
0.0
  0
LINE
  5
E442
  8
0
 10
5194.188039482937711
 20
238.5314986242779867
 30
0.0
 11
5194.1949748353254108
 21
238.4693802334437009
 31
0.0
  0
ARC
  5
E443
  8
0
 10
5194.288421175523581
 20
238.5205775203023109
 30
0.0
 40
0.0312838832690747
 50
311.4863327839385079
 51
343.7404592548093092
  0
ARC
  5
E444
  8
0
 10
5194.2961628193888828
 20
238.5183196381858863
 30
0.0
 40
0.0232196981651518
 50
343.7404592548093092
 51
34.3595386522777488
  0
ARC
  5
E445
  8
0
 10
5194.2796220837471992
 20
238.5070111089806915
 30
0.0
 40
0.043256633268194
 50
34.3595386522763988
 51
79.2251610091330036
  0
ARC
  5
E446
  8
0
 10
5194.2520835479081143
 20
238.4612486244751892
 30
0.0
 40
0.09517548234298
 50
68.0181804185406946
 51
114.5055840548661052
  0
ARC
  5
E447
  8
0
 10
5194.2223669820823488
 20
238.5065564469277888
 30
0.0
 40
0.0424321742137003
 50
103.2986034642477051
 51
154.4186219233106101
  0
ARC
  5
E448
  8
0
 10
5194.2078334122143133
 20
238.5151529773021082
 30
0.0
 40
0.0256540009573729
 50
157.7222052420970044
 51
232.2547454014982975
  0
ARC
  5
E449
  8
0
 10
5194.2670337222971284
 20
238.478382122503092
 30
0.0
 40
0.0399735291842252
 50
291.7027480235915959
 51
347.838913905522702
  0
ARC
  5
E44A
  8
0
 10
5194.248461898793721
 20
238.5250445394619021
 30
0.0
 40
0.090195972221681
 50
258.5265984660446748
 51
291.7027480235915959
  0
ARC
  5
E44B
  8
0
 10
5194.2406677161716289
 20
238.4866436677783099
 30
0.0
 40
0.0510120950675091
 50
226.7400405675448951
 51
258.5265984660446748
  0
ARC
  5
E44C
  8
0
 10
5194.230263901102262
 20
238.4755879379792987
 30
0.0
 40
0.0358309050816383
 50
189.9768353576722859
 51
226.7400405675437014
  0
ARC
  5
E44D
  8
0
 10
5194.2503709403090397
 20
238.4782669459912938
 30
0.0
 40
0.0214284814470156
 50
228.015696439697706
 51
314.731422818177407
  0
ARC
  5
E44E
  8
0
 10
5194.2420921991142677
 20
238.4690674053856867
 30
0.0
 40
0.0090523308687431
 50
136.9486036183454019
 51
228.0156964397010029
  0
ARC
  5
E44F
  8
0
 10
5194.2503847677298836
 20
238.4613205410610988
 30
0.0
 40
0.0204004849534411
 50
41.4776350941962022
 51
136.948603618342986
  0
ARC
  5
E450
  8
0
 10
5194.2591354982851044
 20
238.4690564461405984
 30
0.0
 40
0.0087206085566585
 50
316.4119495915354037
 51
41.4776350941925429
  0
ARC
  5
E451
  8
0
 10
5194.2508991456206786
 20
238.4837527032491948
 30
0.0
 40
0.0354147243713751
 50
221.3234480995365914
 51
315.9368517118559794
  0
ARC
  5
E452
  8
0
 10
5194.2323291720476846
 20
238.4674251128535047
 30
0.0
 40
0.0106875302999107
 50
130.1314249446737108
 51
221.3234480995415083
  0
ARC
  5
E453
  8
0
 10
5194.250539652104635
 20
238.4458235301563036
 30
0.0
 40
0.0389408479623065
 50
47.2599499552621793
 51
130.1314249446726024
  0
ARC
  5
E454
  8
0
 10
5194.2664908742717671
 20
238.4671857204486116
 30
0.0
 40
0.012733702702565
 50
320.7178446625093216
 51
34.6371104594433206
  0
ARC
  5
E455
  8
0
 10
5194.2461538762227065
 20
238.642971264627505
 30
0.0
 40
0.1337969311306891
 50
299.7031215675036151
 51
301.7945535546396059
  0
ARC
  5
E456
  8
0
 10
5194.2461538762227065
 20
238.642971264627505
 30
0.0
 40
0.1337969311306891
 50
242.294635215051386
 51
244.7621872905804992
  0
LINE
  5
E457
  8
0
 10
5194.9132660700406632
 20
238.2890798592733006
 30
0.0
 11
5194.9060959739999817
 21
238.2248590692578034
 31
0.0
  0
LINE
  5
E458
  8
0
 10
5194.7880252436088995
 20
238.2863964310892868
 30
0.0
 11
5194.7949605959947803
 21
238.2242780402550011
 31
0.0
  0
ARC
  5
E459
  8
0
 10
5194.8884069361929505
 20
238.275475327113611
 30
0.0
 40
0.0312838832690747
 50
311.4863327839385079
 51
343.7404592548093092
  0
ARC
  5
E45A
  8
0
 10
5194.8961485800600713
 20
238.2732174449971865
 30
0.0
 40
0.0232196981651518
 50
343.7404592548093092
 51
34.3595386522777488
  0
ARC
  5
E45B
  8
0
 10
5194.8796078444202067
 20
238.2619089157919916
 30
0.0
 40
0.043256633268194
 50
34.3595386522763988
 51
79.2251610091330036
  0
ARC
  5
E45C
  8
0
 10
5194.8520693085783932
 20
238.2161464312864894
 30
0.0
 40
0.09517548234298
 50
68.0181804185406946
 51
114.5055840548661052
  0
ARC
  5
E45D
  8
0
 10
5194.8223527427544468
 20
238.2614542537390889
 30
0.0
 40
0.0424321742137003
 50
103.2986034642477051
 51
154.4186219233106101
  0
ARC
  5
E45E
  8
0
 10
5194.8078191728836828
 20
238.2700507841134083
 30
0.0
 40
0.0256540009573729
 50
157.7222052420970044
 51
232.2547454014982975
  0
ARC
  5
E45F
  8
0
 10
5194.8670194829683169
 20
238.2332799293143921
 30
0.0
 40
0.0399735291842252
 50
291.7027480235915959
 51
347.838913905522702
  0
ARC
  5
E460
  8
0
 10
5194.848447659465819
 20
238.2799423462732022
 30
0.0
 40
0.090195972221681
 50
258.5265984660446748
 51
291.7027480235915959
  0
ARC
  5
E461
  8
0
 10
5194.8406534768419078
 20
238.2415414745896101
 30
0.0
 40
0.0510120950675091
 50
226.7400405675448951
 51
258.5265984660446748
  0
ARC
  5
E462
  8
0
 10
5194.8302496617734505
 20
238.2304857447905135
 30
0.0
 40
0.0358309050816383
 50
189.9768353576722859
 51
226.7400405675437014
  0
ARC
  5
E463
  8
0
 10
5194.8503567009793187
 20
238.233164752802594
 30
0.0
 40
0.0214284814470156
 50
228.015696439697706
 51
314.731422818177407
  0
ARC
  5
E464
  8
0
 10
5194.8420779597827277
 20
238.2239652121969868
 30
0.0
 40
0.0090523308687431
 50
136.9486036183454019
 51
228.0156964397010029
  0
ARC
  5
E465
  8
0
 10
5194.8503705284010721
 20
238.2162183478723989
 30
0.0
 40
0.0204004849534411
 50
41.4776350941962022
 51
136.948603618342986
  0
ARC
  5
E466
  8
0
 10
5194.8591212589553834
 20
238.2239542529520122
 30
0.0
 40
0.0087206085566585
 50
316.4119495915354037
 51
41.4776350941925429
  0
ARC
  5
E467
  8
0
 10
5194.8508849062909576
 20
238.238650510060495
 30
0.0
 40
0.0354147243713751
 50
221.3234480995365914
 51
315.9368517118559794
  0
ARC
  5
E468
  8
0
 10
5194.8323149327179635
 20
238.2223229196648049
 30
0.0
 40
0.0106875302999107
 50
130.1314249446737108
 51
221.3234480995415083
  0
ARC
  5
E469
  8
0
 10
5194.850525412774914
 20
238.2007213369676037
 30
0.0
 40
0.0389408479623065
 50
47.2599499552621793
 51
130.1314249446726024
  0
ARC
  5
E46A
  8
0
 10
5194.8664766349420461
 20
238.2220835272599118
 30
0.0
 40
0.012733702702565
 50
320.7178446625093216
 51
34.6371104594433206
  0
ARC
  5
E46B
  8
0
 10
5194.8461396368938949
 20
238.3978690714388051
 30
0.0
 40
0.1337969311306891
 50
299.7031215675036151
 51
301.7945535546396059
  0
ARC
  5
E46C
  8
0
 10
5194.8461396368938949
 20
238.3978690714388051
 30
0.0
 40
0.1337969311306891
 50
242.294635215051386
 51
244.7621872905804992
  0
LINE
  5
E46D
  8
0
 10
5194.7151270592103174
 20
238.0084083320209061
 30
0.0
 11
5194.7079569631687264
 21
237.9441875420054089
 31
0.0
  0
LINE
  5
E46E
  8
0
 10
5194.5898862327776442
 20
238.0057249038368923
 30
0.0
 11
5194.596821585165344
 21
237.9436065130026066
 31
0.0
  0
ARC
  5
E46F
  8
0
 10
5194.6902679253644237
 20
237.9948037998611881
 30
0.0
 40
0.0312838832690747
 50
311.4863327839385079
 51
343.7404592548093092
  0
ARC
  5
E470
  8
0
 10
5194.698009569228816
 20
237.992545917744792
 30
0.0
 40
0.0232196981651518
 50
343.7404592548093092
 51
34.3595386522777488
  0
ARC
  5
E471
  8
0
 10
5194.6814688335880419
 20
237.9812373885395971
 30
0.0
 40
0.043256633268194
 50
34.3595386522763988
 51
79.2251610091330036
  0
ARC
  5
E472
  8
0
 10
5194.653930297747138
 20
237.9354749040340948
 30
0.0
 40
0.09517548234298
 50
68.0181804185406946
 51
114.5055840548661052
  0
ARC
  5
E473
  8
0
 10
5194.624213731922282
 20
237.9807827264866944
 30
0.0
 40
0.0424321742137003
 50
103.2986034642477051
 51
154.4186219233106101
  0
ARC
  5
E474
  8
0
 10
5194.6096801620524275
 20
237.9893792568610138
 30
0.0
 40
0.0256540009573729
 50
157.7222052420970044
 51
232.2547454014982975
  0
ARC
  5
E475
  8
0
 10
5194.6688804721370616
 20
237.9526084020619976
 30
0.0
 40
0.0399735291842252
 50
291.7027480235915959
 51
347.838913905522702
  0
ARC
  5
E476
  8
0
 10
5194.6503086486336542
 20
237.999270819020893
 30
0.0
 40
0.090195972221681
 50
258.5265984660446748
 51
291.7027480235915959
  0
ARC
  5
E477
  8
0
 10
5194.6425144660106525
 20
237.9608699473371871
 30
0.0
 40
0.0510120950675091
 50
226.7400405675448951
 51
258.5265984660446748
  0
ARC
  5
E478
  8
0
 10
5194.6321106509421952
 20
237.9498142175382043
 30
0.0
 40
0.0358309050816383
 50
189.9768353576722859
 51
226.7400405675437014
  0
ARC
  5
E479
  8
0
 10
5194.6522176901480634
 20
237.9524932255501994
 30
0.0
 40
0.0214284814470156
 50
228.015696439697706
 51
314.731422818177407
  0
ARC
  5
E47A
  8
0
 10
5194.6439389489532914
 20
237.9432936849445923
 30
0.0
 40
0.0090523308687431
 50
136.9486036183454019
 51
228.0156964397010029
  0
ARC
  5
E47B
  8
0
 10
5194.6522315175698168
 20
237.9355468206200044
 30
0.0
 40
0.0204004849534411
 50
41.4776350941962022
 51
136.948603618342986
  0
ARC
  5
E47C
  8
0
 10
5194.6609822481250376
 20
237.9432827256995893
 30
0.0
 40
0.0087206085566585
 50
316.4119495915354037
 51
41.4776350941925429
  0
ARC
  5
E47D
  8
0
 10
5194.6527458954597023
 20
237.9579789828081005
 30
0.0
 40
0.0354147243713751
 50
221.3234480995365914
 51
315.9368517118559794
  0
ARC
  5
E47E
  8
0
 10
5194.6341759218867082
 20
237.9416513924124956
 30
0.0
 40
0.0106875302999107
 50
130.1314249446737108
 51
221.3234480995415083
  0
ARC
  5
E47F
  8
0
 10
5194.6523864019436587
 20
237.9200498097152092
 30
0.0
 40
0.0389408479623065
 50
47.2599499552621793
 51
130.1314249446726024
  0
ARC
  5
E480
  8
0
 10
5194.6683376241107908
 20
237.9414120000074888
 30
0.0
 40
0.012733702702565
 50
320.7178446625093216
 51
34.6371104594433206
  0
ARC
  5
E481
  8
0
 10
5194.6480006260626396
 20
238.1171975441864106
 30
0.0
 40
0.1337969311306891
 50
299.7031215675036151
 51
301.7945535546396059
  0
ARC
  5
E482
  8
0
 10
5194.6480006260626396
 20
238.1171975441864106
 30
0.0
 40
0.1337969311306891
 50
242.294635215051386
 51
244.7621872905804992
  0
LINE
  5
E483
  8
0
 10
5195.3193768033161177
 20
237.7930995247344015
 30
0.0
 11
5195.3122067072754362
 21
237.7288787347187906
 31
0.0
  0
LINE
  5
E484
  8
0
 10
5195.194135976884354
 20
237.7904160965503877
 30
0.0
 11
5195.2010713292720538
 21
237.728297705716102
 31
0.0
  0
ARC
  5
E485
  8
0
 10
5195.2945176694702241
 20
237.7794949925745982
 30
0.0
 40
0.0312838832690747
 50
311.4863327839385079
 51
343.7404592548093092
  0
ARC
  5
E486
  8
0
 10
5195.3022593133346163
 20
237.7772371104582021
 30
0.0
 40
0.0232196981651518
 50
343.7404592548093092
 51
34.3595386522777488
  0
ARC
  5
E487
  8
0
 10
5195.2857185776938422
 20
237.7659285812530072
 30
0.0
 40
0.043256633268194
 50
34.3595386522763988
 51
79.2251610091330036
  0
ARC
  5
E488
  8
0
 10
5195.2581800418538478
 20
237.7201660967475902
 30
0.0
 40
0.09517548234298
 50
68.0181804185406946
 51
114.5055840548661052
  0
ARC
  5
E489
  8
0
 10
5195.2284634760289919
 20
237.7654739192001045
 30
0.0
 40
0.0424321742137003
 50
103.2986034642477051
 51
154.4186219233106101
  0
ARC
  5
E48A
  8
0
 10
5195.2139299061591373
 20
237.7740704495745092
 30
0.0
 40
0.0256540009573729
 50
157.7222052420970044
 51
232.2547454014982975
  0
ARC
  5
E48B
  8
0
 10
5195.2731302162428619
 20
237.7372995947754077
 30
0.0
 40
0.0399735291842252
 50
291.7027480235915959
 51
347.838913905522702
  0
ARC
  5
E48C
  8
0
 10
5195.2545583927403641
 20
237.7839620117343031
 30
0.0
 40
0.090195972221681
 50
258.5265984660446748
 51
291.7027480235915959
  0
ARC
  5
E48D
  8
0
 10
5195.2467642101182719
 20
237.7455611400505973
 30
0.0
 40
0.0510120950675091
 50
226.7400405675448951
 51
258.5265984660446748
  0
ARC
  5
E48E
  8
0
 10
5195.2363603950479956
 20
237.734505410251586
 30
0.0
 40
0.0358309050816383
 50
189.9768353576722859
 51
226.7400405675437014
  0
ARC
  5
E48F
  8
0
 10
5195.2564674342547733
 20
237.7371844182636096
 30
0.0
 40
0.0214284814470156
 50
228.015696439697706
 51
314.731422818177407
  0
ARC
  5
E490
  8
0
 10
5195.2481886930590917
 20
237.7279848776580025
 30
0.0
 40
0.0090523308687431
 50
136.9486036183454019
 51
228.0156964397010029
  0
ARC
  5
E491
  8
0
 10
5195.2564812616756171
 20
237.7202380133333861
 30
0.0
 40
0.0204004849534411
 50
41.4776350941962022
 51
136.948603618342986
  0
ARC
  5
E492
  8
0
 10
5195.2652319922299284
 20
237.7279739184129994
 30
0.0
 40
0.0087206085566585
 50
316.4119495915354037
 51
41.4776350941925429
  0
ARC
  5
E493
  8
0
 10
5195.2569956395664121
 20
237.7426701755215106
 30
0.0
 40
0.0354147243713751
 50
221.3234480995365914
 51
315.9368517118559794
  0
ARC
  5
E494
  8
0
 10
5195.2384256659934181
 20
237.7263425851257921
 30
0.0
 40
0.0106875302999107
 50
130.1314249446737108
 51
221.3234480995415083
  0
ARC
  5
E495
  8
0
 10
5195.256636146051278
 20
237.7047410024285909
 30
0.0
 40
0.0389408479623065
 50
47.2599499552621793
 51
130.1314249446726024
  0
ARC
  5
E496
  8
0
 10
5195.2725873682184101
 20
237.726103192720899
 30
0.0
 40
0.012733702702565
 50
320.7178446625093216
 51
34.6371104594433206
  0
ARC
  5
E497
  8
0
 10
5195.2522503701693495
 20
237.9018887368997923
 30
0.0
 40
0.1337969311306891
 50
299.7031215675036151
 51
301.7945535546396059
  0
ARC
  5
E498
  8
0
 10
5195.2522503701693495
 20
237.9018887368997923
 30
0.0
 40
0.1337969311306891
 50
242.294635215051386
 51
244.7621872905804992
  0
LINE
  5
E499
  8
0
 10
5194.9166281902562332
 20
237.76124836369641
 30
0.0
 11
5194.9094580942146422
 21
237.6970275736807992
 31
0.0
  0
LINE
  5
E49A
  8
0
 10
5194.79138736382356
 20
237.7585649355123962
 30
0.0
 11
5194.7983227162103503
 21
237.6964465446781105
 31
0.0
  0
ARC
  5
E49B
  8
0
 10
5194.8917690564076111
 20
237.7476438315366067
 30
0.0
 40
0.0312838832690747
 50
311.4863327839385079
 51
343.7404592548093092
  0
ARC
  5
E49C
  8
0
 10
5194.8995107002747318
 20
237.7453859494202106
 30
0.0
 40
0.0232196981651518
 50
343.7404592548093092
 51
34.3595386522777488
  0
ARC
  5
E49D
  8
0
 10
5194.8829699646339577
 20
237.7340774202149873
 30
0.0
 40
0.043256633268194
 50
34.3595386522763988
 51
79.2251610091330036
  0
ARC
  5
E49E
  8
0
 10
5194.8554314287930538
 20
237.6883149357095988
 30
0.0
 40
0.09517548234298
 50
68.0181804185406946
 51
114.5055840548661052
  0
ARC
  5
E49F
  8
0
 10
5194.8257148629681978
 20
237.7336227581621131
 30
0.0
 40
0.0424321742137003
 50
103.2986034642477051
 51
154.4186219233106101
  0
ARC
  5
E4A0
  8
0
 10
5194.8111812930983433
 20
237.7422192885364893
 30
0.0
 40
0.0256540009573729
 50
157.7222052420970044
 51
232.2547454014982975
  0
ARC
  5
E4A1
  8
0
 10
5194.8703816031829774
 20
237.7054484337373879
 30
0.0
 40
0.0399735291842252
 50
291.7027480235915959
 51
347.838913905522702
  0
ARC
  5
E4A2
  8
0
 10
5194.851809779681389
 20
237.7521108506963117
 30
0.0
 40
0.090195972221681
 50
258.5265984660446748
 51
291.7027480235915959
  0
ARC
  5
E4A3
  8
0
 10
5194.8440155970556589
 20
237.7137099790126058
 30
0.0
 40
0.0510120950675091
 50
226.7400405675448951
 51
258.5265984660446748
  0
ARC
  5
E4A4
  8
0
 10
5194.8336117819872015
 20
237.7026542492135945
 30
0.0
 40
0.0358309050816383
 50
189.9768353576722859
 51
226.7400405675437014
  0
ARC
  5
E4A5
  8
0
 10
5194.8537188211939792
 20
237.7053332572255897
 30
0.0
 40
0.0214284814470156
 50
228.015696439697706
 51
314.731422818177407
  0
ARC
  5
E4A6
  8
0
 10
5194.8454400799982977
 20
237.696133716620011
 30
0.0
 40
0.0090523308687431
 50
136.9486036183454019
 51
228.0156964397010029
  0
ARC
  5
E4A7
  8
0
 10
5194.8537326486157326
 20
237.6883868522953946
 30
0.0
 40
0.0204004849534411
 50
41.4776350941962022
 51
136.948603618342986
  0
ARC
  5
E4A8
  8
0
 10
5194.8624833791709534
 20
237.696122757375008
 30
0.0
 40
0.0087206085566585
 50
316.4119495915354037
 51
41.4776350941925429
  0
ARC
  5
E4A9
  8
0
 10
5194.8542470265074371
 20
237.7108190144836044
 30
0.0
 40
0.0354147243713751
 50
221.3234480995365914
 51
315.9368517118559794
  0
ARC
  5
E4AA
  8
0
 10
5194.8356770529326241
 20
237.6944914240878006
 30
0.0
 40
0.0106875302999107
 50
130.1314249446737108
 51
221.3234480995415083
  0
ARC
  5
E4AB
  8
0
 10
5194.853887532988665
 20
237.6728898413905995
 30
0.0
 40
0.0389408479623065
 50
47.2599499552621793
 51
130.1314249446726024
  0
ARC
  5
E4AC
  8
0
 10
5194.8698387551557971
 20
237.6942520316829075
 30
0.0
 40
0.012733702702565
 50
320.7178446625093216
 51
34.6371104594433206
  0
ARC
  5
E4AD
  8
0
 10
5194.849501757107646
 20
237.8700375758618009
 30
0.0
 40
0.1337969311306891
 50
299.7031215675036151
 51
301.7945535546396059
  0
ARC
  5
E4AE
  8
0
 10
5194.849501757107646
 20
237.8700375758618009
 30
0.0
 40
0.1337969311306891
 50
242.294635215051386
 51
244.7621872905804992
  0
LINE
  5
E4AF
  8
0
 10
5194.7148222799551149
 20
237.4965594045773116
 30
0.0
 11
5194.7076521839153429
 21
237.4323386145617008
 31
0.0
  0
LINE
  5
E4B0
  8
0
 10
5194.5895814535242607
 20
237.4938759763932978
 30
0.0
 11
5194.5965168059101416
 21
237.4317575855590121
 31
0.0
  0
ARC
  5
E4B1
  8
0
 10
5194.6899631461083118
 20
237.4829548724175083
 30
0.0
 40
0.0312838832690747
 50
311.4863327839385079
 51
343.7404592548093092
  0
ARC
  5
E4B2
  8
0
 10
5194.6977047899736135
 20
237.4806969903011975
 30
0.0
 40
0.0232196981651518
 50
343.7404592548093092
 51
34.3595386522777488
  0
ARC
  5
E4B3
  8
0
 10
5194.6811640543328394
 20
237.4693884610958889
 30
0.0
 40
0.043256633268194
 50
34.3595386522763988
 51
79.2251610091330036
  0
ARC
  5
E4B4
  8
0
 10
5194.653625518492845
 20
237.4236259765905004
 30
0.0
 40
0.09517548234298
 50
68.0181804185406946
 51
114.5055840548661052
  0
ARC
  5
E4B5
  8
0
 10
5194.6239089526670796
 20
237.4689337990429863
 30
0.0
 40
0.0424321742137003
 50
103.2986034642477051
 51
154.4186219233106101
  0
ARC
  5
E4B6
  8
0
 10
5194.6093753827981345
 20
237.4775303294173909
 30
0.0
 40
0.0256540009573729
 50
157.7222052420970044
 51
232.2547454014982975
  0
ARC
  5
E4B7
  8
0
 10
5194.6685756928827686
 20
237.4407594746184031
 30
0.0
 40
0.0399735291842252
 50
291.7027480235915959
 51
347.838913905522702
  0
ARC
  5
E4B8
  8
0
 10
5194.6500038693802708
 20
237.4874218915772133
 30
0.0
 40
0.090195972221681
 50
258.5265984660446748
 51
291.7027480235915959
  0
ARC
  5
E4B9
  8
0
 10
5194.6422096867563596
 20
237.4490210198935927
 30
0.0
 40
0.0510120950675091
 50
226.7400405675448951
 51
258.5265984660446748
  0
ARC
  5
E4BA
  8
0
 10
5194.6318058716860833
 20
237.4379652900944961
 30
0.0
 40
0.0358309050816383
 50
189.9768353576722859
 51
226.7400405675437014
  0
ARC
  5
E4BB
  8
0
 10
5194.651912910892861
 20
237.440644298106605
 30
0.0
 40
0.0214284814470156
 50
228.015696439697706
 51
314.731422818177407
  0
ARC
  5
E4BC
  8
0
 10
5194.643634169698089
 20
237.4314447575009126
 30
0.0
 40
0.0090523308687431
 50
136.9486036183454019
 51
228.0156964397010029
  0
ARC
  5
E4BD
  8
0
 10
5194.6519267383164333
 20
237.4236978931762962
 30
0.0
 40
0.0204004849534411
 50
41.4776350941962022
 51
136.948603618342986
  0
ARC
  5
E4BE
  8
0
 10
5194.6606774688698351
 20
237.4314337982559096
 30
0.0
 40
0.0087206085566585
 50
316.4119495915354037
 51
41.4776350941925429
  0
ARC
  5
E4BF
  8
0
 10
5194.6524411162054093
 20
237.446130055364506
 30
0.0
 40
0.0354147243713751
 50
221.3234480995365914
 51
315.9368517118559794
  0
ARC
  5
E4C0
  8
0
 10
5194.6338711426333248
 20
237.4298024649687875
 30
0.0
 40
0.0106875302999107
 50
130.1314249446737108
 51
221.3234480995415083
  0
ARC
  5
E4C1
  8
0
 10
5194.6520816226893658
 20
237.4082008822715011
 30
0.0
 40
0.0389408479623065
 50
47.2599499552621793
 51
130.1314249446726024
  0
ARC
  5
E4C2
  8
0
 10
5194.6680328448555883
 20
237.4295630725638091
 30
0.0
 40
0.012733702702565
 50
320.7178446625093216
 51
34.6371104594433206
  0
ARC
  5
E4C3
  8
0
 10
5194.6476958468074372
 20
237.6053486167427877
 30
0.0
 40
0.1337969311306891
 50
299.7031215675036151
 51
301.7945535546396059
  0
ARC
  5
E4C4
  8
0
 10
5194.6476958468074372
 20
237.6053486167427877
 30
0.0
 40
0.1337969311306891
 50
242.294635215051386
 51
244.7621872905804992
  0
LINE
  5
E4C5
  8
0
 10
5195.3192864013835788
 20
237.3023603610542125
 30
0.0
 11
5195.3121163053438067
 21
237.2381395710386016
 31
0.0
  0
LINE
  5
E4C6
  8
0
 10
5195.1940455749527246
 20
237.2996769328701987
 30
0.0
 11
5195.2009809273404244
 21
237.237558542035913
 31
0.0
  0
ARC
  5
E4C7
  8
0
 10
5195.2944272675376851
 20
237.2887558288944945
 30
0.0
 40
0.0312838832690747
 50
311.4863327839385079
 51
343.7404592548093092
  0
ARC
  5
E4C8
  8
0
 10
5195.3021689114029869
 20
237.2864979467780984
 30
0.0
 40
0.0232196981651518
 50
343.7404592548093092
 51
34.3595386522777488
  0
ARC
  5
E4C9
  8
0
 10
5195.2856281757631223
 20
237.2751894175729035
 30
0.0
 40
0.043256633268194
 50
34.3595386522763988
 51
79.2251610091330036
  0
ARC
  5
E4CA
  8
0
 10
5195.2580896399222183
 20
237.2294269330674013
 30
0.0
 40
0.09517548234298
 50
68.0181804185406946
 51
114.5055840548661052
  0
ARC
  5
E4CB
  8
0
 10
5195.2283730740982719
 20
237.2747347555200008
 30
0.0
 40
0.0424321742137003
 50
103.2986034642477051
 51
154.4186219233106101
  0
ARC
  5
E4CC
  8
0
 10
5195.2138395042265984
 20
237.2833312858942918
 30
0.0
 40
0.0256540009573729
 50
157.7222052420970044
 51
232.2547454014982975
  0
ARC
  5
E4CD
  8
0
 10
5195.273039814312142
 20
237.2465604310951903
 30
0.0
 40
0.0399735291842252
 50
291.7027480235915959
 51
347.838913905522702
  0
ARC
  5
E4CE
  8
0
 10
5195.2544679908096441
 20
237.2932228480541994
 30
0.0
 40
0.090195972221681
 50
258.5265984660446748
 51
291.7027480235915959
  0
ARC
  5
E4CF
  8
0
 10
5195.2466738081857329
 20
237.2548219763704935
 30
0.0
 40
0.0510120950675091
 50
226.7400405675448951
 51
258.5265984660446748
  0
ARC
  5
E4D0
  8
0
 10
5195.2362699931172756
 20
237.243766246571397
 30
0.0
 40
0.0358309050816383
 50
189.9768353576722859
 51
226.7400405675437014
  0
ARC
  5
E4D1
  8
0
 10
5195.2563770323231438
 20
237.2464452545835059
 30
0.0
 40
0.0214284814470156
 50
228.015696439697706
 51
314.731422818177407
  0
ARC
  5
E4D2
  8
0
 10
5195.2480982911265528
 20
237.2372457139778987
 30
0.0
 40
0.0090523308687431
 50
136.9486036183454019
 51
228.0156964397010029
  0
ARC
  5
E4D3
  8
0
 10
5195.2563908597448972
 20
237.2294988496533108
 30
0.0
 40
0.0204004849534411
 50
41.4776350941962022
 51
136.948603618342986
  0
ARC
  5
E4D4
  8
0
 10
5195.2651415902992085
 20
237.2372347547328957
 30
0.0
 40
0.0087206085566585
 50
316.4119495915354037
 51
41.4776350941925429
  0
ARC
  5
E4D5
  8
0
 10
5195.2569052376338732
 20
237.2519310118414069
 30
0.0
 40
0.0354147243713751
 50
221.3234480995365914
 51
315.9368517118559794
  0
ARC
  5
E4D6
  8
0
 10
5195.2383352640608791
 20
237.2356034214456884
 30
0.0
 40
0.0106875302999107
 50
130.1314249446737108
 51
221.3234480995415083
  0
ARC
  5
E4D7
  8
0
 10
5195.2565457441178296
 20
237.2140018387484872
 30
0.0
 40
0.0389408479623065
 50
47.2599499552621793
 51
130.1314249446726024
  0
ARC
  5
E4D8
  8
0
 10
5195.2724969662858712
 20
237.2353640290407952
 30
0.0
 40
0.012733702702565
 50
320.7178446625093216
 51
34.6371104594433206
  0
ARC
  5
E4D9
  8
0
 10
5195.2521599682368105
 20
237.4111495732196886
 30
0.0
 40
0.1337969311306891
 50
299.7031215675036151
 51
301.7945535546396059
  0
ARC
  5
E4DA
  8
0
 10
5195.2521599682368105
 20
237.4111495732196886
 30
0.0
 40
0.1337969311306891
 50
242.294635215051386
 51
244.7621872905804992
  0
LINE
  5
E4DB
  8
0
 10
5194.917003350570667
 20
237.2666988637328984
 30
0.0
 11
5194.9098332545308949
 21
237.2024780737172875
 31
0.0
  0
LINE
  5
E4DC
  8
0
 10
5194.7917625241389032
 20
237.264015435548913
 30
0.0
 11
5194.7986978765247841
 21
237.2018970447145989
 31
0.0
  0
ARC
  5
E4DD
  8
0
 10
5194.8921442167238638
 20
237.2530943315730951
 30
0.0
 40
0.0312838832690747
 50
311.4863327839385079
 51
343.7404592548093092
  0
ARC
  5
E4DE
  8
0
 10
5194.8998858605891655
 20
237.250836449456699
 30
0.0
 40
0.0232196981651518
 50
343.7404592548093092
 51
34.3595386522777488
  0
ARC
  5
E4DF
  8
0
 10
5194.8833451249483915
 20
237.2395279202515042
 30
0.0
 40
0.043256633268194
 50
34.3595386522763988
 51
79.2251610091330036
  0
ARC
  5
E4E0
  8
0
 10
5194.855806589108397
 20
237.1937654357460872
 30
0.0
 40
0.09517548234298
 50
68.0181804185406946
 51
114.5055840548661052
  0
ARC
  5
E4E1
  8
0
 10
5194.8260900232826316
 20
237.2390732581986015
 30
0.0
 40
0.0424321742137003
 50
103.2986034642477051
 51
154.4186219233106101
  0
ARC
  5
E4E2
  8
0
 10
5194.811556453412777
 20
237.2476697885730061
 30
0.0
 40
0.0256540009573729
 50
157.7222052420970044
 51
232.2547454014982975
  0
ARC
  5
E4E3
  8
0
 10
5194.8707567634983207
 20
237.2108989337739047
 30
0.0
 40
0.0399735291842252
 50
291.7027480235915959
 51
347.838913905522702
  0
ARC
  5
E4E4
  8
0
 10
5194.8521849399958228
 20
237.2575613507328001
 30
0.0
 40
0.090195972221681
 50
258.5265984660446748
 51
291.7027480235915959
  0
ARC
  5
E4E5
  8
0
 10
5194.8443907573719116
 20
237.2191604790490942
 30
0.0
 40
0.0510120950675091
 50
226.7400405675448951
 51
258.5265984660446748
  0
ARC
  5
E4E6
  8
0
 10
5194.8339869423034543
 20
237.2081047492501114
 30
0.0
 40
0.0358309050816383
 50
189.9768353576722859
 51
226.7400405675437014
  0
ARC
  5
E4E7
  8
0
 10
5194.8540939815093225
 20
237.2107837572621918
 30
0.0
 40
0.0214284814470156
 50
228.015696439697706
 51
314.731422818177407
  0
ARC
  5
E4E8
  8
0
 10
5194.8458152403127315
 20
237.2015842166566131
 30
0.0
 40
0.0090523308687431
 50
136.9486036183454019
 51
228.0156964397010029
  0
ARC
  5
E4E9
  8
0
 10
5194.8541078089310759
 20
237.1938373523319115
 30
0.0
 40
0.0204004849534411
 50
41.4776350941962022
 51
136.948603618342986
  0
ARC
  5
E4EA
  8
0
 10
5194.8628585394862966
 20
237.2015732574114963
 30
0.0
 40
0.0087206085566585
 50
316.4119495915354037
 51
41.4776350941925429
  0
ARC
  5
E4EB
  8
0
 10
5194.8546221868209614
 20
237.2162695145200075
 30
0.0
 40
0.0354147243713751
 50
221.3234480995365914
 51
315.9368517118559794
  0
ARC
  5
E4EC
  8
0
 10
5194.8360522132479673
 20
237.1999419241244027
 30
0.0
 40
0.0106875302999107
 50
130.1314249446737108
 51
221.3234480995415083
  0
ARC
  5
E4ED
  8
0
 10
5194.8542626933040083
 20
237.1783403414270879
 30
0.0
 40
0.0389408479623065
 50
47.2599499552621793
 51
130.1314249446726024
  0
ARC
  5
E4EE
  8
0
 10
5194.8702139154711404
 20
237.1997025317193959
 30
0.0
 40
0.012733702702565
 50
320.7178446625093216
 51
34.6371104594433206
  0
ARC
  5
E4EF
  8
0
 10
5194.8498769174229892
 20
237.3754880758984029
 30
0.0
 40
0.1337969311306891
 50
299.7031215675036151
 51
301.7945535546396059
  0
ARC
  5
E4F0
  8
0
 10
5194.8498769174229892
 20
237.3754880758984029
 30
0.0
 40
0.1337969311306891
 50
242.294635215051386
 51
244.7621872905804992
  0
LINE
  5
E4F1
  8
0
 10
5194.7149559577701439
 20
237.0189591117147927
 30
0.0
 11
5194.7077858617267339
 21
236.9547383216992102
 31
0.0
  0
LINE
  5
E4F2
  8
0
 10
5194.5897151313356517
 20
237.0162756835308073
 30
0.0
 11
5194.596650483724261
 21
236.9541572926964932
 31
0.0
  0
ARC
  5
E4F3
  8
0
 10
5194.6900968239224312
 20
237.0053545795549894
 30
0.0
 40
0.0312838832690747
 50
311.4863327839385079
 51
343.7404592548093092
  0
ARC
  5
E4F4
  8
0
 10
5194.697838467787733
 20
237.0030966974385933
 30
0.0
 40
0.0232196981651518
 50
343.7404592548093092
 51
34.3595386522777488
  0
ARC
  5
E4F5
  8
0
 10
5194.6812977321469589
 20
236.9917881682333984
 30
0.0
 40
0.043256633268194
 50
34.3595386522763988
 51
79.2251610091330036
  0
ARC
  5
E4F6
  8
0
 10
5194.6537591963069644
 20
236.9460256837280099
 30
0.0
 40
0.09517548234298
 50
68.0181804185406946
 51
114.5055840548661052
  0
ARC
  5
E4F7
  8
0
 10
5194.624042630481199
 20
236.9913335061804958
 30
0.0
 40
0.0424321742137003
 50
103.2986034642477051
 51
154.4186219233106101
  0
ARC
  5
E4F8
  8
0
 10
5194.609509060612254
 20
236.9999300365549004
 30
0.0
 40
0.0256540009573729
 50
157.7222052420970044
 51
232.2547454014982975
  0
ARC
  5
E4F9
  8
0
 10
5194.6687093706959786
 20
236.963159181755799
 30
0.0
 40
0.0399735291842252
 50
291.7027480235915959
 51
347.838913905522702
  0
ARC
  5
E4FA
  8
0
 10
5194.6501375471943902
 20
237.0098215987146943
 30
0.0
 40
0.090195972221681
 50
258.5265984660446748
 51
291.7027480235915959
  0
ARC
  5
E4FB
  8
0
 10
5194.6423433645695695
 20
236.9714207270309885
 30
0.0
 40
0.0510120950675091
 50
226.7400405675448951
 51
258.5265984660446748
  0
ARC
  5
E4FC
  8
0
 10
5194.6319395495002027
 20
236.9603649972320056
 30
0.0
 40
0.0358309050816383
 50
189.9768353576722859
 51
226.7400405675437014
  0
ARC
  5
E4FD
  8
0
 10
5194.6520465887069804
 20
236.9630440052440861
 30
0.0
 40
0.0214284814470156
 50
228.015696439697706
 51
314.731422818177407
  0
ARC
  5
E4FE
  8
0
 10
5194.6437678475122084
 20
236.9538444646383937
 30
0.0
 40
0.0090523308687431
 50
136.9486036183454019
 51
228.0156964397010029
  0
ARC
  5
E4FF
  8
0
 10
5194.6520604161278243
 20
236.9460976003138057
 30
0.0
 40
0.0204004849534411
 50
41.4776350941962022
 51
136.948603618342986
  0
ARC
  5
E500
  8
0
 10
5194.6608111466839546
 20
236.9538335053933906
 30
0.0
 40
0.0087206085566585
 50
316.4119495915354037
 51
41.4776350941925429
  0
ARC
  5
E501
  8
0
 10
5194.6525747940186193
 20
236.9685297625019871
 30
0.0
 40
0.0354147243713751
 50
221.3234480995365914
 51
315.9368517118559794
  0
ARC
  5
E502
  8
0
 10
5194.6340048204456252
 20
236.952202172106297
 30
0.0
 40
0.0106875302999107
 50
130.1314249446737108
 51
221.3234480995415083
  0
ARC
  5
E503
  8
0
 10
5194.6522153005025757
 20
236.9306005894090106
 30
0.0
 40
0.0389408479623065
 50
47.2599499552621793
 51
130.1314249446726024
  0
ARC
  5
E504
  8
0
 10
5194.6681665226697078
 20
236.9519627797012902
 30
0.0
 40
0.012733702702565
 50
320.7178446625093216
 51
34.6371104594433206
  0
ARC
  5
E505
  8
0
 10
5194.6478295246215566
 20
237.1277483238802972
 30
0.0
 40
0.1337969311306891
 50
299.7031215675036151
 51
301.7945535546396059
  0
ARC
  5
E506
  8
0
 10
5194.6478295246215566
 20
237.1277483238802972
 30
0.0
 40
0.1337969311306891
 50
242.294635215051386
 51
244.7621872905804992
  0
LINE
  5
E507
  8
0
 10
5194.9134904578004353
 20
236.8055547813455064
 30
0.0
 11
5194.9063203617579347
 21
236.7413339913298955
 31
0.0
  0
LINE
  5
E508
  8
0
 10
5194.7882496313668526
 20
236.8028713531614073
 30
0.0
 11
5194.7951849837536429
 21
236.7407529623270932
 31
0.0
  0
ARC
  5
E509
  8
0
 10
5194.8886313239518131
 20
236.7919502491857884
 30
0.0
 40
0.0312838832690747
 50
311.4863327839385079
 51
343.7404592548093092
  0
ARC
  5
E50A
  8
0
 10
5194.8963729678180243
 20
236.789692367069307
 30
0.0
 40
0.0232196981651518
 50
343.7404592548093092
 51
34.3595386522777488
  0
ARC
  5
E50B
  8
0
 10
5194.8798322321772503
 20
236.7783838378641121
 30
0.0
 40
0.043256633268194
 50
34.3595386522763988
 51
79.2251610091330036
  0
ARC
  5
E50C
  8
0
 10
5194.8522936963372558
 20
236.7326213533586952
 30
0.0
 40
0.09517548234298
 50
68.0181804185406946
 51
114.5055840548661052
  0
ARC
  5
E50D
  8
0
 10
5194.8225771305123999
 20
236.7779291758112095
 30
0.0
 40
0.0424321742137003
 50
103.2986034642477051
 51
154.4186219233106101
  0
ARC
  5
E50E
  8
0
 10
5194.8080435606425453
 20
236.7865257061855004
 30
0.0
 40
0.0256540009573729
 50
157.7222052420970044
 51
232.2547454014982975
  0
ARC
  5
E50F
  8
0
 10
5194.86724387072627
 20
236.7497548513865127
 30
0.0
 40
0.0399735291842252
 50
291.7027480235915959
 51
347.838913905522702
  0
ARC
  5
E510
  8
0
 10
5194.8486720472237721
 20
236.7964172683452944
 30
0.0
 40
0.090195972221681
 50
258.5265984660446748
 51
291.7027480235915959
  0
ARC
  5
E511
  8
0
 10
5194.8408778646007704
 20
236.7580163966617022
 30
0.0
 40
0.0510120950675091
 50
226.7400405675448951
 51
258.5265984660446748
  0
ARC
  5
E512
  8
0
 10
5194.8304740495314036
 20
236.7469606668626909
 30
0.0
 40
0.0358309050816383
 50
189.9768353576722859
 51
226.7400405675437014
  0
ARC
  5
E513
  8
0
 10
5194.8505810887381813
 20
236.7496396748747998
 30
0.0
 40
0.0214284814470156
 50
228.015696439697706
 51
314.731422818177407
  0
ARC
  5
E514
  8
0
 10
5194.8423023475415903
 20
236.7404401342691074
 30
0.0
 40
0.0090523308687431
 50
136.9486036183454019
 51
228.0156964397010029
  0
ARC
  5
E515
  8
0
 10
5194.8505949161590252
 20
236.732693269944491
 30
0.0
 40
0.0204004849534411
 50
41.4776350941962022
 51
136.948603618342986
  0
ARC
  5
E516
  8
0
 10
5194.859345646714246
 20
236.7404291750241043
 30
0.0
 40
0.0087206085566585
 50
316.4119495915354037
 51
41.4776350941925429
  0
ARC
  5
E517
  8
0
 10
5194.8511092940498202
 20
236.7551254321325871
 30
0.0
 40
0.0354147243713751
 50
221.3234480995365914
 51
315.9368517118559794
  0
ARC
  5
E518
  8
0
 10
5194.8325393204768261
 20
236.738797841736897
 30
0.0
 40
0.0106875302999107
 50
130.1314249446737108
 51
221.3234480995415083
  0
ARC
  5
E519
  8
0
 10
5194.8507498005337766
 20
236.7171962590396959
 30
0.0
 40
0.0389408479623065
 50
47.2599499552621793
 51
130.1314249446726024
  0
ARC
  5
E51A
  8
0
 10
5194.8667010227009087
 20
236.7385584493320039
 30
0.0
 40
0.012733702702565
 50
320.7178446625093216
 51
34.6371104594433206
  0
ARC
  5
E51B
  8
0
 10
5194.846364024651848
 20
236.9143439935108972
 30
0.0
 40
0.1337969311306891
 50
299.7031215675036151
 51
301.7945535546396059
  0
ARC
  5
E51C
  8
0
 10
5194.846364024651848
 20
236.9143439935108972
 30
0.0
 40
0.1337969311306891
 50
242.294635215051386
 51
244.7621872905804992
  0
LINE
  5
E51D
  8
0
 10
5194.3129130033967158
 20
236.5602498289898961
 30
0.0
 11
5194.3057429073560343
 21
236.4960290389741999
 31
0.0
  0
LINE
  5
E51E
  8
0
 10
5194.1876721769640426
 20
236.557566400805797
 30
0.0
 11
5194.1946075293508329
 21
236.4954480099715113
 31
0.0
  0
ARC
  5
E51F
  8
0
 10
5194.2880538695490031
 20
236.5466452968300928
 30
0.0
 40
0.0312838832690747
 50
311.4863327839385079
 51
343.7404592548093092
  0
ARC
  5
E520
  8
0
 10
5194.2957955134152144
 20
236.5443874147136967
 30
0.0
 40
0.0232196981651518
 50
343.7404592548093092
 51
34.3595386522777488
  0
ARC
  5
E521
  8
0
 10
5194.2792547777744403
 20
236.5330788855085018
 30
0.0
 40
0.043256633268194
 50
34.3595386522763988
 51
79.2251610091330036
  0
ARC
  5
E522
  8
0
 10
5194.2517162419344459
 20
236.4873164010029996
 30
0.0
 40
0.09517548234298
 50
68.0181804185406946
 51
114.5055840548661052
  0
ARC
  5
E523
  8
0
 10
5194.2219996761086804
 20
236.5326242234555991
 30
0.0
 40
0.0424321742137003
 50
103.2986034642477051
 51
154.4186219233106101
  0
ARC
  5
E524
  8
0
 10
5194.2074661062397354
 20
236.5412207538298901
 30
0.0
 40
0.0256540009573729
 50
157.7222052420970044
 51
232.2547454014982975
  0
ARC
  5
E525
  8
0
 10
5194.2666664163225505
 20
236.5044498990309023
 30
0.0
 40
0.0399735291842252
 50
291.7027480235915959
 51
347.838913905522702
  0
ARC
  5
E526
  8
0
 10
5194.2480945928209621
 20
236.5511123159897124
 30
0.0
 40
0.090195972221681
 50
258.5265984660446748
 51
291.7027480235915959
  0
ARC
  5
E527
  8
0
 10
5194.2403004101979604
 20
236.5127114443060918
 30
0.0
 40
0.0510120950675091
 50
226.7400405675448951
 51
258.5265984660446748
  0
ARC
  5
E528
  8
0
 10
5194.2298965951276841
 20
236.501655714507109
 30
0.0
 40
0.0358309050816383
 50
189.9768353576722859
 51
226.7400405675437014
  0
ARC
  5
E529
  8
0
 10
5194.2500036343353713
 20
236.5043347225191042
 30
0.0
 40
0.0214284814470156
 50
228.015696439697706
 51
314.731422818177407
  0
ARC
  5
E52A
  8
0
 10
5194.2417248931396898
 20
236.495135181913497
 30
0.0
 40
0.0090523308687431
 50
136.9486036183454019
 51
228.0156964397010029
  0
ARC
  5
E52B
  8
0
 10
5194.2500174617562152
 20
236.4873883175889091
 30
0.0
 40
0.0204004849534411
 50
41.4776350941962022
 51
136.948603618342986
  0
ARC
  5
E52C
  8
0
 10
5194.2587681923123455
 20
236.4951242226684087
 30
0.0
 40
0.0087206085566585
 50
316.4119495915354037
 51
41.4776350941925429
  0
ARC
  5
E52D
  8
0
 10
5194.2505318396470102
 20
236.5098204797770052
 30
0.0
 40
0.0354147243713751
 50
221.3234480995365914
 51
315.9368517118559794
  0
ARC
  5
E52E
  8
0
 10
5194.2319618660731066
 20
236.4934928893812867
 30
0.0
 40
0.0106875302999107
 50
130.1314249446737108
 51
221.3234480995415083
  0
ARC
  5
E52F
  8
0
 10
5194.2501723461309666
 20
236.4718913066841139
 30
0.0
 40
0.0389408479623065
 50
47.2599499552621793
 51
130.1314249446726024
  0
ARC
  5
E530
  8
0
 10
5194.2661235682980987
 20
236.4932534969763935
 30
0.0
 40
0.012733702702565
 50
320.7178446625093216
 51
34.6371104594433206
  0
ARC
  5
E531
  8
0
 10
5194.245786570249038
 20
236.6690390411552869
 30
0.0
 40
0.1337969311306891
 50
299.7031215675036151
 51
301.7945535546396059
  0
ARC
  5
E532
  8
0
 10
5194.245786570249038
 20
236.6690390411552869
 30
0.0
 40
0.1337969311306891
 50
242.294635215051386
 51
244.7621872905804992
  0
ARC
  5
E533
  8
0
 10
5193.844419002108225
 20
236.3522364757128003
 30
0.0
 40
2.3889737270205198
 50
87.480585226299354
 51
90.0000434158802705
  0
ARC
  5
E534
  8
0
 10
5193.786498291829048
 20
235.8529789050733996
 30
0.0
 40
2.890517955546299
 50
80.4710518649824138
 51
86.7685931793400442
  0
ARC
  5
E535
  8
0
 10
5193.8920920782538815
 20
236.6171163917881017
 30
0.0
 40
2.119561330266921
 50
66.9586705337307535
 51
79.8665258341482627
  0
ARC
  5
E536
  8
0
 10
5194.0606528019916368
 20
237.0064000873921941
 30
0.0
 40
1.695362013350332
 50
51.9572714933972222
 51
67.0515988755014405
  0
ARC
  5
E537
  8
0
 10
5194.3541890516326021
 20
237.3734141702800002
 30
0.0
 40
1.225438359287504
 50
33.1126138497106268
 51
52.191181425547633
  0
ARC
  5
E538
  8
0
 10
5194.623980963183385
 20
237.5414432405937077
 30
0.0
 40
0.9076933823885049
 50
3.6995840172382288
 51
33.5319240607454532
  0
ARC
  5
E539
  8
0
 10
5194.6172467565402258
 20
237.559402213526198
 30
0.0
 40
0.9134392080826479
 50
323.3324383615047282
 51
2.548115690417363
  0
ARC
  5
E53A
  8
0
 10
5194.2221293064112615
 20
237.8514013023655878
 30
0.0
 40
1.4047428892528671
 50
297.7388857383199934
 51
323.4032539518436238
  0
ARC
  5
E53B
  8
0
 10
5193.9097443174186992
 20
238.4100288518258139
 30
0.0
 40
2.0446355504613218
 50
281.8151018971653912
 51
298.2005856115545157
  0
ARC
  5
E53C
  8
0
 10
5193.8397566613821255
 20
238.7757320471457092
 30
0.0
 40
2.4169294202533642
 50
274.4759390692905185
 51
281.6639912023373995
  0
ARC
  5
E53D
  8
0
 10
5193.8642946840236618
 20
238.2269493488159924
 30
0.0
 40
1.8679957141900621
 50
269.3902995098421798
 51
275.0392165539025768
  0
ARC
  5
E53E
  8
0
 10
5193.8363557560123809
 20
238.9252350638867881
 30
0.0
 40
2.5570297567635372
 50
270.1806341968043057
 51
275.5429285180514967
  0
ARC
  5
E53F
  8
0
 10
5193.8424868081128807
 20
238.6843573322113912
 30
0.0
 40
2.3167497205500012
 50
275.9674260402825894
 51
287.7906123829565104
  0
ARC
  5
E540
  8
0
 10
5194.0015604990949214
 20
238.1784984995942125
 30
0.0
 40
1.7864807406654719
 50
287.889812367248112
 51
305.6380353000312766
  0
ARC
  5
E541
  8
0
 10
5194.3303241611602061
 20
237.7299753674066949
 30
0.0
 40
1.2304152752361111
 50
305.3654720382148753
 51
332.5717636936612962
  0
ARC
  5
E542
  8
0
 10
5194.5802271873117206
 20
237.5703985517891113
 30
0.0
 40
0.935473298016911
 50
334.1965146647959273
 51
0.8117643048615896
  0
ARC
  5
E543
  8
0
 10
5194.4985564840344523
 20
237.5692413671137899
 30
0.0
 40
1.0171521989055621
 50
0.8117643048615896
 51
10.5886284488557596
  0
ARC
  5
E544
  8
0
 10
5194.7102435463229995
 20
237.6088140404278874
 30
0.0
 40
0.8017980514790993
 50
10.5886284488557596
 51
22.3820155516050114
  0
ARC
  5
E545
  8
0
 10
5193.8411576281378075
 20
238.8965980798382986
 30
0.0
 40
0.6827538076378071
 50
83.408771544607319
 51
89.7264607653457773
  0
ARC
  5
E546
  8
0
 10
5193.8478411181349657
 20
238.9771103489271979
 30
0.0
 40
0.6020121560297299
 50
66.8803569935108158
 51
83.1611007682697476
  0
ARC
  5
E547
  8
0
 10
5193.9271102616912685
 20
239.1627778457539932
 30
0.0
 40
0.4001309620116615
 50
47.7940559555554998
 51
66.8803569935108158
  0
ARC
  5
E548
  8
0
 10
5193.9229943226700925
 20
239.1582395436915078
 30
0.0
 40
0.4062577180567873
 50
38.4061988433064627
 51
47.7940559555554998
  0
LINE
  5
E549
  8
0
 10
5194.2504177981127214
 20
239.4091450424594996
 30
0.0
 11
5194.2504177981127214
 21
240.6591547085822924
 31
0.0
  0
ARC
  5
E54A
  8
0
 10
5193.844417191863613
 20
240.6591547085822924
 30
0.0
 40
0.4060006062504523
 50
0.0
 51
180.0
  0
ARC
  5
E54B
  8
0
 10
5193.844417191863613
 20
240.6591547085822924
 30
0.0
 40
0.468500827587224
 50
330.0653676981933131
 51
209.9346323018068006
  0
ARC
  5
E54C
  8
0
 10
5193.844417191863613
 20
240.6591547085822924
 30
0.0
 40
0.5918394363697053
 50
313.3141363843694194
 51
226.6858636156304954
  0
LINE
  5
E54D
  8
0
 10
5192.8724454434413929
 20
236.8207645376226083
 30
0.0
 11
5192.9869155914157091
 21
236.9409101963537978
 31
0.0
  0
LINE
  5
E54E
  8
0
 10
5193.073955093836048
 20
237.032897573981586
 30
0.0
 11
5193.3940675233889124
 21
237.3968757405029919
 31
0.0
  0
LINE
  5
E54F
  8
0
 10
5193.4752212968560343
 20
237.4944492058747016
 30
0.0
 11
5193.5971554876132359
 21
237.64378743689781
 31
0.0
  0
LINE
  5
E550
  8
0
 10
5193.6770775463946848
 20
237.7423594350991891
 30
0.0
 11
5194.0034262337458131
 21
238.1707108942071898
 31
0.0
  0
LINE
  5
E551
  8
0
 10
5194.0782087603156469
 20
238.2735077898269083
 30
0.0
 11
5194.2052060403711948
 21
238.4499762731645092
 31
0.0
  0
LINE
  5
E552
  8
0
 10
5193.0732893359363516
 20
237.5108512607133946
 30
0.0
 11
5193.3965824604583759
 21
237.9081823822363901
 31
0.0
  0
LINE
  5
E553
  8
0
 10
5193.4740265452392123
 20
238.00827591787899
 30
0.0
 11
5193.5975034893035627
 21
238.1703511539641909
 31
0.0
  0
LINE
  5
E554
  8
0
 10
5193.6731858768944221
 20
238.2717388899851869
 30
0.0
 11
5194.0094631926922375
 21
238.7348846468212002
 31
0.0
  0
LINE
  5
E555
  8
0
 10
5192.484099287798017
 20
236.8643384535145913
 30
0.0
 11
5192.7858794529656734
 21
237.1872100954672078
 31
0.0
  0
LINE
  5
E556
  8
0
 10
5192.8707691536428683
 20
237.2811379843994075
 30
0.0
 11
5192.9889956002862164
 21
237.4158495929615924
 31
0.0
  0
LINE
  5
E557
  8
0
 10
5192.2891967803543594
 20
237.121296049671713
 30
0.0
 11
5192.3833752763812299
 21
237.2231751264230866
 31
0.0
  0
LINE
  5
E558
  8
0
 10
5192.4686313706697547
 20
237.3167365885701088
 30
0.0
 11
5192.7882721383812168
 21
237.6792375223824081
 31
0.0
  0
LINE
  5
E559
  8
0
 10
5192.8687976895898828
 20
237.7766641586707976
 30
0.0
 11
5192.9903095945883251
 21
237.9257924086078901
 31
0.0
  0
LINE
  5
E55A
  8
0
 10
5193.0701049224353483
 20
238.0239015603773964
 30
0.0
 11
5193.3942003612473854
 21
238.4494666168826029
 31
0.0
  0
LINE
  5
E55B
  8
0
 10
5193.4711796399860759
 20
238.5499787201746926
 30
0.0
 11
5193.6067881341859902
 21
238.7283476563864895
 31
0.0
  0
LINE
  5
E55C
  8
0
 10
5192.8593412921281924
 20
238.3086055404436081
 30
0.0
 11
5193.0116151032525522
 21
238.585901679496402
 31
0.0
  0
LINE
  5
E55D
  8
0
 10
5192.4647918443915842
 20
237.8090086730327926
 30
0.0
 11
5192.789866477734904
 21
238.2092553314668919
 31
0.0
  0
LINE
  5
E55E
  8
0
 10
5192.1732541144692732
 20
237.5554017722216997
 30
0.0
 11
5192.3779088977025822
 21
237.7242841955261952
 31
0.0
  0
LINE
  5
E55F
  8
0
 10
5192.2720047439388509
 20
237.9833688592655108
 30
0.0
 11
5192.4017465488850576
 21
237.8108452671440034
 31
0.0
  0
LINE
  5
E560
  8
0
 10
5192.4780371957449461
 20
237.7093981164209993
 30
0.0
 11
5192.7989703145576641
 21
237.2826387190833088
 31
0.0
  0
LINE
  5
E561
  8
0
 10
5192.8800493975722929
 20
237.1826348618282907
 30
0.0
 11
5193.005261151826744
 21
237.0364109464692888
 31
0.0
  0
LINE
  5
E562
  8
0
 10
5193.0870075283755796
 20
236.9409464645873982
 30
0.0
 11
5193.4001208189647514
 21
236.5752886908911137
 31
0.0
  0
LINE
  5
E563
  8
0
 10
5193.4889083867710724
 20
236.4820185812091893
 30
0.0
 11
5193.5849446805177649
 21
236.3824021210695889
 31
0.0
  0
LINE
  5
E564
  8
0
 10
5192.4675847985736254
 20
238.2393848416226945
 30
0.0
 11
5192.8055123115691458
 21
237.7793121029837948
 31
0.0
  0
LINE
  5
E565
  8
0
 10
5192.8804832729383634
 20
237.6772425934319983
 30
0.0
 11
5193.0014148771833788
 21
237.5125997862811005
 31
0.0
  0
LINE
  5
E566
  8
0
 10
5193.0816587505651114
 20
237.4119421252374025
 30
0.0
 11
5193.403398498309798
 21
237.0176362199946993
 31
0.0
  0
LINE
  5
E567
  8
0
 10
5193.4881027585252014
 20
236.9204826373236017
 30
0.0
 11
5193.605150603315451
 21
236.787407799801997
 31
0.0
  0
LINE
  5
E568
  8
0
 10
5193.6912473654110727
 20
236.6920274706654936
 30
0.0
 11
5193.989341221585164
 21
236.3727859215341027
 31
0.0
  0
LINE
  5
E569
  8
0
 10
5193.0153251362753508
 20
236.5232044724349976
 30
0.0
 11
5193.3925490251558585
 21
236.9218949388998112
 31
0.0
  0
LINE
  5
E56A
  8
0
 10
5193.4772338410321026
 20
237.0165282369578961
 30
0.0
 11
5193.5956375315199693
 21
237.1512377533136942
 31
0.0
  0
LINE
  5
E56B
  8
0
 10
5192.8802712896886078
 20
238.2018874561971131
 30
0.0
 11
5193.005475582192048
 21
238.0259864259747928
 31
0.0
  0
LINE
  5
E56C
  8
0
 10
5193.08038745513295
 20
237.9229010556302057
 30
0.0
 11
5193.4046316241201566
 21
237.4954791616416117
 31
0.0
  0
LINE
  5
E56D
  8
0
 10
5193.4861149990092599
 20
237.395915218279697
 30
0.0
 11
5193.6066346429306577
 21
237.2483093543426094
 31
0.0
  0
LINE
  5
E56E
  8
0
 10
5193.6890191051652437
 20
237.1492427319512046
 30
0.0
 11
5194.0088826527407946
 21
236.7858418638512887
 31
0.0
  0
LINE
  5
E56F
  8
0
 10
5194.0960445697355681
 20
236.693673598472202
 30
0.0
 11
5194.211881453578826
 21
236.5738323656285047
 31
0.0
  0
LINE
  5
E570
  8
0
 10
5193.4769519191549989
 20
236.5738326138537957
 30
0.0
 11
5193.5927892960517056
 21
236.6936743546903017
 31
0.0
  0
LINE
  5
E571
  8
0
 10
5193.6801048546603852
 20
236.7857724221213118
 30
0.0
 11
5194.0000152706079461
 21
237.1490354124381099
 31
0.0
  0
LINE
  5
E572
  8
0
 10
5194.0821988434472587
 20
237.2483097054185066
 30
0.0
 11
5194.2027187408639293
 21
237.3959158788416914
 31
0.0
  0
LINE
  5
E573
  8
0
 10
5194.2835691309928734
 20
237.4957189689932875
 30
0.0
 11
5194.6085793674074012
 21
237.9227826407125121
 31
0.0
  0
LINE
  5
E574
  8
0
 10
5194.6833577925699501
 20
238.025986754019101
 30
0.0
 11
5194.8085623069337089
 21
238.201888093181509
 31
0.0
  0
LINE
  5
E575
  8
0
 10
5193.4836276483883921
 20
238.4499755932417031
 30
0.0
 11
5193.6106246579101935
 21
238.2735074839978893
 31
0.0
  0
LINE
  5
E576
  8
0
 10
5193.6853681615302776
 20
238.1706739688287087
 30
0.0
 11
5194.0117241347879826
 21
237.74234602480729
 31
0.0
  0
LINE
  5
E577
  8
0
 10
5194.091678279511143
 20
237.6437867926842102
 30
0.0
 11
5194.2136122353167593
 21
237.4944488513015983
 31
0.0
  0
LINE
  5
E578
  8
0
 10
5194.2946149522213091
 20
237.3967090725803928
 30
0.0
 11
5194.6150653579870777
 21
237.0329806106458932
 31
0.0
  0
LINE
  5
E579
  8
0
 10
5194.7019183015072485
 20
236.940909463786312
 30
0.0
 11
5194.8163880825650267
 21
236.8207641882283099
 31
0.0
  0
LINE
  5
E57A
  8
0
 10
5193.6985546161158709
 20
236.3728423480949914
 30
0.0
 11
5193.997631171597277
 21
236.6919684768882064
 31
0.0
  0
LINE
  5
E57B
  8
0
 10
5194.0836829137424502
 20
236.787408148989698
 30
0.0
 11
5194.2007310481612876
 21
236.920483315158009
 31
0.0
  0
LINE
  5
E57C
  8
0
 10
5194.2854286273950493
 20
237.017639147114096
 30
0.0
 11
5194.6069726967725728
 21
237.4121357104887124
 31
0.0
  0
LINE
  5
E57D
  8
0
 10
5194.6854801463996409
 20
237.5133124032118133
 30
0.0
 11
5194.8096592833107934
 21
237.6760021873907078
 31
0.0
  0
LINE
  5
E57E
  8
0
 10
5194.8865166470823169
 20
237.7782709340816893
 30
0.0
 11
5195.2205498030143644
 21
238.2400849387261985
 31
0.0
  0
LINE
  5
E57F
  8
0
 10
5194.8990856989148597
 20
238.2094127797086003
 30
0.0
 11
5195.2240600547902432
 21
237.8090154013146957
 31
0.0
  0
LINE
  5
E580
  8
0
 10
5195.3109142939547382
 20
237.7242517402802946
 30
0.0
 11
5195.5155735109074158
 21
237.5549860166736948
 31
0.0
  0
LINE
  5
E581
  8
0
 10
5194.8888713406522584
 20
237.2830128146686945
 30
0.0
 11
5195.2125914583411941
 21
237.7076869155802115
 31
0.0
  0
LINE
  5
E582
  8
0
 10
5194.6869709180164136
 20
237.0352184748064985
 30
0.0
 11
5194.8081289666797602
 21
237.1833011435506933
 31
0.0
  0
LINE
  5
E583
  8
0
 10
5194.2872871349372872
 20
236.5755948469009979
 30
0.0
 11
5194.6053193140760413
 21
236.93638131892979
 31
0.0
  0
LINE
  5
E584
  8
0
 10
5194.1040476892567312
 20
236.382420066966489
 30
0.0
 11
5194.1999413249741337
 21
236.4819952071642888
 31
0.0
  0
LINE
  5
E585
  8
0
 10
5194.650554535939591
 20
236.5140706168346867
 30
0.0
 11
5194.3144799900219368
 21
236.5299018948709033
 31
0.0
  0
LINE
  5
E586
  8
0
 10
5194.6734875144229591
 20
236.5231956503122888
 30
0.0
 11
5194.2964281687482071
 21
236.9220788472306083
 31
0.0
  0
LINE
  5
E587
  8
0
 10
5194.2115996676811847
 20
237.0165278531084994
 30
0.0
 11
5194.0931962625163578
 21
237.151237044826189
 31
0.0
  0
LINE
  5
E588
  8
0
 10
5194.699140698771771
 20
236.5338419087563011
 30
0.0
 11
5194.8134824299913817
 21
236.7149847338336883
 31
0.0
  0
LINE
  5
E589
  8
0
 10
5194.8886620815746937
 20
236.820729676872503
 30
0.0
 11
5195.2120346393467116
 21
237.2173738545841104
 31
0.0
  0
LINE
  5
E58A
  8
0
 10
5195.2133143826276864
 20
236.8559844401451926
 30
0.0
 11
5194.902889087931726
 21
237.1871208606401922
 31
0.0
  0
LINE
  5
E58B
  8
0
 10
5194.8180643524501647
 20
237.2811376052918888
 30
0.0
 11
5194.6998382077681526
 21
237.4158488704815113
 31
0.0
  0
LINE
  5
E58C
  8
0
 10
5194.6166147662097501
 20
237.5113105057538974
 30
0.0
 11
5194.2921276547576781
 21
237.9080608536673083
 31
0.0
  0
LINE
  5
E58D
  8
0
 10
5194.2148069190134265
 20
238.0082755604533986
 30
0.0
 11
5194.0913301907721689
 21
238.1703505133176861
 31
0.0
  0
LINE
  5
E58E
  8
0
 10
5194.0156224439533617
 20
238.2717289775052905
 30
0.0
 11
5193.679542371948628
 21
238.7348978854903123
 31
0.0
  0
LINE
  5
E58F
  8
0
 10
5194.6907923440930972
 20
238.580434531598911
 30
0.0
 11
5194.2821208128425496
 21
238.0089009596121912
 31
0.0
  0
LINE
  5
E590
  8
0
 10
5194.2043922616830969
 20
237.9064764699822945
 30
0.0
 11
5194.0803418652349137
 21
237.7437513891048013
 31
0.0
  0
LINE
  5
E591
  8
0
 10
5195.3998109144931732
 20
237.1216006194252088
 30
0.0
 11
5195.3051526311210182
 21
237.2227560190669067
 31
0.0
  0
LINE
  5
E592
  8
0
 10
5195.2206627750456391
 20
237.3169346597246943
 30
0.0
 11
5194.9007922637983938
 21
237.6795047494123025
 31
0.0
  0
LINE
  5
E593
  8
0
 10
5194.8200357608975537
 20
237.776663784787587
 30
0.0
 11
5194.6985241386591952
 21
237.9257916895386984
 31
0.0
  0
LINE
  5
E594
  8
0
 10
5194.619204368352257
 20
238.0240891369024894
 30
0.0
 11
5194.2947902505256934
 21
238.4496165497442917
 31
0.0
  0
LINE
  5
E595
  8
0
 10
5194.2173677376822525
 20
238.5498668221522109
 30
0.0
 11
5194.0825674244915717
 21
238.7282940391100112
 31
0.0
  0
LINE
  5
E596
  8
0
 10
5194.8294699764201141
 20
238.308599893229399
 30
0.0
 11
5194.6788394292843805
 21
238.585254811312808
 31
0.0
  0
LINE
  5
E597
  8
0
 10
5193.607068631360562
 20
237.743221331331597
 30
0.0
 11
5193.4864987071277938
 21
237.9083708706615994
 31
0.0
  0
LINE
  5
E598
  8
0
 10
5193.411847585985015
 20
238.0106235538744954
 30
0.0
 11
5192.9963512328922661
 21
238.5797458432369069
 31
0.0
  0
ARC
  5
E599
  8
0
 10
5193.8464725498106418
 20
253.5737342202235993
 30
0.0
 40
15.3437615724932694
 50
265.0350208747943839
 51
265.9774193884508122
  0
ARC
  5
E59A
  8
0
 10
5193.8464725498106418
 20
253.5737342202235993
 30
0.0
 40
15.3437615724932694
 50
266.4789688011809972
 51
268.9798263361093973
  0
ARC
  5
E59B
  8
0
 10
5193.8464725498106418
 20
253.5737342202235993
 30
0.0
 40
15.3437615724932694
 50
269.4849216014587796
 51
270.4997610388871863
  0
ARC
  5
E59C
  8
0
 10
5193.8464725498106418
 20
253.5737342202235993
 30
0.0
 40
15.3437615724932694
 50
271.0047319067840021
 51
273.5060990149327722
  0
ARC
  5
E59D
  8
0
 10
5193.8464725498106418
 20
253.5737342202235993
 30
0.0
 40
15.3437615724932694
 50
274.0069201177378773
 51
274.9509355049171972
  0
ARC
  5
E59E
  8
0
 10
5193.847185376294874
 20
244.1001946121450032
 30
0.0
 40
5.5925526656503504
 50
261.3088886456447995
 51
265.1209430244969099
  0
ARC
  5
E59F
  8
0
 10
5193.847185376294874
 20
244.1001946121450032
 30
0.0
 40
5.5925526656503504
 50
266.5074420918413125
 51
273.4353665225219174
  0
ARC
  5
E5A0
  8
0
 10
5193.847185376294874
 20
244.1001946121450032
 30
0.0
 40
5.5925526656503504
 50
274.824184715160186
 51
278.602731792418183
  0
ARC
  5
E5A1
  8
0
 10
5193.843602776406442
 20
252.5403299872909031
 30
0.0
 40
14.5805475921366199
 50
263.9504506493083227
 51
266.5592338058982023
  0
ARC
  5
E5A2
  8
0
 10
5193.843602776406442
 20
252.5403299872909031
 30
0.0
 40
14.5805475921366199
 50
267.0863008850367919
 51
268.1548526090750215
  0
ARC
  5
E5A3
  8
0
 10
5193.843602776406442
 20
252.5403299872909031
 30
0.0
 40
14.5805475921366199
 50
268.6791164110617274
 51
271.3272253999056147
  0
ARC
  5
E5A4
  8
0
 10
5193.843602776406442
 20
252.5403299872909031
 30
0.0
 40
14.5805475921366199
 50
271.8516343560535802
 51
272.9199615300267965
  0
ARC
  5
E5A5
  8
0
 10
5193.843602776406442
 20
252.5403299872909031
 30
0.0
 40
14.5805475921366199
 50
273.447291620522094
 51
276.0555653438859167
  0
ARC
  5
E5A6
  8
0
 10
5193.844252012686411
 20
251.6900797244884984
 30
0.0
 40
13.9908794599514295
 50
264.4804306819455064
 51
265.5822665791109785
  0
ARC
  5
E5A7
  8
0
 10
5193.844252012686411
 20
251.6900797244884984
 30
0.0
 40
13.9908794599514295
 50
266.1332056286257171
 51
268.9001148772263718
  0
ARC
  5
E5A8
  8
0
 10
5193.844252012686411
 20
251.6900797244884984
 30
0.0
 40
13.9908794599514295
 50
269.4481160521726224
 51
270.5532324270940876
  0
ARC
  5
E5A9
  8
0
 10
5193.844252012686411
 20
251.6900797244884984
 30
0.0
 40
13.9908794599514295
 50
271.1012489780890178
 51
273.8681074714467059
  0
ARC
  5
E5AA
  8
0
 10
5193.844252012686411
 20
251.6900797244884984
 30
0.0
 40
13.9908794599514295
 50
274.419111898409426
 51
275.5208751874337736
  0
ARC
  5
E5AB
  8
0
 10
5194.1483502721075638
 20
256.4941710219966922
 30
0.0
 40
19.0549268158489689
 50
264.0514007642345859
 51
266.4498556779536216
  0
ARC
  5
E5AC
  8
0
 10
5194.1483502721075638
 20
256.4941710219966922
 30
0.0
 40
19.0549268158489689
 50
266.8559287405170721
 51
267.6678889524724241
  0
ARC
  5
E5AD
  8
0
 10
5193.5361413087848632
 20
256.563675542192982
 30
0.0
 40
19.124564128901639
 50
272.3366206862356762
 51
273.1456408067281814
  0
ARC
  5
E5AE
  8
0
 10
5193.5361413087848632
 20
256.563675542192982
 30
0.0
 40
19.124564128901639
 50
273.5502383220734259
 51
275.9399366889082899
  0
ARC
  5
E5AF
  8
0
 10
5193.844386128912447
 20
250.7494701267036987
 30
0.0
 40
13.5452665489876907
 50
264.2940004127137854
 51
265.4337164576605801
  0
ARC
  5
E5B0
  8
0
 10
5193.844386128912447
 20
250.7494701267036987
 30
0.0
 40
13.5452665489876907
 50
266.0048585498453235
 51
268.8652752464255968
  0
ARC
  5
E5B1
  8
0
 10
5193.844386128912447
 20
250.7494701267036987
 30
0.0
 40
13.5452665489876907
 50
269.4302460399632082
 51
270.5700158226155736
  0
ARC
  5
E5B2
  8
0
 10
5193.844386128912447
 20
250.7494701267036987
 30
0.0
 40
13.5452665489876907
 50
271.1349898061909016
 51
273.9953968336843104
  0
ARC
  5
E5B3
  8
0
 10
5193.844386128912447
 20
250.7494701267036987
 30
0.0
 40
13.5452665489876907
 50
274.5665505499235906
 51
275.7062504071063245
  0
ARC
  5
E5B4
  8
0
 10
5193.8443357349597136
 20
251.9186548188478127
 30
0.0
 40
14.9471395670751992
 50
264.2021891179335853
 51
266.6409473514432875
  0
ARC
  5
E5B5
  8
0
 10
5193.8443357349597136
 20
251.9186548188478127
 30
0.0
 40
14.9471395670751992
 50
267.1569068501455035
 51
268.192718426427291
  0
ARC
  5
E5B6
  8
0
 10
5193.8443357349597136
 20
251.9186548188478127
 30
0.0
 40
14.9471395670751992
 50
268.7092435530645957
 51
271.2913765269267969
  0
ARC
  5
E5B7
  8
0
 10
5193.8443357349597136
 20
251.9186548188478127
 30
0.0
 40
14.9471395670751992
 50
271.807912902118801
 51
272.8437055121037247
  0
ARC
  5
E5B8
  8
0
 10
5193.8443357349597136
 20
251.9186548188478127
 30
0.0
 40
14.9471395670751992
 50
273.3596880013893156
 51
275.7984841029514769
  0
ARC
  5
E5B9
  8
0
 10
5193.8443692121109052
 20
251.8870760997155003
 30
0.0
 40
15.1421657995579704
 50
265.1067510428952119
 51
265.9321177679639163
  0
ARC
  5
E5BA
  8
0
 10
5193.8443692121109052
 20
251.8870760997155003
 30
0.0
 40
15.1421657995579704
 50
266.436759135367879
 51
268.9812740369159769
  0
ARC
  5
E5BB
  8
0
 10
5193.8443692121109052
 20
251.8870760997155003
 30
0.0
 40
15.1421657995579704
 50
269.4896527251227099
 51
270.5107093967297942
  0
ARC
  5
E5BC
  8
0
 10
5193.8443692121109052
 20
251.8870760997155003
 30
0.0
 40
15.1421657995579704
 50
271.0190915988628717
 51
273.5635926458841141
  0
ARC
  5
E5BD
  8
0
 10
5193.8443692121109052
 20
251.8870760997155003
 30
0.0
 40
15.1421657995579704
 50
274.0682540835488226
 51
274.893653335706972
  0
ARC
  5
E5BE
  8
0
 10
5192.9268464071456037
 20
242.2151104872027076
 30
0.0
 40
5.7009451039683716
 50
271.0909908428251924
 51
274.4916718297616853
  0
ARC
  5
E5BF
  8
0
 10
5193.845097867115328
 20
247.7979140548042949
 30
0.0
 40
11.2689472661443304
 50
268.275659957620519
 51
271.7174753233392721
  0
LINE
  5
E5C0
  8
0
 10
5193.0926326427197637
 20
207.3982397152327053
 30
0.0
 11
5194.5962017410056433
 21
207.3982397152327053
 31
0.0
  0
LINE
  5
E5C1
  8
0
 10
5192.835216115530784
 20
209.3145252250832868
 30
0.0
 11
5192.835216115530784
 21
208.5704151429787885
 31
0.0
  0
LINE
  5
E5C2
  8
0
 10
5193.0676738842639679
 20
208.2435202706776067
 30
0.0
 11
5193.0726330036868603
 21
207.4181195546896106
 31
0.0
  0
ARC
  5
E5C3
  8
0
 10
5193.0926326427197637
 20
207.4182397152328008
 30
0.0
 40
0.02
 50
180.3442366703852997
 51
270.0
  0
ARC
  5
E5C4
  8
0
 10
5193.843741652675817
 20
208.8881538945244074
 30
0.0
 40
1.057393811834846
 50
197.4871772058517934
 51
222.8174216803639922
  0
ARC
  5
E5C5
  8
0
 10
5186.1552084251388806
 20
208.0664032151946117
 30
0.0
 40
6.9147342085544734
 50
1.4677599268894119
 51
3.8340698573598271
  0
ARC
  5
E5C6
  8
0
 10
5192.5805746960022589
 20
208.4970133027443921
 30
0.0
 40
0.4749549606116855
 50
3.8340698573598271
 51
17.4364311454385508
  0
ARC
  5
E5C7
  8
0
 10
5192.0759542305713694
 20
211.0774694915540977
 30
0.0
 40
2.619503792068743
 50
286.848946493511221
 51
291.4459377786027972
  0
ARC
  5
E5C8
  8
0
 10
5193.90342178058836
 20
201.4782767311517944
 30
0.0
 40
7.946027085510285
 50
91.997271533773997
 51
97.4535952216630506
  0
ARC
  5
E5C9
  8
0
 10
5192.8782161155313588
 20
209.3145252250832868
 30
0.0
 40
0.043
 50
97.4535952216630506
 51
179.9999999999967031
  0
LINE
  5
E5CA
  8
0
 10
5193.6439324109696827
 20
209.3129558148328044
 30
0.0
 11
5194.0488124319426788
 21
209.3129558148328044
 31
0.0
  0
LINE
  5
E5CB
  8
0
 10
5193.623152844613287
 20
209.8016016095560872
 30
0.0
 11
5193.6272441776136475
 21
209.3327812841226887
 31
0.0
  0
LINE
  5
E5CC
  8
0
 10
5193.6184145658889975
 20
209.8175232355698938
 30
0.0
 11
5193.4695595913253783
 21
210.049869819713706
 31
0.0
  0
ARC
  5
E5CD
  8
0
 10
5193.8444171915625702
 20
203.7417930043328056
 30
0.0
 40
6.3489999890976581
 50
86.7571763135673848
 51
93.242823681683106
  0
ARC
  5
E5CE
  8
0
 10
5193.5931539869206972
 20
209.8013398134910119
 30
0.0
 40
0.03
 50
0.5000000003320207
 51
32.6460290692154018
  0
ARC
  5
E5CF
  8
0
 10
5193.4863999773042451
 20
210.0606587677663128
 30
0.0
 40
0.02
 50
93.2428236810567483
 51
212.6460290692126023
  0
ARC
  5
E5D0
  8
0
 10
5193.6472434160750709
 20
209.3329558148327862
 30
0.0
 40
0.02
 50
180.5000000003221885
 51
270.0
  0
LINE
  5
E5D1
  8
0
 10
5194.0704588654371037
 20
209.8175232355698938
 30
0.0
 11
5193.6184145658889975
 21
209.8175232355698938
 31
0.0
  0
ARC
  5
E5D2
  8
0
 10
5192.6072354114521659
 20
207.6864243582924985
 30
0.0
 40
1.6439852900427789
 50
75.02032926801364
 51
82.0287817957394054
  0
ARC
  5
E5D3
  8
0
 10
5192.2730912617944341
 20
209.0311714403289045
 30
0.0
 40
0.7971356279480702
 50
2.1919281775652029
 51
17.7766763329764217
  0
ARC
  5
E5D4
  8
0
 10
5189.244148658103768
 20
208.6617977864779903
 30
0.0
 40
3.8463360793513979
 50
353.7569092519606215
 51
5.9672005162643762
  0
ARC
  5
E5D5
  8
0
 10
5193.4176447158306473
 20
209.345238475395405
 30
0.0
 40
0.2122489990652966
 50
338.3536980861157986
 51
346.9903777822647157
  0
ARC
  5
E5D6
  8
0
 10
5193.6439324109696827
 20
209.2929558148327942
 30
0.0
 40
0.02
 50
90.0
 51
166.9903777822646873
  0
ARC
  5
E5D7
  8
0
 10
5193.6628025349382369
 20
209.1090932638051072
 30
0.0
 40
0.1649525802174953
 50
106.8727097454847978
 51
135.8566309981507914
  0
ARC
  5
E5D8
  8
0
 10
5193.5988393476072815
 20
209.1801923588170951
 30
0.0
 40
0.0698358803747267
 50
141.1750264806680946
 51
221.2990830517755114
  0
ARC
  5
E5D9
  8
0
 10
5193.797075353024411
 20
209.335606385310399
 30
0.0
 40
0.3216453311442816
 50
218.7910392356116063
 51
251.1922901718716901
  0
ARC
  5
E5DA
  8
0
 10
5193.8432763977471041
 20
209.4353709682675913
 30
0.0
 40
0.4311332659037775
 50
249.6543993081666031
 51
266.7409603320288056
  0
ARC
  5
E5DB
  8
0
 10
5193.8444187966915706
 20
209.4408985678792021
 30
0.0
 40
0.4367176532520448
 50
266.6325519510663753
 51
269.9997894523526725
  0
LINE
  5
E5DC
  8
0
 10
5194.8536182681964419
 20
209.3145252250832868
 30
0.0
 11
5194.8536182681964419
 21
208.5704151429787885
 31
0.0
  0
LINE
  5
E5DD
  8
0
 10
5194.6211604994623485
 20
208.2435202706776067
 30
0.0
 11
5194.6162013800385466
 21
207.4181195546896106
 31
0.0
  0
ARC
  5
E5DE
  8
0
 10
5194.5962017410056433
 20
207.4182397152328008
 30
0.0
 40
0.02
 50
270.0
 51
359.6557633296146719
  0
ARC
  5
E5DF
  8
0
 10
5193.8450927310514089
 20
208.8881538945244074
 30
0.0
 40
1.057393811834846
 50
317.1825783196359794
 51
342.5128227941481782
  0
ARC
  5
E5E0
  8
0
 10
5201.5336259585874359
 20
208.0664032151946117
 30
0.0
 40
6.9147342085544734
 50
176.1659301426402067
 51
178.5322400731105859
  0
ARC
  5
E5E1
  8
0
 10
5195.1082596877249671
 20
208.4970133027443921
 30
0.0
 40
0.4749549606116855
 50
162.5635688545613959
 51
176.1659301426402067
  0
ARC
  5
E5E2
  8
0
 10
5195.6128801531558565
 20
211.0774694915540977
 30
0.0
 40
2.619503792068743
 50
248.5540622213972028
 51
253.1510535064888074
  0
ARC
  5
E5E3
  8
0
 10
5193.785412603138866
 20
201.4782767311517944
 30
0.0
 40
7.946027085510285
 50
82.5464047783369352
 51
88.0027284662260172
  0
ARC
  5
E5E4
  8
0
 10
5194.8106182681958671
 20
209.3145252250832868
 30
0.0
 40
0.043
 50
0.0000000000032569
 51
82.5464047783369352
  0
LINE
  5
E5E5
  8
0
 10
5194.0656815391148484
 20
209.8016016095560872
 30
0.0
 11
5194.0615902061135785
 21
209.3327812841226887
 31
0.0
  0
LINE
  5
E5E6
  8
0
 10
5194.070419817837319
 20
209.8175232355698938
 30
0.0
 11
5194.2192747924009382
 21
210.049869819713706
 31
0.0
  0
ARC
  5
E5E7
  8
0
 10
5194.0956803968056192
 20
209.8013398134910119
 30
0.0
 40
0.03
 50
147.3539709307846124
 51
179.499999999668006
  0
ARC
  5
E5E8
  8
0
 10
5194.2024344064220713
 20
210.0606587677663128
 30
0.0
 40
0.02
 50
327.353970930787284
 51
86.7571763189432517
  0
ARC
  5
E5E9
  8
0
 10
5194.0415909676521551
 20
209.3329558148327862
 30
0.0
 40
0.02
 50
270.0
 51
359.4999999996776978
  0
ARC
  5
E5EA
  8
0
 10
5195.0815989722750601
 20
207.6864243582924985
 30
0.0
 40
1.6439852900427789
 50
97.9712182042605946
 51
104.9796707319863032
  0
ARC
  5
E5EB
  8
0
 10
5195.4157431219318823
 20
209.0311714403289045
 30
0.0
 40
0.7971356279480702
 50
162.2233236670236067
 51
177.8080718224348118
  0
ARC
  5
E5EC
  8
0
 10
5198.4446857256243675
 20
208.6617977864779903
 30
0.0
 40
3.8463360793513979
 50
174.0327994837356016
 51
186.2430907480394069
  0
ARC
  5
E5ED
  8
0
 10
5194.2711896678965786
 20
209.345238475395405
 30
0.0
 40
0.2122489990652966
 50
193.0096222177336074
 51
201.6463019138842014
  0
ARC
  5
E5EE
  8
0
 10
5194.0449019727566338
 20
209.2929558148327942
 30
0.0
 40
0.02
 50
13.0096222177352594
 51
90.0
  0
ARC
  5
E5EF
  8
0
 10
5194.0260318487880795
 20
209.1090932638051072
 30
0.0
 40
0.1649525802174953
 50
44.14336900184923
 51
73.1272902545151595
  0
ARC
  5
E5F0
  8
0
 10
5194.0899950361208539
 20
209.1801923588170951
 30
0.0
 40
0.0698358803747267
 50
318.700916948224517
 51
38.8249735193318415
  0
ARC
  5
E5F1
  8
0
 10
5193.8917590307028149
 20
209.335606385310399
 30
0.0
 40
0.3216453311442816
 50
288.8077098281277131
 51
321.20896076438828
  0
ARC
  5
E5F2
  8
0
 10
5193.8455579859801219
 20
209.4353709682675913
 30
0.0
 40
0.4311332659037775
 50
273.2590396679713081
 51
290.3456006918332832
  0
ARC
  5
E5F3
  8
0
 10
5193.8444155870347458
 20
209.4408985678792021
 30
0.0
 40
0.4367176532520448
 50
270.0002105479077841
 51
273.3674480489336247
  0
ARC
  5
E5F4
  8
0
 10
5193.844417191863613
 20
222.6591553149000902
 30
0.0
 40
3.1906446968636661
 50
274.3548366464668788
 51
265.6451633535331212
  0
ARC
  5
E5F5
  8
0
 10
5193.844417191863613
 20
222.6591553149000902
 30
0.0
 40
0.708661417232706
 50
315.1745843717292814
 51
224.8254156282706049
  0
ARC
  5
E5F6
  8
0
 10
5193.844417191863613
 20
222.6591553149000902
 30
0.0
 40
0.7242402259324239
 50
308.1387162731136868
 51
231.8612837268863132
  0
ARC
  5
E5F7
  8
0
 10
5193.844417191863613
 20
222.6591553149000902
 30
0.0
 40
0.924999999932706
 50
294.4964904136489849
 51
245.5035095863509866
  0
LINE
  5
E5F8
  8
0
 10
5194.0026431774367666
 20
219.3127948046328015
 30
0.0
 11
5193.6861912062886404
 21
219.3127948046328015
 31
0.0
  0
LINE
  5
E5F9
  8
0
 10
5193.4555427850891647
 20
221.9057741389711111
 30
0.0
 11
5193.6076342619462594
 21
219.3867517575797024
 31
0.0
  0
ARC
  5
E5FA
  8
0
 10
5193.0625584269164392
 20
221.8820468502190977
 30
0.0
 40
0.3937
 50
3.4551633845841998
 51
44.825415628270683
  0
LINE
  5
E5FB
  8
0
 10
5194.2332915986389708
 20
221.9057741389711111
 30
0.0
 11
5194.0812001217818761
 21
219.3867517575797024
 31
0.0
  0
ARC
  5
E5FC
  8
0
 10
5194.6262759568098772
 20
221.8820468502190977
 30
0.0
 40
0.3937
 50
135.1745843717293099
 51
176.5448366154157895
  0
ARC
  5
E5FD
  8
0
 10
5194.0026431774367666
 20
219.3914948046327993
 30
0.0
 40
0.0787
 50
270.0
 51
356.544836615415818
  0
ARC
  5
E5FE
  8
0
 10
5193.6861912062886404
 20
219.3914948046327993
 30
0.0
 40
0.0787
 50
183.4551633845842105
 51
270.0
  0
LINE
  5
E600
  8
0
 10
5195.3253886095690177
 20
237.2864979467780984
 30
0.0
 11
5195.4787857781348066
 21
237.3102010303522036
 31
0.0
  0
LINE
  5
E601
  8
0
 10
5192.3637348256715995
 20
237.2901503195724047
 30
0.0
 11
5192.2087239832198975
 21
237.3148198087095011
 31
0.0
  0
ENDSEC
  0
EOF
