  0
SECTION
  2
HEADER
  9
$ACADVER
  1
AC1009
  9
$INSBASE
 10
4409.1879556642916214
 20
223.0257866734422123
 30
0.0
  9
$EXTMIN
 10
4401.4645424977934454
 20
219.6779852851796022
 30
0.0
  9
$EXTMAX
 10
4409.199515985549624
 20
242.2893670844796077
 30
0.0
  9
$LIMMIN
 10
0.0
 20
0.0
  9
$LIMMAX
 10
11.6929133858000007
 20
8.2677165353999982
  9
$ORTHOMODE
 70
     1
  9
$REGENMODE
 70
     1
  9
$FILLMODE
 70
     1
  9
$QTEXTMODE
 70
     0
  9
$MIRRTEXT
 70
     0
  9
$DRAGMODE
 70
     2
  9
$LTSCALE
 40
0.6431102362
  9
$OSMODE
 70
  4095
  9
$ATTMODE
 70
     1
  9
$TEXTSIZE
 40
0.2
  9
$TRACEWID
 40
0.05
  9
$TEXTSTYLE
  7
STANDARD
  9
$CLAYER
  8
0
  9
$CELTYPE
  6
BYLAYER
  9
$CECOLOR
 62
   256
  9
$DIMSCALE
 40
1.0
  9
$DIMASZ
 40
0.1875
  9
$DIMEXO
 40
0.0625
  9
$DIMDLI
 40
0.4443307087
  9
$DIMRND
 40
0.0
  9
$DIMDLE
 40
0.0
  9
$DIMEXE
 40
0.125
  9
$DIMTP
 40
0.01
  9
$DIMTM
 40
0.01
  9
$DIMTXT
 40
2.0
  9
$DIMCEN
 40
0.1052362205
  9
$DIMTSZ
 40
0.0
  9
$DIMTOL
 70
     1
  9
$DIMLIM
 70
     0
  9
$DIMTIH
 70
     1
  9
$DIMTOH
 70
     1
  9
$DIMSE1
 70
     0
  9
$DIMSE2
 70
     0
  9
$DIMTAD
 70
     0
  9
$DIMZIN
 70
     0
  9
$DIMBLK
  1

  9
$DIMASO
 70
     1
  9
$DIMSHO
 70
     1
  9
$DIMPOST
  1
\X
  9
$DIMAPOST
  1

  9
$DIMALT
 70
     1
  9
$DIMALTD
 70
     2
  9
$DIMALTF
 40
25.3999999999999986
  9
$DIMLFAC
 40
1.0
  9
$DIMTOFL
 70
     0
  9
$DIMTVP
 40
0.0
  9
$DIMTIX
 70
     0
  9
$DIMSOXD
 70
     0
  9
$DIMSAH
 70
     0
  9
$DIMBLK1
  1

  9
$DIMBLK2
  1

  9
$DIMSTYLE
  2
STANDARD
  9
$DIMCLRD
 70
     0
  9
$DIMCLRE
 70
     0
  9
$DIMCLRT
 70
     0
  9
$DIMTFAC
 40
1.0
  9
$DIMGAP
 40
0.09
  9
$LUNITS
 70
     2
  9
$LUPREC
 70
     4
  9
$SKETCHINC
 40
0.1
  9
$FILLETRAD
 40
0.0
  9
$AUNITS
 70
     0
  9
$AUPREC
 70
     0
  9
$MENU
  1
.
  9
$ELEVATION
 40
0.0
  9
$PELEVATION
 40
0.0
  9
$THICKNESS
 40
0.0
  9
$LIMCHECK
 70
     0
  9
$BLIPMODE
 70
     0
  9
$CHAMFERA
 40
0.0
  9
$CHAMFERB
 40
0.0
  9
$SKPOLY
 70
     0
  9
$TDCREATE
 40
2458060.468368056230247
  9
$TDUPDATE
 40
2459935.4916782411746681
  9
$TDINDWG
 40
0.6568010417
  9
$TDUSRTIMER
 40
0.6568010417
  9
$USRTIMER
 70
     1
  9
$ANGBASE
 50
0.0
  9
$ANGDIR
 70
     0
  9
$PDMODE
 70
     0
  9
$PDSIZE
 40
0.3125
  9
$PLINEWID
 40
0.0
  9
$COORDS
 70
     1
  9
$SPLFRAME
 70
     0
  9
$SPLINETYPE
 70
     6
  9
$SPLINESEGS
 70
     8
  9
$ATTDIA
 70
     1
  9
$ATTREQ
 70
     1
  9
$HANDLING
 70
     1
  9
$HANDSEED
  5
19781
  9
$SURFTAB1
 70
     6
  9
$SURFTAB2
 70
     6
  9
$SURFTYPE
 70
     6
  9
$SURFU
 70
     6
  9
$SURFV
 70
     6
  9
$UCSNAME
  2

  9
$UCSORG
 10
0.0
 20
0.0
 30
0.0
  9
$UCSXDIR
 10
1.0
 20
0.0
 30
0.0
  9
$UCSYDIR
 10
0.0
 20
1.0
 30
0.0
  9
$PUCSNAME
  2

  9
$PUCSORG
 10
0.0
 20
0.0
 30
0.0
  9
$PUCSXDIR
 10
1.0
 20
0.0
 30
0.0
  9
$PUCSYDIR
 10
0.0
 20
1.0
 30
0.0
  9
$USERI1
 70
     0
  9
$USERI2
 70
     0
  9
$USERI3
 70
     0
  9
$USERI4
 70
     0
  9
$USERI5
 70
     0
  9
$USERR1
 40
0.0
  9
$USERR2
 40
0.0
  9
$USERR3
 40
0.0
  9
$USERR4
 40
0.0
  9
$USERR5
 40
0.0
  9
$WORLDVIEW
 70
     1
  9
$SHADEDGE
 70
     3
  9
$SHADEDIF
 70
    70
  9
$TILEMODE
 70
     1
  9
$MAXACTVP
 70
    64
  9
$PLIMCHECK
 70
     0
  9
$PEXTMIN
 10
1.0000000000000000E+20
 20
1.0000000000000000E+20
 30
1.0000000000000000E+20
  9
$PEXTMAX
 10
-1.0000000000000000E+20
 20
-1.0000000000000000E+20
 30
-1.0000000000000000E+20
  9
$PLIMMIN
 10
0.0
 20
0.0
  9
$PLIMMAX
 10
12.0
 20
9.0
  9
$UNITMODE
 70
     0
  9
$VISRETAIN
 70
     1
  9
$PLINEGEN
 70
     0
  9
$PSLTSCALE
 70
     1
  0
ENDSEC
  0
SECTION
  2
TABLES
  0
TABLE
  2
VPORT
 70
     1
  0
VPORT
  2
*ACTIVE
 70
     0
 10
0.0
 20
0.0
 11
1.0
 21
1.0
 12
266.2434184186253106
 22
12.3396922289170998
 13
0.0
 23
0.0
 14
1.0
 24
1.0
 15
0.0
 25
0.0
 16
0.0
 26
0.0
 36
202.37134017897489
 17
4161.556396484375
 27
226.1108322143554972
 37
0.0
 40
41.3280834312820815
 41
2.5251322751322749
 42
50.0
 43
0.0
 44
0.0
 50
0.0
 51
0.0
 71
     0
 72
   100
 73
     1
 74
     1
 75
     0
 76
     0
 77
     0
 78
     0
  0
ENDTAB
  0
TABLE
  2
LTYPE
 70
     3
  0
LTYPE
  2
CONTINUOUS
 70
     0
  3
Solid line
 72
    65
 73
     0
 40
0.0
  0
LTYPE
  2
PHANTOM2
 70
     0
  3
___ _ _ ___ _ _ ___ _ _ ___ _ _
 72
    65
 73
     6
 40
1.25
 49
0.625
 49
-0.125
 49
0.125
 49
-0.125
 49
0.125
 49
-0.125
  0
ENDTAB
  0
TABLE
  2
LAYER
 70
     2
  0
LAYER
  2
0
 70
     0
 62
   255
  6
CONTINUOUS
  0
LAYER
  2
DEFPOINTS
 70
     0
 62
     7
  6
CONTINUOUS
  0
ENDTAB
  0
TABLE
  2
STYLE
 70
     1
  0
STYLE
  2
STANDARD
 70
     0
 40
0.0
 41
0.8
 50
0.0
 71
     0
 42
0.2
  3
txt
  4

  0
ENDTAB
  0
TABLE
  2
VIEW
 70
     0
  0
ENDTAB
  0
TABLE
  2
UCS
 70
     0
  0
ENDTAB
  0
TABLE
  2
APPID
 70
     9
  0
APPID
  2
ACAD
 70
     0
  0
APPID
  2
ACAD_MLEADERVER
 70
     0
  0
APPID
  2
ACAD_EXEMPT_FROM_CAD_STANDARDS
 70
     0
  0
APPID
  2
ACAD_NAV_VCDISPLAY
 70
     0
  0
APPID
  2
ACAECLAYERSTANDARD
 70
     0
  0
APPID
  2
ACCMTRANSPARENCY
 70
     0
  0
APPID
  2
ACAD_DSTYLE_DIMJAG
 70
     0
  0
APPID
  2
ACAD_DSTYLE_DIMTALN
 70
     0
  0
APPID
  2
ACDBATTR
 70
     0
  0
ENDTAB
  0
TABLE
  2
DIMSTYLE
 70
     2
  0
DIMSTYLE
  2
STANDARD
 70
     0
  3

  4

  5

  6

  7

 40
1.0
 41
0.1875
 42
0.0625
 43
0.38
 44
0.125
 45
0.0
 46
0.0
 47
0.01
 48
0.01
140
0.15625
141
0.09
142
0.0
143
25.3999999999999986
144
1.0
145
0.0
146
1.0
147
0.09
 71
     1
 72
     0
 73
     1
 74
     1
 75
     0
 76
     0
 77
     0
 78
     4
170
     0
171
     2
172
     0
173
     0
174
     0
175
     0
176
     0
177
     0
178
     0
  0
ENDTAB
  0
ENDSEC
  0
SECTION
  2
BLOCKS
  0
BLOCK
  8
0
  2
$MODEL_SPACE
 70
     0
 10
0.0
 20
0.0
 30
0.0
  3
$MODEL_SPACE
  1

  0
ENDBLK
  5
21
  8
0
  0
BLOCK
 67
     1
  8
0
  2
$PAPER_SPACE
 70
     0
 10
0.0
 20
0.0
 30
0.0
  3
$PAPER_SPACE
  1

  0
ENDBLK
  5
1D
 67
     1
  8
0
  0
ENDSEC
  0
SECTION
  2
ENTITIES
  0
ATTDEF
  5
3930
  8
DEFPOINTS
 10
4409.1888493188807843
 20
223.0304159937851125
 30
0.0
 40
0.001
  1
K-TS97077-4G
  3

  2
MODELNUMBER
 70
     0
1001
ACDBATTR
1070
     0
1070
     1
  0
ATTDEF
  5
3931
  8
DEFPOINTS
 10
4409.1888493188807843
 20
223.0287493271183905
 30
0.0
 40
0.001
  1
PITCH
  3

  2
TRADENAME
 70
     0
1001
ACDBATTR
1070
     0
1070
     1
  0
ATTDEF
  5
3932
  8
DEFPOINTS
 10
4409.1888493188807843
 20
223.0270826604518106
 30
0.0
 40
0.001
  1
SHOWER TRIM
  3

  2
PRODUCT
 70
     0
1001
ACDBATTR
1070
     0
1070
     1
  0
LINE
  5
193C8
  8
0
 10
4409.1279556617892013
 20
242.2893670844796077
 30
0.0
 11
4409.1879556642916214
 21
242.2893670844796077
 31
0.0
  0
LINE
  5
193C9
  8
0
 10
4406.6220741310917219
 20
241.4303670844795988
 30
0.0
 11
4408.747955664292931
 21
241.4303670844795988
 31
0.0
  0
LINE
  5
193CA
  8
0
 10
4409.1879556642916214
 20
242.2893670844796077
 30
0.0
 11
4409.1879556642916214
 21
239.7593670844796065
 31
0.0
  0
LINE
  5
193CB
  8
0
 10
4408.747955664292931
 20
241.5443670844796031
 30
0.0
 11
4408.747955664292931
 21
240.504367084103194
 31
0.0
  0
ARC
  5
193CC
  8
0
 10
4408.9679556665159907
 20
241.5443670842942083
 30
0.0
 40
0.2200000022237312
 50
160.9411342107482028
 51
179.9999999517264087
  0
LINE
  5
193CD
  8
0
 10
4408.7600152752056601
 20
241.6162057552164981
 30
0.0
 11
4408.9483707814270019
 21
242.1614095732512055
 31
0.0
  0
ARC
  5
193CE
  8
0
 10
4409.1279556617892013
 20
242.0993670857789084
 30
0.0
 40
0.1899999987006714
 50
89.9999992449752142
 51
160.9411342107466965
  0
LINE
  5
193CF
  8
0
 10
4409.1879556642916214
 20
239.7593670844796065
 30
0.0
 11
4409.1279556642921307
 21
239.7593670844796065
 31
0.0
  0
ARC
  5
193D0
  8
0
 10
4409.1279556642921307
 20
239.9493670845492943
 30
0.0
 40
0.190000000069654
 50
199.0588659329029042
 51
270.0
  0
LINE
  5
193D1
  8
0
 10
4408.9483707827921535
 20
239.8873245961796101
 30
0.0
 11
4408.7600152752038412
 21
240.4325284137420908
 31
0.0
  0
ARC
  5
193D2
  8
0
 10
4408.9679556631999731
 20
240.504367084103194
 30
0.0
 40
0.2199999989087543
 50
179.9999999019937036
 51
199.0588659329029042
  0
LINE
  5
193D3
  8
0
 10
4408.747955664292931
 20
240.618367084479587
 30
0.0
 11
4406.6220741310917219
 21
240.618367084479587
 31
0.0
  0
ARC
  5
193D4
  8
0
 10
4406.6220741310917219
 20
239.1023670846186917
 30
0.0
 40
1.5159999998609159
 50
90.0
 51
135.0000000010431904
  0
LINE
  5
193D5
  8
0
 10
4405.5501002508917736
 20
240.1743409647795886
 30
0.0
 11
4404.7186734678580251
 21
239.3429141817144057
 31
0.0
  0
LINE
  5
193D6
  8
0
 10
4404.7432440365419097
 20
239.3183436130296116
 30
0.0
 11
4404.1199321927915662
 21
239.941655456779614
 31
0.0
  0
ARC
  5
193D7
  8
0
 10
4404.1129724803677163
 20
239.9346957443557073
 30
0.0
 40
0.0098425196999999
 50
44.9999999999953886
 51
134.9999998038206002
  0
LINE
  5
193D8
  8
0
 10
4404.1060127679684228
 20
239.941655456803403
 30
0.0
 11
4403.8032728732823671
 21
239.6389155641901141
 31
0.0
  0
ARC
  5
193D9
  8
0
 10
4403.886789420873356
 20
239.5553990160267972
 30
0.0
 40
0.1181102346906927
 50
134.9999998038194065
 51
202.5194599231653001
  0
ARC
  5
193DA
  8
0
 10
4403.6790897863720602
 20
239.4395808290142043
 30
0.0
 40
0.1181102401278292
 50
315.0000012985178728
 51
22.5194573687306097
  0
LINE
  5
193DB
  8
0
 10
4403.7626063399866325
 20
239.3560642791850057
 30
0.0
 11
4403.7148161667701061
 21
239.3082741038018924
 31
0.0
  0
ARC
  5
193DC
  8
0
 10
4403.6869773208218248
 20
239.3361129484887044
 30
0.0
 40
0.0393700726091626
 50
269.9999931178568886
 51
315.000001298515599
  0
ARC
  5
193DD
  8
0
 10
4403.6869772623804238
 20
238.8495725840593025
 30
0.0
 40
0.4471702918202706
 50
89.9999931178569454
 51
96.8647647311924516
  0
LINE
  5
193DE
  8
0
 10
4403.4466787936926266
 20
239.4803869864796013
 30
0.0
 11
4404.2819813928927033
 21
238.6450843872796099
 31
0.0
  0
ARC
  5
193DF
  8
0
 10
4404.2680619678958465
 20
238.6311649622832078
 30
0.0
 40
0.0196850396103117
 50
1.901675394648082
 51
44.9999999999953886
  0
LINE
  5
193E0
  8
0
 10
4404.2877361658929658
 20
238.6318181985795945
 30
0.0
 11
4404.2889246488102799
 21
238.5960234205226129
 31
0.0
  0
ARC
  5
193E1
  8
0
 10
4404.2691540042669658
 20
238.5960676262633058
 30
0.0
 40
0.0197706939640447
 50
318.9818515697774046
 51
359.8718909669780146
  0
LINE
  5
193E2
  8
0
 10
4404.2840710271802891
 20
238.5830921583630015
 30
0.0
 11
4404.0595679304933583
 21
238.3254046885795958
 31
0.0
  0
ARC
  5
193E3
  8
0
 10
4404.2288386158188587
 20
238.1856360570257038
 30
0.0
 40
0.2195172778560128
 50
140.4531449167762958
 51
211.9670241904651959
  0
LINE
  5
193E4
  8
0
 10
4404.6000013134917026
 20
237.429227475379605
 30
0.0
 11
4404.1354203449918714
 21
237.9557862736795073
 31
0.0
  0
LINE
  5
193E5
  8
0
 10
4404.0426104869920891
 20
238.0694167844796141
 30
0.0
 11
4402.8709998554923004
 21
239.2410247895795976
 31
0.0
  0
LINE
  5
193E6
  8
0
 10
4402.8709998554923004
 20
239.2410247895795976
 30
0.0
 11
4402.7573751072741288
 21
239.3338315579981099
 31
0.0
  0
LINE
  5
193E7
  8
0
 10
4402.7573751072741288
 20
239.3338315579981099
 30
0.0
 11
4402.2308160557940937
 21
239.7984127331068009
 31
0.0
  0
ARC
  5
193E8
  8
0
 10
4402.2047688977918369
 20
239.7688907301796064
 30
0.0
 40
0.039370078700003
 50
48.5781546975386291
 51
91.2577911648333355
  0
LINE
  5
193E9
  8
0
 10
4402.2039046917334417
 20
239.8082513227149093
 30
0.0
 11
4402.1264256433241826
 21
239.8065501831013933
 31
0.0
  0
ARC
  5
193EA
  8
0
 10
4402.1272888947269166
 20
239.7672330708178947
 30
0.0
 40
0.0393265879691656
 50
91.2577911648333355
 51
134.5484499640114961
  0
LINE
  5
193EB
  8
0
 10
4402.0997008155918593
 20
239.7952594585796078
 30
0.0
 11
4401.4704302721938802
 21
239.176876657277802
 31
0.0
  0
ARC
  5
193EC
  8
0
 10
4403.9644250318888226
 20
236.6826389531279062
 30
0.0
 40
0.0196850394295577
 50
224.9999999007052054
 51
315.5000157354767225
  0
LINE
  5
193ED
  8
0
 10
4403.9784653988917853
 20
236.6688415304795967
 30
0.0
 11
4404.5968478454051365
 21
237.2981124254278029
 31
0.0
  0
ARC
  5
193EE
  8
0
 10
4404.5687665718523931
 20
237.3257078009328893
 30
0.0
 40
0.0393708353174359
 50
315.5000157354389785
 51
358.7330776288501966
  0
LINE
  5
193EF
  8
0
 10
4404.6081277825933284
 20
237.3248373052722968
 30
0.0
 11
4404.6098411466264224
 21
237.4023105034515879
 31
0.0
  0
ARC
  5
193F0
  8
0
 10
4404.5704860709493005
 20
237.4031807895964903
 30
0.0
 40
0.0393646971223642
 50
358.7331850707540184
 51
41.427839887397333
  0
LINE
  5
193F1
  8
0
 10
4403.7885071370692458
 20
239.4840541040165078
 30
0.0
 11
4403.7776851502258069
 21
239.5101631269465088
 31
0.0
  0
ARC
  5
193F2
  8
0
 10
4403.4327535304355479
 20
239.4664733553163103
 30
0.0
 40
0.0196850727427567
 50
44.9760597618558577
 51
88.0982941440239955
  0
LINE
  5
193F3
  8
0
 10
4403.4334067782929196
 20
239.4861475860795963
 30
0.0
 11
4403.3982648788341976
 21
239.4873144103758875
 31
0.0
  0
ARC
  5
193F4
  8
0
 10
4403.3976116346939307
 20
239.4676402915345079
 30
0.0
 40
0.0196849607591925
 50
88.0982941440240666
 51
131.0632807588256128
  0
LINE
  5
193F5
  8
0
 10
4404.1445027614918217
 20
239.9170848880795859
 30
0.0
 11
4404.9759295444855525
 21
240.7485116710772957
 31
0.0
  0
ARC
  5
193F6
  8
0
 10
4406.6220741310917219
 20
239.1023670844795959
 30
0.0
 40
2.328000000000003
 50
90.0
 51
135.0000000001577121
  0
ARC
  5
193F7
  8
0
 10
4404.2628187137897839
 20
239.5879559466349917
 30
0.0
 40
0.1490366756388644
 50
45.6984147507542886
 51
52.7028506818539029
  0
ARC
  5
193F8
  8
0
 10
4404.3138641370633195
 20
239.6549695591035913
 30
0.0
 40
0.0647961895692476
 50
52.7028506818548834
 51
59.6557342512010109
  0
ARC
  5
193F9
  8
0
 10
4404.3279617212292578
 20
239.6790519517041957
 30
0.0
 40
0.0368909299810504
 50
59.6557342512002009
 51
69.9245685842625306
  0
ARC
  5
193FA
  8
0
 10
4404.3367813900204055
 20
239.7031848892673906
 30
0.0
 40
0.0111968599841542
 50
69.9245685842625306
 51
86.3699942743901943
  0
ARC
  5
193FB
  8
0
 10
4404.3371312581857637
 20
239.7086997954795038
 30
0.0
 40
0.0056708670179489
 50
86.3699942743901943
 51
110.5748090431678037
  0
ARC
  5
193FC
  8
0
 10
4404.3359238388829908
 20
239.711916375803014
 30
0.0
 40
0.0022351356038982
 50
110.574809043115593
 51
138.1190440867318898
  0
LINE
  5
193FD
  8
0
 10
4404.3342597055916485
 20
239.7134085190795929
 30
0.0
 11
4404.0315198120579225
 21
239.4106686254131944
 31
0.0
  0
ARC
  5
193FE
  8
0
 10
4404.0574394244749783
 20
239.3851799602103085
 30
0.0
 40
0.0363524189242616
 50
135.4802899322245935
 51
166.0579890067301108
  0
ARC
  5
193FF
  8
0
 10
4404.0788933425392315
 20
239.3798539551540898
 30
0.0
 40
0.0584575524944103
 50
166.0579890067286044
 51
189.5321681832865011
  0
ARC
  5
19400
  8
0
 10
4404.1402598005233813
 20
239.3901586001267106
 30
0.0
 40
0.1206831732104872
 50
189.5321681832865011
 51
206.278906508640091
  0
ARC
  5
19401
  8
0
 10
4404.2183825750844335
 20
239.4287335004715089
 30
0.0
 40
0.2078106134444303
 50
206.278906508640091
 51
218.0443405721480872
  0
ARC
  5
19402
  8
0
 10
4404.2726533020995703
 20
239.4712021166891134
 30
0.0
 40
0.2767228414909988
 50
218.0443405721480872
 51
232.8521218018402976
  0
ARC
  5
19403
  8
0
 10
4404.224547963563964
 20
239.4077058131863112
 30
0.0
 40
0.1970616580061184
 50
232.8521218018402976
 51
245.7282887370926971
  0
ARC
  5
19404
  8
0
 10
4404.1891042028773882
 20
239.329103133488502
 30
0.0
 40
0.1108372912216003
 50
245.7282887370926971
 51
260.0038587256998994
  0
ARC
  5
19405
  8
0
 10
4404.1811523663482149
 20
239.2839882605528032
 30
0.0
 40
0.0650269925522641
 50
260.0038587256998994
 51
282.789818462353594
  0
ARC
  5
19406
  8
0
 10
4404.1880652849386024
 20
239.2535358888096084
 30
0.0
 40
0.0337998346888326
 50
282.789818462353594
 51
315.7039424551019806
  0
LINE
  5
19407
  8
0
 10
4404.2122572052921896
 20
239.2299312321796094
 30
0.0
 11
4404.514997099008724
 21
239.5326711257633008
 31
0.0
  0
ARC
  5
19408
  8
0
 10
4404.5125725587913621
 20
239.5349937409762049
 30
0.0
 40
0.0033575194260705
 50
316.229994587348699
 51
356.6334786351970934
  0
ARC
  5
19409
  8
0
 10
4404.5059106088183398
 20
239.5353856274687985
 30
0.0
 40
0.0100309857264456
 50
356.6334786351906132
 51
14.0949050664190896
  0
ARC
  5
1940A
  8
0
 10
4404.4953718298520471
 20
239.5327394654104012
 30
0.0
 40
0.0208968973635226
 50
14.0949050664190896
 51
28.8556926376090388
  0
ARC
  5
1940B
  8
0
 10
4404.4306483845621187
 20
239.4970754799018096
 30
0.0
 40
0.0947957757900705
 50
28.8556926376076213
 51
32.5342082416522231
  0
ARC
  5
1940C
  8
0
 10
4404.464097224617035
 20
239.5184128275591036
 30
0.0
 40
0.0551207546040979
 50
32.5342082416536016
 51
39.6979848077240121
  0
ARC
  5
1940D
  8
0
 10
4405.4947811507945516
 20
240.3740418739203903
 30
0.0
 40
1.2844352989667049
 50
219.4332659192556036
 51
219.6979848077239978
  0
ARC
  5
1940E
  8
0
 10
4404.4144133628160489
 20
239.4855667839057105
 30
0.0
 40
0.1143436481442132
 50
39.433265919255561
 51
42.9966727780076212
  0
LINE
  5
1940F
  8
0
 10
4403.7881940640927496
 20
239.4848167152796066
 30
0.0
 11
4404.286405294992619
 21
238.9866054843795951
 31
0.0
  0
ARC
  5
19410
  8
0
 10
4403.5955797693613931
 20
238.886666827490501
 30
0.0
 40
0.5027670890361077
 50
353.726760919655419
 51
359.6233291948676083
  0
ARC
  5
19411
  8
0
 10
4404.1435615591608439
 20
238.8830642634380013
 30
0.0
 40
0.0452265426965489
 50
138.1687859058737047
 51
179.6233291948676083
  0
LINE
  5
19412
  8
0
 10
4404.1098626846678599
 20
238.9132275859041954
 30
0.0
 11
4404.1575797890036483
 21
238.9609446902906029
 31
0.0
  0
ARC
  5
19413
  8
0
 10
4404.2411694820457342
 20
238.8775006309026878
 30
0.0
 40
0.1181107439227622
 50
67.480682285543196
 51
135.049955122830994
  0
LINE
  5
19414
  8
0
 10
4404.2864052950080804
 20
238.9866054843730865
 30
0.0
 11
4404.311751706686664
 21
238.9760965704008981
 31
0.0
  0
ARC
  5
19415
  8
0
 10
4404.3569875938983387
 20
239.0852008434910942
 30
0.0
 40
0.1181102362124462
 50
247.4805411985628041
 51
315.0000000287374746
  0
LINE
  5
19416
  8
0
 10
4404.4405041428917684
 20
239.0016842945796043
 30
0.0
 11
4404.7432440363409114
 21
239.3044241883312964
 31
0.0
  0
ARC
  5
19417
  8
0
 10
4404.7362843238934147
 20
239.3113839007812942
 30
0.0
 40
0.0098425197355066
 50
314.9999999912993758
 51
44.9999983476599112
  0
LINE
  5
19418
  8
0
 10
4403.6868011761043817
 20
239.2967432698463028
 30
0.0
 11
4404.098331858608617
 21
238.8852105963682106
 31
0.0
  0
LINE
  5
19419
  8
0
 10
4403.3846807380923565
 20
239.4824824473795957
 30
0.0
 11
4403.1269932683926527
 21
239.2579793506795909
 31
0.0
  0
ARC
  5
1941A
  8
0
 10
4402.9878580256336136
 20
239.4176805270980992
 30
0.0
 40
0.2118090685664223
 50
236.5152738736589129
 51
311.0631097551997186
  0
LINE
  5
1941B
  8
0
 10
4403.3976116346939307
 20
239.4873252522936866
 30
0.0
 11
4404.2889029715170182
 21
238.5966762981549891
 31
0.0
  0
LINE
  5
1941C
  8
0
 10
4402.2308160557940937
 20
239.7984127331068009
 30
0.0
 11
4404.6000013135026165
 21
237.4292274753682932
 31
0.0
  0
LINE
  5
1941D
  8
0
 10
4404.6081277346293064
 20
237.3248351392248026
 30
0.0
 11
4402.1264256433241826
 21
239.8065501831013933
 31
0.0
  0
LINE
  5
1941E
  8
0
 10
4402.5815022749029595
 20
237.8640167281749882
 30
0.0
 11
4402.5491749900593277
 21
237.8260671033918072
 31
0.0
  0
ARC
  5
1941F
  8
0
 10
4402.5567885159898651
 20
237.8195815419954897
 30
0.0
 40
0.0100014140874422
 50
139.5740728842849023
 51
193.7666307325729065
  0
ARC
  5
19420
  8
0
 10
4402.5589765107279163
 20
237.8201176140665041
 30
0.0
 40
0.012254122287804
 50
193.7666307325729065
 51
216.1907983564885001
  0
ARC
  5
19421
  8
0
 10
4402.6275207256303474
 20
237.8702674929650129
 30
0.0
 40
0.0971853871443041
 50
216.1907983564885001
 51
223.5364441288687942
  0
ARC
  5
19422
  8
0
 10
4403.1793120496868141
 20
238.3782654830962997
 30
0.0
 40
0.8471984572943519
 50
222.7372805654370893
 51
227.049595749746004
  0
ARC
  5
19423
  8
0
 10
4402.7312093310174532
 20
237.8949484077103023
 30
0.0
 40
0.1881207053185928
 50
226.6447091286499074
 51
231.0265295040096873
  0
ARC
  5
19424
  8
0
 10
4402.6226419724371226
 20
237.7589821425148102
 30
0.0
 40
0.0141746566421796
 50
226.5226115985929027
 51
262.9965203972290055
  0
ARC
  5
19425
  8
0
 10
4402.621666854130126
 20
237.7548531611062117
 30
0.0
 40
0.0099684100989598
 50
265.6667210110098267
 51
310.6186296081332898
  0
LINE
  5
19426
  8
0
 10
4402.628156499022225
 20
237.7472865430333968
 30
0.0
 11
4402.6659981752045496
 21
237.7797498554471929
 31
0.0
  0
ARC
  5
19427
  8
0
 10
4402.3909499146620874
 20
237.5870498193202138
 30
0.0
 40
0.2735442893071757
 50
39.077920257070808
 51
51.4035204680439008
  0
ARC
  5
19428
  8
0
 10
4402.7899835353573508
 20
237.9894505764912935
 30
0.0
 40
0.2962005472014908
 50
219.5509312002033084
 51
230.9305095248834903
  0
ARC
  5
19429
  8
0
 10
4402.5739231496427237
 20
237.8359064114351042
 30
0.0
 40
0.0106455794605512
 50
140.4191242542318889
 51
214.1162160033231032
  0
ARC
  5
1942A
  8
0
 10
4402.6606301921920021
 20
237.8946472886314893
 30
0.0
 40
0.1153766726534253
 50
214.1162160033231032
 51
223.4316950675616908
  0
ARC
  5
1942B
  8
0
 10
4403.04854865361267
 20
238.247671619903997
 30
0.0
 40
0.6398646950283127
 50
222.5070738717504923
 51
227.5671847168526085
  0
ARC
  5
1942C
  8
0
 10
4402.7077919344819747
 20
237.8717551362038876
 30
0.0
 40
0.1325124866073184
 50
226.6425635210518976
 51
233.942373852629089
  0
ARC
  5
1942D
  8
0
 10
4402.6400990356378315
 20
237.7787806436496112
 30
0.0
 40
0.0175055962930896
 50
233.9423738526299985
 51
261.7466830627769241
  0
ARC
  5
1942E
  8
0
 10
4402.6380724367636503
 20
237.7718062111702011
 30
0.0
 40
0.0103612794162885
 50
267.3097162455421199
 51
310.0328333230531825
  0
LINE
  5
1942F
  8
0
 10
4402.644737086108762
 20
237.7638728285216132
 30
0.0
 11
4402.6858742802396591
 21
237.7990984870779982
 31
0.0
  0
ARC
  5
19430
  8
0
 10
4402.5053230598077789
 20
237.667051592277204
 30
0.0
 40
0.2236853272041217
 50
36.1800282445150287
 51
51.6115195278604588
  0
ARC
  5
19431
  8
0
 10
4402.4698720832502659
 20
237.7036873982875989
 30
0.0
 40
0.2227918333581435
 50
38.5005505587866068
 51
53.9952225728627084
  0
LINE
  5
19432
  8
0
 10
4402.6008408657153268
 20
237.8839188578917003
 30
0.0
 11
4402.5657183251942115
 21
237.8426894209297018
 31
0.0
  0
ARC
  5
19433
  8
0
 10
4402.4479131719417637
 20
237.6463440382671024
 30
0.0
 40
0.2152045505404861
 50
37.0819096351463031
 51
52.7082434654318703
  0
ARC
  5
19434
  8
0
 10
4402.74667899702672
 20
237.9440176266930109
 30
0.0
 40
0.2105824344681912
 50
216.9093099670793947
 51
232.880843133477498
  0
ARC
  5
19435
  8
0
 10
4402.1557122218682707
 20
237.8591468240487075
 30
0.0
 40
0.4093750614491525
 50
32.1988720945746394
 51
54.9821287803723067
  0
LINE
  5
19436
  8
0
 10
4402.4075351322708229
 20
238.18190549973869
 30
0.0
 11
4402.3706281799013595
 21
238.1384642129976896
 31
0.0
  0
ARC
  5
19437
  8
0
 10
4402.3788251086562013
 20
238.1315002466459987
 30
0.0
 40
0.0107557644248776
 50
139.6493571953724881
 51
194.0007914592318059
  0
ARC
  5
19438
  8
0
 10
4402.3893356131593464
 20
238.1341209639562919
 30
0.0
 40
0.0215880709262048
 50
194.0007914592380871
 51
209.9970306332720895
  0
ARC
  5
19439
  8
0
 10
4402.4378780988217841
 20
238.1621436269207095
 30
0.0
 40
0.0776384282302817
 50
209.9970306332720895
 51
217.4314609494196873
  0
ARC
  5
1943A
  8
0
 10
4402.6345841169795676
 20
238.3127079539480064
 30
0.0
 40
0.3253537369071979
 50
217.4314609494196873
 51
230.5805933835245867
  0
ARC
  5
1943B
  8
0
 10
4402.4505177141973036
 20
238.0887765312380964
 30
0.0
 40
0.0354818294887777
 50
230.5805933835235919
 51
246.1348781505708985
  0
ARC
  5
1943C
  8
0
 10
4402.4407495453187948
 20
238.0666971286044031
 30
0.0
 40
0.0113381523893803
 50
246.134878150571609
 51
308.9843828190608974
  0
LINE
  5
1943D
  8
0
 10
4402.4478824738162075
 20
238.0578837847062061
 30
0.0
 11
4402.4906601683187546
 21
238.0945142264332048
 31
0.0
  0
ARC
  5
1943E
  8
0
 10
4402.5068234398559071
 20
238.1147921734047941
 30
0.0
 40
0.0377988207173249
 50
228.0059867660046962
 51
262.8624913002024073
  0
ARC
  5
1943F
  8
0
 10
4402.4439987614659913
 20
238.2083202820298879
 30
0.0
 40
0.0551714501840058
 50
194.6121223495410959
 51
218.4811189456162026
  0
ARC
  5
19440
  8
0
 10
4402.2942568380376542
 20
237.9897091499690021
 30
0.0
 40
0.1521191635914146
 50
31.805729902381259
 51
54.6465684330304384
  0
ARC
  5
19441
  8
0
 10
4402.4947683358332142
 20
238.178174262778299
 30
0.0
 40
0.1296207618874643
 50
209.7892171550668934
 51
236.6630811803404981
  0
LINE
  5
19442
  8
0
 10
4402.3725733019173276
 20
238.1508091854512941
 30
0.0
 11
4402.3356192833425666
 21
238.1074295173835935
 31
0.0
  0
ARC
  5
19443
  8
0
 10
4402.3435041207721952
 20
238.1007126280726993
 30
0.0
 40
0.0103579565203991
 50
139.5731803720848916
 51
190.9703343607766044
  0
ARC
  5
19444
  8
0
 10
4402.3497782396716502
 20
238.1019288223353954
 30
0.0
 40
0.0167488638474065
 50
190.9703343607814077
 51
212.7987364360039919
  0
ARC
  5
19445
  8
0
 10
4402.6285186859349778
 20
238.3065318144865898
 30
0.0
 40
0.3624918881804065
 50
216.1189343449406124
 51
230.331115666218011
  0
ARC
  5
19446
  8
0
 10
4402.4053686273091444
 20
238.038711421010504
 30
0.0
 40
0.013913661501125
 50
233.6513135751335994
 51
302.1514814675009006
  0
LINE
  5
19447
  8
0
 10
4402.4127729147612627
 20
238.0269315014988081
 30
0.0
 11
4402.4547408221333171
 21
238.062663567902689
 31
0.0
  0
ARC
  5
19448
  8
0
 10
4402.1942348377133385
 20
237.9111495291988945
 30
0.0
 40
0.3013633552468892
 50
26.2086931843650994
 51
30.1829003253856882
  0
ARC
  5
19449
  8
0
 10
4402.4817149165328374
 20
238.114019996893802
 30
0.0
 40
0.0718404374241106
 50
237.9230493181659938
 51
256.2302785049491831
  0
ARC
  5
1944A
  8
0
 10
4402.2942900965017543
 20
238.0452139763731907
 30
0.0
 40
0.1314481206792959
 50
50.6017652045009285
 51
53.4485419323836908
  0
ARC
  5
1944B
  8
0
 10
4402.3402609311906417
 20
238.1078115177419932
 30
0.0
 40
0.0537855810634148
 50
53.0754586728476099
 51
75.406048417282193
  0
ARC
  5
1944C
  8
0
 10
4402.5153878399023597
 20
238.2386068189634045
 30
0.0
 40
0.1797419731365348
 50
205.9827543675565096
 51
212.8299205050537921
  0
ARC
  5
1944D
  8
0
 10
4402.2820189588737776
 20
238.0471984784564938
 30
0.0
 40
0.0837268032032302
 50
48.3796201075871934
 51
56.8306908187404005
  0
LINE
  5
1944E
  8
0
 10
4402.3348010453673851
 20
238.1122042958176905
 30
0.0
 11
4402.3027241402978689
 21
238.0745500511555122
 31
0.0
  0
ARC
  5
1944F
  8
0
 10
4402.310302339734335
 20
238.0680943331859112
 30
0.0
 40
0.0099551695712747
 50
139.5729804033393009
 51
215.7743821921152971
  0
ARC
  5
19450
  8
0
 10
4403.0765257681287039
 20
238.7146732933026101
 30
0.0
 40
1.0125043384815759
 50
220.1163315547985064
 51
225.3865511822388044
  0
ARC
  5
19451
  8
0
 10
4402.372763932127782
 20
238.0025749367937067
 30
0.0
 40
0.0113556011439993
 50
229.7285005449282949
 51
303.5989694605116256
  0
LINE
  5
19452
  8
0
 10
4402.3790478557157257
 20
237.9931165023737094
 30
0.0
 11
4402.4156395786858411
 21
238.0244353749511959
 31
0.0
  0
ARC
  5
19453
  8
0
 10
4402.3682699581631823
 20
237.9877238984510939
 30
0.0
 40
0.0599300713997747
 50
37.7756998702305111
 51
41.3703971328514726
  0
ARC
  5
19454
  8
0
 10
4402.4908729841481545
 20
238.076042131836914
 30
0.0
 40
0.0912322456678676
 50
214.4483827955228037
 51
221.081426256679606
  0
LINE
  5
19455
  8
0
 10
4402.4146164706380659
 20
238.023559289598694
 30
0.0
 11
4402.4221042653362019
 21
238.0160906017262903
 31
0.0
  0
LINE
  5
19456
  8
0
 10
4402.4221042653362019
 20
238.0160906017262903
 30
0.0
 11
4402.578316542831999
 21
237.8602769356928093
 31
0.0
  0
LINE
  5
19457
  8
0
 10
4402.709748277118706
 20
237.9080371629918034
 30
0.0
 11
4402.6441521433707749
 21
237.8424728884617139
 31
0.0
  0
LINE
  5
19458
  8
0
 10
4402.4906601594466338
 20
238.0945142188365082
 30
0.0
 11
4402.6185909563073437
 21
237.9853965932896074
 31
0.0
  0
LINE
  5
19459
  8
0
 10
4402.6185909563073437
 20
237.9853965932896074
 30
0.0
 11
4402.6812761462269918
 21
237.9363416639824891
 31
0.0
  0
LINE
  5
1945A
  8
0
 10
4402.7099981631772607
 20
237.9081672203460869
 30
0.0
 11
4402.2155141403400194
 21
238.4033208725070949
 31
0.0
  0
LINE
  5
1945B
  8
0
 10
4402.2152642542832837
 20
238.4031908151528967
 30
0.0
 11
4402.0384715749250972
 21
238.579549083772207
 31
0.0
  0
LINE
  5
1945C
  8
0
 10
4402.0384715749250972
 20
238.579549083772207
 30
0.0
 11
4401.7066552330061313
 21
238.9083453605533975
 31
0.0
  0
LINE
  5
1945D
  8
0
 10
4401.7066552330061313
 20
238.9083453605533975
 30
0.0
 11
4401.5527994311596558
 21
239.0630758958546096
 31
0.0
  0
LINE
  5
1945E
  8
0
 10
4401.5527994311596558
 20
239.0630758958546096
 30
0.0
 11
4401.5389300222923339
 21
239.0782337221795899
 31
0.0
  0
LINE
  5
1945F
  8
0
 10
4401.5389300222923339
 20
239.0782337221795899
 30
0.0
 11
4401.6591383164995932
 21
238.9169516236522952
 31
0.0
  0
LINE
  5
19460
  8
0
 10
4401.6656615393330867
 20
238.9246104676109042
 30
0.0
 11
4401.6299978689394266
 21
238.882745812487002
 31
0.0
  0
ARC
  5
19461
  8
0
 10
4401.6376484438751504
 20
238.8761399665399949
 30
0.0
 40
0.0101078433673537
 50
139.1912171696120026
 51
211.3777138289368054
  0
ARC
  5
19462
  8
0
 10
4401.7172251397923901
 20
238.9246713138377061
 30
0.0
 40
0.103315902050994
 50
211.377713828938198
 51
218.4104716643693962
  0
ARC
  5
19463
  8
0
 10
4402.5649599472262707
 20
239.5650265220133122
 30
0.0
 40
1.1656972120725619
 50
217.1854968938488071
 51
220.8849125533266999
  0
ARC
  5
19464
  8
0
 10
4401.7176492662247256
 20
238.830205078121395
 30
0.0
 40
0.0441472033104453
 50
219.6599377828403874
 51
228.2258883188162883
  0
ARC
  5
19465
  8
0
 10
4401.6953598013787996
 20
238.805252987564586
 30
0.0
 40
0.010689363179988
 50
228.2258883188183916
 51
307.5577680574564283
  0
LINE
  5
19466
  8
0
 10
4401.7018756204197416
 20
238.796779110799605
 30
0.0
 11
4401.7413694699071129
 21
238.8305691201632044
 31
0.0
  0
ARC
  5
19467
  8
0
 10
4400.9545411224280542
 20
238.2746284144951119
 30
0.0
 40
0.9634152358726357
 50
35.2434632654983702
 51
42.4281016947018799
  0
ARC
  5
19468
  8
0
 10
4401.4765855215309784
 20
238.7517902035260136
 30
0.0
 40
0.2561573426356704
 50
42.4281016947018799
 51
47.5440637067627776
  0
ARC
  5
19469
  8
0
 10
4401.7937575258938523
 20
239.0235116102874997
 30
0.0
 40
0.1662981329051216
 50
209.8331687431679029
 51
217.9952624082609987
  0
ARC
  5
1946A
  8
0
 10
4401.978867338632881
 20
238.9943412909593974
 30
0.0
 40
0.2884901412128775
 50
214.5891066208602069
 51
221.1089571737294079
  0
ARC
  5
1946B
  8
0
 10
4415.9762994445181903
 20
250.3841793605677992
 30
0.0
 40
18.3342774277108482
 50
219.1666087073693916
 51
219.7858901658497075
  0
LINE
  5
1946C
  8
0
 10
4401.7329803890734183
 20
238.8233855665492911
 30
0.0
 11
4401.868170940584605
 21
238.6513498876620076
 31
0.0
  0
LINE
  5
1946D
  8
0
 10
4401.868170940584605
 20
238.6513498876620076
 30
0.0
 11
4401.8755457979532366
 21
238.643254087122898
 31
0.0
  0
LINE
  5
1946E
  8
0
 10
4401.8851360376011144
 20
238.6545228167537971
 30
0.0
 11
4401.8416770317298869
 21
238.6034609700180056
 31
0.0
  0
ARC
  5
1946F
  8
0
 10
4401.8496290358943952
 20
238.5973786510907075
 30
0.0
 40
0.0100114421421247
 50
142.5883944069883
 51
215.8342239011386994
  0
ARC
  5
19470
  8
0
 10
4402.9994188869513891
 20
239.4964903339950979
 30
0.0
 40
1.4695995041146901
 50
218.0097475051319975
 51
221.6559861315299997
  0
ARC
  5
19471
  8
0
 10
4401.9085930108467437
 20
238.5269950902556957
 30
0.0
 40
0.0102304286183379
 50
225.3954974660987887
 51
308.9567045508283059
  0
LINE
  5
19472
  8
0
 10
4401.9150252185390855
 20
238.5190396912144024
 30
0.0
 11
4401.9619522147258976
 21
238.5592230361347106
 31
0.0
  0
LINE
  5
19473
  8
0
 10
4401.9120286762772594
 20
238.6805091948218092
 30
0.0
 11
4401.874715074121923
 21
238.6367070437356119
 31
0.0
  0
ARC
  5
19474
  8
0
 10
4401.8827515176581073
 20
238.6298610635863042
 30
0.0
 40
0.0105570767217909
 50
139.5734220111299067
 51
206.362731680199289
  0
ARC
  5
19475
  8
0
 10
4402.1870100703008575
 20
238.8269800045812872
 30
0.0
 40
0.3730211733708786
 50
212.7521742162674059
 51
227.1575791751309055
  0
ARC
  5
19476
  8
0
 10
4401.9414287606296057
 20
238.5643919526235095
 30
0.0
 40
0.0135775125036474
 50
233.5470217111858062
 51
301.4230660148239735
  0
LINE
  5
19477
  8
0
 10
4401.948507440361027
 20
238.552805704782088
 30
0.0
 11
4401.990785175750716
 21
238.5890830736580881
 31
0.0
  0
ARC
  5
19478
  8
0
 10
4401.2203075807892674
 20
238.0050108555398083
 30
0.0
 40
0.9668381872458693
 50
37.1644981711003268
 51
44.3201882437923018
  0
ARC
  5
19479
  8
0
 10
4401.8616875316383812
 20
238.6394595451623104
 30
0.0
 40
0.0649561743083178
 50
39.1948145192752193
 51
61.3482425746488573
  0
ARC
  5
1947A
  8
0
 10
4401.9909158757391197
 20
238.7296305795510989
 30
0.0
 40
0.1035394110619348
 50
198.6840229075152138
 51
213.769767971913609
  0
ARC
  5
1947B
  8
0
 10
4401.7503786342840613
 20
238.4578629574027104
 30
0.0
 40
0.2045423893978185
 50
31.4169941665943604
 51
48.3606231605087018
  0
ARC
  5
1947C
  8
0
 10
4402.0581079271632916
 20
238.7150624715023071
 30
0.0
 40
0.2010206322258968
 50
211.2674527976043919
 51
228.5101645294832906
  0
ARC
  5
1947D
  8
0
 10
4401.1995987190621236
 20
237.9942152318502053
 30
0.0
 40
0.8761656716937034
 50
37.8697027305063969
 51
41.7175177824204582
  0
ARC
  5
1947E
  8
0
 10
4402.4308950555332558
 20
239.0198600627572034
 30
0.0
 40
0.7274330885884033
 50
217.476140862232711
 51
222.1110805044762913
  0
LINE
  5
1947F
  8
0
 10
4401.9506089540618632
 20
238.5495098665132048
 30
0.0
 11
4402.098692477633449
 21
238.3700277988097014
 31
0.0
  0
LINE
  5
19480
  8
0
 10
4401.9596344685878648
 20
238.5621645662282901
 30
0.0
 11
4402.0982314268549089
 21
238.3862664741554909
 31
0.0
  0
LINE
  5
19481
  8
0
 10
4402.0982314268549089
 20
238.3862664741554909
 30
0.0
 11
4402.107714044435852
 21
238.3780945439791878
 31
0.0
  0
ARC
  5
19482
  8
0
 10
4401.9130840861207616
 20
238.5325293801606961
 30
0.0
 40
0.0961029634183524
 50
23.1544491226651594
 51
36.0484969508798514
  0
ARC
  5
19483
  8
0
 10
4402.0108091619531478
 20
238.6107021484085919
 30
0.0
 40
0.0414553070437845
 50
225.5313183062052076
 51
256.9461536277303253
  0
LINE
  5
19484
  8
0
 10
4401.9918115191549077
 20
238.5738560895931073
 30
0.0
 11
4402.1162443010316565
 21
238.4073522527135083
 31
0.0
  0
ARC
  5
19485
  8
0
 10
4401.9382789280398356
 20
238.1878335387181096
 30
0.0
 40
0.2825953640420646
 50
36.1545674972691984
 51
50.9680736083325527
  0
ARC
  5
19486
  8
0
 10
4401.9911923431400282
 20
238.173759235556787
 30
0.0
 40
0.251801395573036
 50
30.1279886958575887
 51
45.8904023342901084
  0
ARC
  5
19487
  8
0
 10
4402.1933602795870684
 20
238.2817480553362088
 30
0.0
 40
0.0241328091400215
 50
21.4353764469551393
 51
49.6756187366305824
  0
ARC
  5
19488
  8
0
 10
4402.2422233122906619
 20
238.3683352963946049
 30
0.0
 40
0.082126572341256
 50
235.675077838979405
 51
251.2494400594308104
  0
LINE
  5
19489
  8
0
 10
4402.2043778071520137
 20
238.3077588652068926
 30
0.0
 11
4402.1637306602533499
 21
238.2729543685424005
 31
0.0
  0
ARC
  5
1948A
  8
0
 10
4402.1569785586398211
 20
238.2810071821077997
 30
0.0
 40
0.0105089810379051
 50
237.1567945234693013
 51
309.9790713348332929
  0
ARC
  5
1948B
  8
0
 10
4402.176949629299088
 20
238.3119449577071123
 30
0.0
 40
0.0473327454064898
 50
226.8495003561359908
 51
237.1567945234693013
  0
ARC
  5
1948C
  8
0
 10
4402.4287395413848571
 20
238.5805386211958137
 30
0.0
 40
0.415491292630989
 50
214.9557082760279911
 51
226.8495003561349108
  0
ARC
  5
1948D
  8
0
 10
4402.0972409420937765
 20
238.3488024991324039
 30
0.0
 40
0.0110250374246871
 50
140.96979296493231
 51
214.9557082760279911
  0
LINE
  5
1948E
  8
0
 10
4402.0886765379209464
 20
238.3557452962191121
 30
0.0
 11
4402.1257621754321008
 21
238.3992813377730045
 31
0.0
  0
ARC
  5
1948F
  8
0
 10
4402.0942382850680588
 20
238.3797068277006019
 30
0.0
 40
0.0353346043237365
 50
51.4798836029295188
 51
68.6705732440381382
  0
ARC
  5
19490
  8
0
 10
4402.1930989311676967
 20
238.4502565041952096
 30
0.0
 40
0.0938821732871467
 50
203.6331023531371898
 51
218.3933678911949983
  0
LINE
  5
19491
  8
0
 10
4402.1064746327110697
 20
238.3791626442155973
 30
0.0
 11
4402.0717759800136264
 21
238.338372320710306
 31
0.0
  0
ARC
  5
19492
  8
0
 10
4402.0799738770911063
 20
238.3323120934074097
 30
0.0
 40
0.0101946982024574
 50
143.5266434125520902
 51
213.4199749455642916
  0
ARC
  5
19493
  8
0
 10
4402.5689291008002328
 20
238.7061172706989964
 30
0.0
 40
0.6256439506130773
 50
217.333065690499609
 51
225.9185982449698997
  0
ARC
  5
19494
  8
0
 10
4402.1407744069019827
 20
238.2640088319444942
 30
0.0
 40
0.0101958914523145
 50
225.9185982449722019
 51
310.0298688026099967
  0
LINE
  5
19495
  8
0
 10
4402.1473322703932354
 20
238.2562017435668054
 30
0.0
 11
4402.1850049640243014
 21
238.2884608779829989
 31
0.0
  0
LINE
  5
19496
  8
0
 10
4402.1838560366832098
 20
238.2901862368491095
 30
0.0
 11
4402.1850049640061115
 21
238.2884608779681912
 31
0.0
  0
LINE
  5
19497
  8
0
 10
4402.1850049640061115
 20
238.2884608779681912
 30
0.0
 11
4402.1894520821515471
 21
238.2811009653599115
 31
0.0
  0
LINE
  5
19498
  8
0
 10
4402.1894520821515471
 20
238.2811009653599115
 30
0.0
 11
4402.3449256644071284
 21
238.1183541133291044
 31
0.0
  0
LINE
  5
19499
  8
0
 10
4402.3278271427188884
 20
238.1172826269313134
 30
0.0
 11
4402.1821592636342757
 21
238.2860241102580972
 31
0.0
  0
LINE
  5
1949A
  8
0
 10
4402.1761467550877569
 20
238.2808756107552881
 30
0.0
 11
4402.3257745120090476
 21
238.1168514521008035
 31
0.0
  0
LINE
  5
1949B
  8
0
 10
4402.3257745120090476
 20
238.1168514521008035
 30
0.0
 11
4402.3329876061879986
 21
238.1100755466632961
 31
0.0
  0
LINE
  5
1949C
  8
0
 10
4402.204325658619382
 20
238.2954755562720095
 30
0.0
 11
4402.3476805094724114
 21
238.1215879771710888
 31
0.0
  0
LINE
  5
1949D
  8
0
 10
4402.3593844239048849
 20
238.1493313402245917
 30
0.0
 11
4402.2122645704412207
 21
238.2967487307979013
 31
0.0
  0
LINE
  5
1949E
  8
0
 10
4401.9948591314469013
 20
238.583092905083987
 30
0.0
 11
4402.1893502899520172
 21
238.3788455963232025
 31
0.0
  0
LINE
  5
1949F
  8
0
 10
4402.1893502899520172
 20
238.3788455963232025
 30
0.0
 11
4402.3946522707801705
 21
238.1836461503862097
 31
0.0
  0
LINE
  5
194A0
  8
0
 10
4402.3636356395345501
 20
238.1562523243017893
 30
0.0
 11
4402.1894198341897209
 21
238.378769743885897
 31
0.0
  0
LINE
  5
194A1
  8
0
 10
4402.1894198341897209
 20
238.378769743885897
 30
0.0
 11
4402.0384715749250972
 21
238.579549083772207
 31
0.0
  0
LINE
  5
194A2
  8
0
 10
4402.2967995321259878
 20
238.321545122390603
 30
0.0
 11
4402.3987581106594007
 21
238.1885654587350984
 31
0.0
  0
LINE
  5
194A3
  8
0
 10
4401.8953041792474323
 20
238.6898962977521137
 30
0.0
 11
4401.7066935283946805
 21
238.9082956766251868
 31
0.0
  0
ARC
  5
194A4
  8
0
 10
4401.9436525304190582
 20
238.1541328864026923
 30
0.0
 40
0.2357970930348157
 50
33.8113038642761694
 51
48.5656040865842726
  0
ARC
  5
194A5
  8
0
 10
4402.2845994533900011
 20
238.452488014245688
 30
0.0
 40
0.2212925951709891
 50
213.3248096523695096
 51
229.0520982984783132
  0
ARC
  5
194A6
  8
0
 10
4401.7958095324584065
 20
238.0167729283161862
 30
0.0
 40
0.4131274533422064
 50
37.5303439312020615
 51
45.7773129329112223
  0
ARC
  5
194A7
  8
0
 10
4402.4321684804826873
 20
238.5828288436511002
 30
0.0
 40
0.4406322254306466
 50
217.7881409580280092
 51
225.5195159060662888
  0
ARC
  5
194A8
  8
0
 10
4402.1946303012582575
 20
237.8951742675018011
 30
0.0
 40
0.2420376500934505
 50
35.9787617168869289
 51
50.9910619002367227
  0
ARC
  5
194A9
  8
0
 10
4402.4801286745396283
 20
238.1659592334507067
 30
0.0
 40
0.1567476910124254
 50
211.8477708045300005
 51
235.1220480589761905
  0
LINE
  5
194AA
  8
0
 10
4402.667432410683432
 20
237.8657418488411111
 30
0.0
 11
4402.459508210677086
 21
238.0541068243607015
 31
0.0
  0
LINE
  5
194AB
  8
0
 10
4402.4903313685790636
 20
238.0807809630090048
 30
0.0
 11
4402.667432410683432
 21
237.8657418488411111
 31
0.0
  0
ARC
  5
194AC
  8
0
 10
4402.5456169244371267
 20
237.8002601132764937
 30
0.0
 40
0.1002420532550918
 50
56.5708144294140709
 51
61.5456848238597516
  0
LINE
  5
194AD
  8
0
 10
4402.5933780409486644
 20
237.8883926554520087
 30
0.0
 11
4402.454266053990068
 21
238.0476301754268889
 31
0.0
  0
LINE
  5
194AE
  8
0
 10
4402.4256748205370968
 20
238.0379163654768035
 30
0.0
 11
4402.5952940491606569
 21
237.8774091895392075
 31
0.0
  0
LINE
  5
194AF
  8
0
 10
4402.5829396527988138
 20
237.8629050895692103
 30
0.0
 11
4402.5815022749029595
 21
237.8640167281749882
 31
0.0
  0
LINE
  5
194B0
  8
0
 10
4402.5815022749029595
 20
237.8640167281749882
 30
0.0
 11
4402.5726527922570313
 21
237.8706402691946096
 31
0.0
  0
LINE
  5
194B1
  8
0
 10
4402.5726527922570313
 20
237.8706402691946096
 30
0.0
 11
4402.4225176419258787
 21
238.0352282992174935
 31
0.0
  0
ARC
  5
194B2
  8
0
 10
4401.7528951741487617
 20
237.4907066586054043
 30
0.0
 40
0.7920571062335118
 50
40.5385953583018974
 51
44.8160344689882919
  0
ARC
  5
194B3
  8
0
 10
4402.7220407554777921
 20
238.3842982717501968
 30
0.0
 40
0.5275604973528596
 50
219.465395080387708
 51
225.8892347469219999
  0
ARC
  5
194B4
  8
0
 10
4402.6606287061567855
 20
237.3539849890096889
 30
0.0
 40
0.4093750614491525
 50
34.9900366210886986
 51
57.7732933068939403
  0
LINE
  5
194B5
  8
0
 10
4402.9835096806828005
 20
237.6056510717972969
 30
0.0
 11
4402.9400504694722258
 21
237.5687652277929942
 31
0.0
  0
ARC
  5
194B6
  8
0
 10
4402.9330904860544251
 20
237.5769655387130115
 30
0.0
 40
0.0107557644248776
 50
255.971373942230997
 51
310.3228082060684869
  0
ARC
  5
194B7
  8
0
 10
4402.935716309115378
 20
237.5874747688177138
 30
0.0
 40
0.0215880709262048
 50
239.9751347681838922
 51
255.9713739422305991
  0
ARC
  5
194B8
  8
0
 10
4402.9637625509731151
 20
237.6360036351919121
 30
0.0
 40
0.0776384282302817
 50
232.5407044520594013
 51
239.9751347681838922
  0
ARC
  5
194B9
  8
0
 10
4403.1144224210720495
 20
237.8326364851795063
 30
0.0
 40
0.3253537369071979
 50
219.3915720179460891
 51
232.5407044520594013
  0
ARC
  5
194BA
  8
0
 10
4402.8904016043406955
 20
237.6486788912048098
 30
0.0
 40
0.0354818294887777
 50
203.8372872508981004
 51
219.3915720179460891
  0
ARC
  5
194BB
  8
0
 10
4402.8683174588832117
 20
237.6389214497723117
 30
0.0
 40
0.0113381523893803
 50
140.9877825823845967
 51
203.8372872508936098
  0
LINE
  5
194BC
  8
0
 10
4402.859507581239086
 20
237.6460586589969068
 30
0.0
 11
4402.8961588002775898
 21
237.6888185531865929
 31
0.0
  0
ARC
  5
194BD
  8
0
 10
4402.9164445970618544
 20
237.7049719716816014
 30
0.0
 40
0.0377988207173249
 50
187.1096741012540861
 51
221.9661786354523088
  0
ARC
  5
194BE
  8
0
 10
4403.009942174083335
 20
237.6421018642467118
 30
0.0
 40
0.0551714501840058
 50
231.491046455818406
 51
255.3600430519431086
  0
ARC
  5
194BF
  8
0
 10
4402.7912583223878755
 20
237.492466160951011
 30
0.0
 40
0.1521191635914146
 50
35.3255969684035165
 51
58.1664354990854022
  0
ARC
  5
194C0
  8
0
 10
4402.9798208225211056
 20
237.6928860777208001
 30
0.0
 40
0.1296207618874643
 50
213.3090842210968958
 51
240.1829482464034982
  0
LINE
  5
194C1
  8
0
 10
4402.9523963854198882
 20
237.5707043523256914
 30
0.0
 11
4402.9089987700090205
 21
237.5337714121891963
 31
0.0
  0
ARC
  5
194C2
  8
0
 10
4402.9022857119880427
 20
237.5416595117874863
 30
0.0
 40
0.0103579565203991
 50
259.001831040664797
 51
310.39898502938712
  0
ARC
  5
194C3
  8
0
 10
4402.9035049541080298
 20
237.5479330391139001
 30
0.0
 40
0.0167488638474065
 50
237.1734289654471013
 51
259.001831040664797
  0
ARC
  5
194C4
  8
0
 10
4403.1082433357214541
 20
237.8265740552529905
 30
0.0
 40
0.3624918881804065
 50
219.6410497352291884
 51
233.8532310565180978
  0
ARC
  5
194C5
  8
0
 10
4402.8403145663523901
 20
237.603554131544513
 30
0.0
 40
0.013913661501125
 50
147.8206839339682119
 51
216.3208518262964049
  0
LINE
  5
194C6
  8
0
 10
4402.8285382452722843
 20
237.6109641408702942
 30
0.0
 11
4402.8642906956956722
 21
237.6529146844609102
 31
0.0
  0
ARC
  5
194C7
  8
0
 10
4402.7126501196644313
 20
237.3924823371152968
 30
0.0
 40
0.3013633552468892
 50
59.7892650760681335
 51
63.7634722170865231
  0
ARC
  5
194C8
  8
0
 10
4402.9156602227849362
 20
237.6798638264486954
 30
0.0
 40
0.0718404374241106
 50
193.7418868965372099
 51
212.0491160832924891
  0
ARC
  5
194C9
  8
0
 10
4402.8467631583998809
 20
237.4924724548693007
 30
0.0
 40
0.1314481206792959
 50
36.5236234690553587
 51
39.3704001969582009
  0
ARC
  5
194CA
  8
0
 10
4402.909383025261377
 20
237.5384128739113123
 30
0.0
 40
0.0537855810634148
 50
14.5661169841968707
 51
36.8967067286302211
  0
ARC
  5
194CB
  8
0
 10
4403.040263388639687
 20
237.7134762208968937
 30
0.0
 40
0.1797419731365348
 50
237.1422448964393084
 51
243.9894110339000122
  0
ARC
  5
194CC
  8
0
 10
4402.8487416988646146
 20
237.4802003546064952
 30
0.0
 40
0.0837268032032302
 50
33.1414745827216279
 51
41.5925452938706428
  0
LINE
  5
194CD
  8
0
 10
4402.9137731503769828
 20
237.532950854696594
 30
0.0
 11
4402.8761033270247935
 21
237.5008922460471013
 31
0.0
  0
ARC
  5
194CE
  8
0
 10
4402.86965129134569
 20
237.5084735808111986
 30
0.0
 40
0.0099551695712747
 50
234.1977832093224094
 51
310.3991849981325117
  0
ARC
  5
194CF
  8
0
 10
4403.5166024106210898
 20
238.2743828072574956
 30
0.0
 40
1.0125043384815759
 50
224.5856142192193943
 51
229.8558338466737041
  0
ARC
  5
194D0
  8
0
 10
4402.8041622468626883
 20
237.5709669955091101
 30
0.0
 40
0.0113556011439993
 50
146.3731959409560091
 51
220.2436648565480084
  0
LINE
  5
194D1
  8
0
 10
4402.7947068663233949
 20
237.5772555133142134
 30
0.0
 11
4402.8260435116608278
 21
237.6138320170886118
 31
0.0
  0
ARC
  5
194D2
  8
0
 10
4402.7893090270772518
 20
237.5664802367884931
 30
0.0
 40
0.0599300713997747
 50
48.601768268576798
 51
52.196465531226039
  0
ARC
  5
194D3
  8
0
 10
4402.8776868112490774
 20
237.6890403428336072
 30
0.0
 40
0.0912322456678676
 50
228.8907391447773989
 51
235.5237826059309896
  0
LINE
  5
194D4
  8
0
 10
4402.8251669293804298
 20
237.612809334768798
 30
0.0
 11
4402.8177018799997313
 21
237.6203007569122008
 31
0.0
  0
LINE
  5
194D5
  8
0
 10
4402.8177018799997313
 20
237.6203007569122008
 30
0.0
 11
4402.661964121116398
 21
237.7765887110886922
 31
0.0
  0
LINE
  5
194D6
  8
0
 10
4402.8961587926769425
 20
237.6888185443187069
 30
0.0
 11
4402.7871033294750305
 21
237.8168023360103973
 31
0.0
  0
LINE
  5
194D7
  8
0
 10
4402.7871033294750305
 20
237.8168023360103973
 30
0.0
 11
4402.738078858758854
 21
237.8795113496823888
 31
0.0
  0
LINE
  5
194D8
  8
0
 10
4402.7100380790807321
 20
237.9081272850463904
 30
0.0
 11
4403.2049514498175995
 21
237.413402772257399
 31
0.0
  0
LINE
  5
194D9
  8
0
 10
4403.2047015637590448
 20
237.4132727149032007
 30
0.0
 11
4403.3809739247335528
 21
237.2363943806122961
 31
0.0
  0
LINE
  5
194DA
  8
0
 10
4403.3809739247335528
 20
237.2363943806122961
 30
0.0
 11
4403.7096089645556276
 21
236.9044183468527933
 31
0.0
  0
LINE
  5
194DB
  8
0
 10
4403.7096089645556276
 20
236.9044183468527933
 30
0.0
 11
4403.8642647376227615
 21
236.7504873942370978
 31
0.0
  0
LINE
  5
194DC
  8
0
 10
4403.8642647376227615
 20
236.7504873942370978
 30
0.0
 11
4403.879415824325406
 21
236.7366106232526022
 31
0.0
  0
LINE
  5
194DD
  8
0
 10
4403.879415824325406
 20
236.7366106232526022
 30
0.0
 11
4403.7181921426654299
 21
236.8568972549850002
 31
0.0
  0
LINE
  5
194DE
  8
0
 10
4403.7258541547371351
 20
236.8634167563403992
 30
0.0
 11
4403.6839721789501709
 21
236.8277734282289941
 31
0.0
  0
ARC
  5
194DF
  8
0
 10
4403.6773700504727458
 20
236.8354272114183914
 30
0.0
 40
0.0101078433673537
 50
238.5944515725138046
 51
310.7809482318637038
  0
ARC
  5
194E0
  8
0
 10
4403.7259400508301042
 20
236.9149803211556957
 30
0.0
 40
0.103315902050994
 50
231.56169373709929
 51
238.5944515725138046
  0
ARC
  5
194E1
  8
0
 10
4404.3667070175642948
 20
237.762403940554492
 30
0.0
 40
1.1656972120725619
 50
229.0872528481247059
 51
232.7866685075790087
  0
ARC
  5
194E2
  8
0
 10
4403.6314740323041406
 20
236.915450339742506
 30
0.0
 40
0.0441472033104453
 50
221.7462770826417966
 51
230.312227618608091
  0
ARC
  5
194E3
  8
0
 10
4403.6065111163497932
 20
236.8931729993880992
 30
0.0
 40
0.010689363179988
 50
142.414397343984291
 51
221.7462770826394092
  0
LINE
  5
194E4
  8
0
 10
4403.5980404060046567
 20
236.8996929343144018
 30
0.0
 11
4403.631849597704786
 21
236.9391703637724902
 31
0.0
  0
ARC
  5
194E5
  8
0
 10
4403.0755267122031
 20
236.1526121881229869
 30
0.0
 40
0.9634152358726357
 50
47.5440637067638789
 51
54.7287021359643333
  0
ARC
  5
194E6
  8
0
 10
4403.5529420569000649
 20
236.6744247178629053
 30
0.0
 40
0.2561573426356704
 50
42.4281016947030878
 51
47.5440637067638789
  0
ARC
  5
194E7
  8
0
 10
4403.8248175154612909
 20
236.9914646810798899
 30
0.0
 40
0.1662981329051216
 50
231.9769029931896966
 51
240.1389966582680131
  0
ARC
  5
194E8
  8
0
 10
4403.7957371269158102
 20
237.1765886430733872
 30
0.0
 40
0.2884901412128775
 50
228.8632082277291033
 51
235.3830587805971959
  0
ARC
  5
194E9
  8
0
 10
4415.1923738801870059
 20
251.1684858526994901
 30
0.0
 40
18.3342774277108482
 50
230.1862752356221051
 51
230.8055566941135908
  0
LINE
  5
194EA
  8
0
 10
4403.6246619694784386
 20
236.9307847737377983
 30
0.0
 11
4403.4526919871887003
 21
237.0660588851534953
 31
0.0
  0
LINE
  5
194EB
  8
0
 10
4403.4526919871887003
 20
237.0660588851534953
 30
0.0
 11
4403.4445997703496687
 21
237.0734376746349881
 31
0.0
  0
LINE
  5
194EC
  8
0
 10
4403.4558731576416903
 20
237.0830224387414091
 30
0.0
 11
4403.4047902043112117
 21
237.0395882441181072
 31
0.0
  0
ARC
  5
194ED
  8
0
 10
4403.398711749227914
 20
237.0475432021673896
 30
0.0
 40
0.0100114421421247
 50
234.1379415003245015
 51
307.3837709944743892
  0
ARC
  5
194EE
  8
0
 10
4404.2983819001219672
 20
238.1968961242590979
 30
0.0
 40
1.4695995041146901
 50
228.3161792699357875
 51
231.9624178963547934
  0
ARC
  5
194EF
  8
0
 10
4403.3283568417145943
 20
237.1065413628739122
 30
0.0
 40
0.0102304286183379
 50
141.0154608506445015
 51
224.5766679353760082
  0
LINE
  5
194F0
  8
0
 10
4403.3204045684142329
 20
237.1129774345835983
 30
0.0
 11
4403.3606107059804344
 21
237.1598849039476988
 31
0.0
  0
LINE
  5
194F1
  8
0
 10
4403.4818725972309039
 20
237.1099024499224015
 30
0.0
 11
4403.4380523241643459
 21
237.0726101314909897
 31
0.0
  0
ARC
  5
194F2
  8
0
 10
4403.4312102489711833
 20
237.0806498998923928
 30
0.0
 40
0.0105570767217909
 50
243.6094337212597054
 51
310.3987433903138822
  0
ARC
  5
194F3
  8
0
 10
4403.6284769771446008
 20
237.3848126551910127
 30
0.0
 40
0.3730211733708786
 50
222.8145862263286006
 51
237.2199911851851084
  0
ARC
  5
194F4
  8
0
 10
4403.3657696514528652
 20
237.1393589411858898
 30
0.0
 40
0.0135775125036474
 50
148.5490993866507949
 51
216.4251436902617058
  0
LINE
  5
194F5
  8
0
 10
4403.35418684384058
 20
237.146443248743708
 30
0.0
 11
4403.390484747186747
 21
237.1887033554035042
 31
0.0
  0
ARC
  5
194F6
  8
0
 10
4402.8060382958356058
 20
236.4185095967808081
 30
0.0
 40
0.9668381872458693
 50
45.6519771576680924
 51
52.8076672303410888
  0
ARC
  5
194F7
  8
0
 10
4403.4407984964182106
 20
237.0595812533638025
 30
0.0
 40
0.0649561743083178
 50
28.6239228268050709
 51
50.7773508821938435
  0
ARC
  5
194F8
  8
0
 10
4403.5310322999903292
 20
237.1887657766428106
 30
0.0
 40
0.1035394110619348
 50
236.2023974295431969
 51
251.2881424939511987
  0
ARC
  5
194F9
  8
0
 10
4403.2591478556259972
 20
236.9483605897420091
 30
0.0
 40
0.2045423893978185
 50
41.6115422409714313
 51
58.5551712348621365
  0
ARC
  5
194FA
  8
0
 10
4403.5164968359176783
 20
237.255964897403004
 30
0.0
 40
0.2010206322258968
 50
221.4620008719545012
 51
238.7047126038507088
  0
ARC
  5
194FB
  8
0
 10
4402.7952326129443463
 20
236.3978059820701958
 30
0.0
 40
0.8761656716937034
 50
48.2546476190382734
 51
52.1024626709546226
  0
ARC
  5
194FC
  8
0
 10
4403.821475493195976
 20
237.628603909475288
 30
0.0
 40
0.7274330885884033
 50
227.8610848969844085
 51
232.4960245392188938
  0
LINE
  5
194FD
  8
0
 10
4403.3508920268868678
 20
237.1485463633327981
 30
0.0
 11
4403.1714819201342834
 21
237.2967170627811129
 31
0.0
  0
LINE
  5
194FE
  8
0
 10
4403.3635511097518247
 20
237.1575657290721892
 30
0.0
 11
4403.1877203695830758
 21
237.2962481232223979
 31
0.0
  0
LINE
  5
194FF
  8
0
 10
4403.1877203695830758
 20
237.2962481232223979
 30
0.0
 11
4403.1795530470772064
 21
237.3057347096518868
 31
0.0
  0
ARC
  5
19500
  8
0
 10
4403.3338933127561177
 20
237.1110297490311893
 30
0.0
 40
0.0961029634183524
 50
53.9236684506149473
 51
66.8177162787882253
  0
ARC
  5
19501
  8
0
 10
4403.4121135471459638
 20
237.2087168365789864
 30
0.0
 40
0.0414553070437845
 50
193.0260117737292092
 51
224.4408470952658092
  0
LINE
  5
19502
  8
0
 10
4403.3752582635215731
 20
237.1897370960365947
 30
0.0
 11
4403.2088148964030552
 21
237.3142507516878936
 31
0.0
  0
ARC
  5
19503
  8
0
 10
4402.9892097517777074
 20
237.1363920430675023
 30
0.0
 40
0.2825953640420646
 50
39.0040917931315434
 51
53.8175979042139403
  0
ARC
  5
19504
  8
0
 10
4402.9751611558976947
 20
237.1893122892957138
 30
0.0
 40
0.251801395573036
 50
44.0817630671777181
 51
59.8441767055880902
  0
ARC
  5
19505
  8
0
 10
4403.083248177204041
 20
237.39142774033769
 30
0.0
 40
0.0241328091400215
 50
40.2965466648434685
 51
68.5367889544863544
  0
ARC
  5
19506
  8
0
 10
4403.1698591459689851
 20
237.440248702728212
 30
0.0
 40
0.082126572341256
 50
198.7227253420547015
 51
214.2970875624675102
  0
LINE
  5
19507
  8
0
 10
4403.1092643363799652
 20
237.4024326304115959
 30
0.0
 11
4403.0744400972198491
 21
237.3618023965196073
 31
0.0
  0
ARC
  5
19508
  8
0
 10
4403.0824896296271618
 20
237.3550463836041899
 30
0.0
 40
0.0105089810379051
 50
139.993094066622092
 51
212.8153708779767896
  0
ARC
  5
19509
  8
0
 10
4403.1134371036296216
 20
237.3750024221683077
 30
0.0
 40
0.0473327454064898
 50
212.8153708779755107
 51
223.1226650453288869
  0
ARC
  5
1950A
  8
0
 10
4403.3821530563145643
 20
237.6266618202974996
 30
0.0
 40
0.415491292630989
 50
223.1226650453288869
 51
235.016457125441292
  0
ARC
  5
1950B
  8
0
 10
4403.1502559177979492
 20
237.2952758387777124
 30
0.0
 40
0.0110250374246871
 50
235.016457125441292
 51
309.0023724365281055
  0
LINE
  5
1950C
  8
0
 10
4403.1571945534324186
 20
237.2867080627677865
 30
0.0
 11
4403.2007486062502721
 21
237.3237725458600949
 31
0.0
  0
ARC
  5
1950D
  8
0
 10
4403.181158784012041
 20
237.2922581686173942
 30
0.0
 40
0.0353346043237365
 50
21.3015921574357208
 51
38.4922817985296319
  0
ARC
  5
1950E
  8
0
 10
4403.2517564792142366
 20
237.3910845296402954
 30
0.0
 40
0.0938821732871467
 50
231.5787975102979033
 51
246.3390630483166888
  0
LINE
  5
1950F
  8
0
 10
4403.1806205450739071
 20
237.3044947791840116
 30
0.0
 11
4403.1398133695902288
 21
237.2698159467396124
 31
0.0
  0
ARC
  5
19510
  8
0
 10
4403.1337571255853618
 20
237.2780167869397019
 30
0.0
 40
0.0101946982024574
 50
236.5521904558783035
 51
306.4455219889030104
  0
ARC
  5
19511
  8
0
 10
4403.5077997958396736
 20
237.7667903563877019
 30
0.0
 40
0.6256439506130773
 50
224.0535671564803977
 51
232.6390997109594991
  0
ARC
  5
19512
  8
0
 10
4403.0654834094057151
 20
237.338850491667813
 30
0.0
 40
0.0101958914523145
 50
139.9422965988622138
 51
224.0535671564780955
  0
LINE
  5
19513
  8
0
 10
4403.0576795077959105
 20
237.3454121471106077
 30
0.0
 11
4403.0899569400016844
 21
237.3830691646338948
 31
0.0
  0
LINE
  5
19514
  8
0
 10
4403.0916817405095571
 20
237.3819193992408998
 30
0.0
 11
4403.0899569399871325
 21
237.383069164616586
 31
0.0
  0
LINE
  5
19515
  8
0
 10
4403.0899569399871325
 20
237.383069164616586
 30
0.0
 11
4403.0825991886813426
 21
237.3875198577237029
 31
0.0
  0
LINE
  5
19516
  8
0
 10
4403.0825991886813426
 20
237.3875198577237029
 30
0.0
 11
4402.9199278857568061
 21
237.5430724849275919
 31
0.0
  0
LINE
  5
19517
  8
0
 10
4402.9188480929306024
 20
237.5259744857903002
 30
0.0
 11
4403.0875187901074241
 21
237.3802246483762133
 31
0.0
  0
LINE
  5
19518
  8
0
 10
4403.0823673703025634
 20
237.3742146417085053
 30
0.0
 11
4402.9184159209717109
 21
237.5239220647893887
 31
0.0
  0
LINE
  5
19519
  8
0
 10
4402.9184159209717109
 20
237.5239220647893887
 30
0.0
 11
4402.9116435204959998
 21
237.5311384498882035
 31
0.0
  0
LINE
  5
1951A
  8
0
 10
4403.0969810035603587
 20
237.4023864491821882
 30
0.0
 11
4402.9231630875347037
 21
237.5458257586386992
 31
0.0
  0
LINE
  5
1951B
  8
0
 10
4402.9509121331393544
 20
237.5575161938151894
 30
0.0
 11
4403.0982580347017574
 21
237.4103247415519036
 31
0.0
  0
LINE
  5
1951C
  8
0
 10
4403.3844965584676174
 20
237.1927802206739955
 30
0.0
 11
4403.1803437586586369
 21
237.3873705806686871
 31
0.0
  0
LINE
  5
1951D
  8
0
 10
4403.1803437586586369
 20
237.3873705806686871
 30
0.0
 11
4402.9852440725617271
 21
237.5927673662093014
 31
0.0
  0
LINE
  5
1951E
  8
0
 10
4402.9578351816644499
 20
237.5617640466930141
 30
0.0
 11
4403.1802679400161651
 21
237.3874401617484011
 31
0.0
  0
LINE
  5
1951F
  8
0
 10
4403.1802679400161651
 20
237.3874401617484011
 30
0.0
 11
4403.3809739247335528
 21
237.2363943806122961
 31
0.0
  0
LINE
  5
19520
  8
0
 10
4403.1230954909069624
 20
237.4948476470416097
 30
0.0
 11
4402.9901653749675461
 21
237.5968708157774927
 31
0.0
  0
LINE
  5
19521
  8
0
 10
4403.4912515742025789
 20
237.0931733945608926
 30
0.0
 11
4403.7095592992372985
 21
236.9044566663743865
 31
0.0
  0
ARC
  5
19522
  8
0
 10
4402.9555117139643698
 20
237.1417820167700938
 30
0.0
 40
0.2357970930348157
 50
41.4065613148983971
 51
56.1608615372097333
  0
ARC
  5
19523
  8
0
 10
4403.2540324404471903
 20
237.4825839569842003
 30
0.0
 40
0.2212925951709891
 50
220.9200671029942953
 51
236.647355749078713
  0
ARC
  5
19524
  8
0
 10
4402.8180799491628932
 20
236.9940057664607878
 30
0.0
 40
0.4131274533422064
 50
44.1948524685450224
 51
52.4418214702612602
  0
ARC
  5
19525
  8
0
 10
4403.3844449442976838
 20
237.6300896463897061
 30
0.0
 40
0.4406322254306466
 50
224.4526494953699114
 51
232.1840244434253862
  0
ARC
  5
19526
  8
0
 10
4402.6966750519695779
 20
237.3928855614811937
 30
0.0
 40
0.2420376500934505
 50
38.9811035012370795
 51
53.9934036845830576
  0
ARC
  5
19527
  8
0
 10
4402.967598682607786
 20
237.6782523522828967
 30
0.0
 40
0.1567476910124254
 50
214.8501173424913873
 51
238.1243945969335982
  0
LINE
  5
19528
  8
0
 10
4402.6674723265859939
 20
237.8657019135414998
 30
0.0
 11
4402.8557362691863091
 21
237.657686229353402
 31
0.0
  0
LINE
  5
19529
  8
0
 10
4402.8824253787415728
 20
237.6884964251784993
 30
0.0
 11
4402.6674723265859939
 21
237.8657019135414998
 31
0.0
  0
LINE
  5
1952A
  8
0
 10
4402.6836914874420472
 20
237.797229368014996
 30
0.0
 11
4402.8492570743483157
 21
237.6524472196769864
 31
0.0
  0
LINE
  5
1952B
  8
0
 10
4402.8395293757703257
 20
237.6238607086181958
 30
0.0
 11
4402.6791046207035834
 21
237.7935578924752065
 31
0.0
  0
LINE
  5
1952C
  8
0
 10
4402.672324701915386
 20
237.7709199266213886
 30
0.0
 11
4402.8368397760523294
 21
237.6207048362566923
 31
0.0
  0
ARC
  5
1952D
  8
0
 10
4402.2919928935052667
 20
236.951346979034696
 30
0.0
 40
0.7920571062335118
 50
45.1561309324766498
 51
49.4335700431547593
  0
ARC
  5
1952E
  8
0
 10
4403.1860552173311589
 20
237.9200583343967139
 30
0.0
 40
0.5275604973528596
 50
224.0829306545649047
 51
230.5067703210557966
  0
LINE
  5
1952F
  8
0
 10
4402.672324701915386
 20
237.7709199266213886
 30
0.0
 11
4402.6659981752045496
 21
237.7797498554471929
 31
0.0
  0
LINE
  5
19530
  8
0
 10
4402.6659981752045496
 20
237.7797498554471929
 30
0.0
 11
4402.6653056831737558
 21
237.7814856577998057
 31
0.0
  0
LINE
  5
19531
  8
0
 10
4404.1354201372687385
 20
237.9557865280031024
 30
0.0
 11
4404.0426104869920891
 21
238.0694167844796141
 31
0.0
  0
ARC
  5
19532
  8
0
 10
4401.4842275371929645
 20
239.1628364563796083
 30
0.0
 40
0.0196850394000004
 50
134.6509124156883956
 51
224.9999999999953957
  0
LINE
  5
19533
  8
0
 10
4401.4703081123452648
 20
239.1489170315319086
 30
0.0
 11
4401.5365701990067464
 21
239.0826549448696881
 31
0.0
  0
ARC
  5
19534
  8
0
 10
4401.554020356113142
 20
239.0891285611230046
 30
0.0
 40
0.0186122457110425
 50
200.3537223276634904
 51
215.8283307290631967
  0
LINE
  5
19535
  8
0
 10
4401.5365701990067464
 20
239.0826549448696881
 30
0.0
 11
4403.9505056069947386
 21
236.6687195282833898
 31
0.0
  0
ARC
  5
19536
  8
0
 10
4403.8880993596294502
 20
236.7479371685352021
 30
0.0
 40
0.0142721551774119
 50
232.5242964600437006
 51
258.6009535905715211
  0
LINE
  5
19537
  8
0
 10
4408.3388343060923944
 20
223.9493679634769023
 30
0.0
 11
4408.4013929408965851
 21
223.9493679634769023
 31
0.0
  0
LINE
  5
19538
  8
0
 10
4405.3961528022737184
 20
219.6779852851796022
 30
0.0
 11
4405.5882586952338897
 21
219.6779852851796022
 31
0.0
  0
LINE
  5
19539
  8
0
 10
4405.3963540198947157
 20
223.7330317228993124
 30
0.0
 11
4406.1294556643124452
 21
223.7330317228993124
 31
0.0
  0
LINE
  5
1953A
  8
0
 10
4406.2170572698369142
 20
223.7330317228993124
 30
0.0
 11
4407.9931069123922498
 21
223.7486073104795992
 31
0.0
  0
LINE
  5
1953B
  8
0
 10
4409.1879556642916214
 20
226.2050200154037043
 30
0.0
 11
4409.1879556642916214
 21
219.8465533314806919
 31
0.0
  0
LINE
  5
1953C
  8
0
 10
4408.5400785111578443
 20
222.1098891823519068
 30
0.0
 11
4408.5400785111578443
 21
223.9388449866073074
 31
0.0
  0
LINE
  5
1953D
  8
0
 10
4407.9931069123922498
 20
222.3001268584795866
 30
0.0
 11
4407.9931069123922498
 21
223.7486073104795992
 31
0.0
  0
LINE
  5
1953E
  8
0
 10
4405.3648582715741213
 20
219.7094813480796063
 30
0.0
 11
4405.3648582715741213
 21
223.7016223461698132
 31
0.0
  0
LINE
  5
1953F
  8
0
 10
4406.1594556642921816
 20
222.3432491262803126
 30
0.0
 11
4406.1594556642921816
 21
223.7030285017796132
 31
0.0
  0
LINE
  5
19540
  8
0
 10
4406.189455664291927
 20
222.3413628442015124
 30
0.0
 11
4406.189455664291927
 21
223.703127748179611
 31
0.0
  0
ARC
  5
19541
  8
0
 10
4405.3964645850483066
 20
219.7095902484317094
 30
0.0
 40
0.0316065010823051
 50
180.1974132756157019
 51
269.4347958122007753
  0
ARC
  5
19542
  8
0
 10
4405.5859554538692464
 20
219.7095712783574868
 30
0.0
 40
0.0316698576855068
 50
274.170609796370627
 51
356.8254279570281824
  0
LINE
  5
19543
  8
0
 10
4405.6175767122422258
 20
219.7078174526295982
 30
0.0
 11
4405.7765745841934404
 21
222.285718730579589
 31
0.0
  0
ARC
  5
19544
  8
0
 10
4405.8080500422393015
 20
222.2841878307112893
 30
0.0
 40
0.0315126659239855
 50
90.0133519080727069
 51
177.2154485439847065
  0
LINE
  5
19545
  8
0
 10
4405.8080426986916791
 20
222.3157004957795948
 30
0.0
 11
4406.1294556555649251
 21
222.3157753961712899
 31
0.0
  0
ARC
  5
19546
  8
0
 10
4406.1294486356673588
 20
222.3458992191316952
 30
0.0
 40
0.0301238237783418
 50
270.0133519080727069
 51
354.9529755255767896
  0
ARC
  5
19547
  8
0
 10
4406.2196946012318222
 20
222.346231905167798
 30
0.0
 40
0.0306284355116718
 50
189.1472273871663958
 51
269.0632506856744044
  0
LINE
  5
19548
  8
0
 10
4406.2191938682281034
 20
222.3156075630793111
 30
0.0
 11
4407.9931069124122587
 21
222.3001268584793877
 31
0.0
  0
ARC
  5
19549
  8
0
 10
4407.9927578513079425
 20
222.2601283827993939
 30
0.0
 40
0.039999998754671
 50
57.9124036259161201
 51
89.5000004660738568
  0
LINE
  5
1954A
  8
0
 10
4408.0140064577926751
 20
222.2940178593796077
 30
0.0
 11
4408.3122735457664021
 21
222.1070052342533074
 31
0.0
  0
ARC
  5
1954B
  8
0
 10
4408.338834293632317
 20
222.1493670636482989
 30
0.0
 40
0.0499999791687078
 50
237.9124036259169088
 51
270.0000142780928059
  0
LINE
  5
1954C
  8
0
 10
4408.3388343060923944
 20
222.09936708447961
 30
0.0
 11
4408.4009556642922689
 21
222.0993670999602045
 31
0.0
  0
ARC
  5
1954D
  8
0
 10
4408.4009554337817463
 20
223.0243714929430041
 30
0.0
 40
0.9250043929828443
 50
270.0000142780928059
 51
278.6506382257226164
  0
ARC
  5
1954E
  8
0
 10
4405.3963919967900438
 20
223.7014977744975965
 30
0.0
 40
0.0315339712698083
 50
90.0690022917731739
 51
179.7736583964189094
  0
ARC
  5
1954F
  8
0
 10
4406.1294501647844299
 20
223.7030262238087062
 30
0.0
 40
0.0300054995945414
 50
0.0043498064112459
 51
89.9894986383390432
  0
ARC
  5
19550
  8
0
 10
4406.2194556642925818
 20
223.703127748179611
 30
0.0
 40
0.0300000000000064
 50
94.5854895177436816
 51
179.9999999999886029
  0
LINE
  5
19551
  8
0
 10
4406.189455664291927
 20
223.429367084479594
 30
0.0
 11
4406.1594556642921816
 21
223.429367084479594
 31
0.0
  0
LINE
  5
19552
  8
0
 10
4406.1594556642921816
 20
222.6193670844795918
 30
0.0
 11
4406.189455664291927
 21
222.6193670844795918
 31
0.0
  0
ARC
  5
19553
  8
0
 10
4407.9927565648213204
 20
223.7886086504836101
 30
0.0
 40
0.040003108963513
 50
270.3061711735545032
 51
302.0869781433283947
  0
LINE
  5
19554
  8
0
 10
4408.0140064577926751
 20
223.7547163095279075
 30
0.0
 11
4408.312275563653202
 21
223.9417257162974124
 31
0.0
  0
ARC
  5
19555
  8
0
 10
4408.3388527026127122
 20
223.8993337326521953
 30
0.0
 40
0.0500342342066281
 50
90.0210664353909351
 51
122.085155806581696
  0
ARC
  5
19556
  8
0
 10
4408.4009360161307995
 20
223.0241944870990949
 30
0.0
 40
0.9251735892107505
 50
81.3501184656515051
 51
89.9717027571650334
  0
LINE
  5
19557
  8
0
 10
4408.3122735475926675
 20
223.9417289317796076
 30
0.0
 11
4408.3122735475926675
 21
222.1070052331087084
 31
0.0
  0
ARC
  5
19558
  8
0
 10
4409.1779245881880342
 20
219.8465852923540922
 30
0.0
 40
0.010031127020246
 50
268.3927420783713274
 51
359.8174456056781878
  0
LINE
  5
19559
  8
0
 10
4409.1776432324923007
 20
219.8365581118796115
 30
0.0
 11
4409.1255786811925645
 21
219.8376583023795945
 31
0.0
  0
ARC
  5
1955A
  8
0
 10
4409.1245567483892955
 20
219.7892971568705036
 30
0.0
 40
0.04837194167708
 50
88.7894471247404766
 51
98.260846606757454
  0
LINE
  5
1955B
  8
0
 10
4409.1176066692923996
 20
219.8371672011795965
 30
0.0
 11
4409.1176066692923996
 21
219.8358237254795995
 31
0.0
  0
ARC
  5
1955C
  8
0
 10
4409.1179904434893615
 20
219.8456290013380965
 30
0.0
 40
0.0098127833610841
 50
267.7586125627152001
 51
305.7164067098229907
  0
LINE
  5
1955D
  8
0
 10
4409.1176066693233224
 20
219.835823725478491
 30
0.0
 11
4408.6405247814445829
 21
219.8524837921285098
 31
0.0
  0
ARC
  5
1955E
  8
0
 10
4408.6416241155920943
 20
219.8839646031796065
 30
0.0
 40
0.0314999999999961
 50
182.2509468629945104
 51
267.9999999982234726
  0
LINE
  5
1955F
  8
0
 10
4408.5400785111578443
 20
222.1098891823548058
 30
0.0
 11
4408.6101484213895674
 21
219.8827273989026025
 31
0.0
  0
LINE
  5
19560
  8
0
 10
4408.5400785081819777
 20
223.9388449870600937
 30
0.0
 11
4408.6101484213895674
 21
226.1660067700566117
 31
0.0
  0
ARC
  5
19561
  8
0
 10
4408.6413703137623088
 20
226.1650244816096915
 30
0.0
 40
0.0312373406992313
 50
91.5510715610231216
 51
178.1979816237455054
  0
LINE
  5
19562
  8
0
 10
4408.6405247814482209
 20
226.1962503767780106
 30
0.0
 11
4409.1780663774206914
 21
226.2150056895783052
 31
0.0
  0
ARC
  5
19563
  8
0
 10
4409.1779653632511327
 20
226.2050158983917072
 30
0.0
 40
0.0099903018897494
 50
359.9763883589216107
 51
89.4206595175339061
  0
LINE
  5
19564
  8
0
 10
4408.6101484213922959
 20
226.1660067700796048
 30
0.0
 11
4408.6101484213922959
 21
219.8827273988796094
 31
0.0
  0
LINE
  5
19566
  8
0
 10
4406.1694556642933094
 20
223.429367084479594
 30
0.0
 11
4406.1694556642933094
 21
222.6193670844795918
 31
0.0
  0
LINE
  5
19677
  8
0
 10
4408.9483707814270019
 20
242.1614095732512055
 30
0.0
 11
4408.9483707814270019
 21
239.8873246001315067
 31
0.0
  0
ENDSEC
  0
EOF
